  0
SECTION
  2
HEADER
  9
$ACADVER
  1
AC1009
  9
$INSBASE
 10
0.0
 20
0.0
 30
0.0
  9
$EXTMIN
 10
21.08055276639595
 20
29.29983430605688
 30
0.0
  9
$EXTMAX
 10
350.7892904001427
 20
195.5395329014552
 30
0.0
  9
$LIMMIN
 10
0.0
 20
0.0
  9
$LIMMAX
 10
10000.0
 20
10000.0
  9
$ORTHOMODE
 70
     1
  9
$REGENMODE
 70
     1
  9
$FILLMODE
 70
     1
  9
$QTEXTMODE
 70
     0
  9
$MIRRTEXT
 70
     1
  9
$DRAGMODE
 70
     2
  9
$LTSCALE
 40
5.0
  9
$OSMODE
 70
   447
  9
$ATTMODE
 70
     1
  9
$TEXTSIZE
 40
3.5
  9
$TRACEWID
 40
1.0
  9
$TEXTSTYLE
  7
AD-STANDARD
  9
$CLAYER
  8
1
  9
$CELTYPE
  6
BYLAYER
  9
$CECOLOR
 62
   256
  9
$DIMSCALE
 40
1.0
  9
$DIMASZ
 40
0.18
  9
$DIMEXO
 40
0.0625
  9
$DIMDLI
 40
0.38
  9
$DIMRND
 40
0.0
  9
$DIMDLE
 40
0.0
  9
$DIMEXE
 40
0.18
  9
$DIMTP
 40
0.0
  9
$DIMTM
 40
0.0
  9
$DIMTXT
 40
0.18
  9
$DIMCEN
 40
0.09
  9
$DIMTSZ
 40
0.0
  9
$DIMTOL
 70
     0
  9
$DIMLIM
 70
     0
  9
$DIMTIH
 70
     1
  9
$DIMTOH
 70
     1
  9
$DIMSE1
 70
     0
  9
$DIMSE2
 70
     0
  9
$DIMTAD
 70
     0
  9
$DIMZIN
 70
     0
  9
$DIMBLK
  1

  9
$DIMASO
 70
     1
  9
$DIMSHO
 70
     1
  9
$DIMPOST
  1

  9
$DIMAPOST
  1

  9
$DIMALT
 70
     0
  9
$DIMALTD
 70
     2
  9
$DIMALTF
 40
25.399999999999999
  9
$DIMLFAC
 40
1.0
  9
$DIMTOFL
 70
     0
  9
$DIMTVP
 40
0.0
  9
$DIMTIX
 70
     0
  9
$DIMSOXD
 70
     0
  9
$DIMSAH
 70
     0
  9
$DIMBLK1
  1

  9
$DIMBLK2
  1

  9
$DIMSTYLE
  2
STANDARD
  9
$DIMCLRD
 70
     0
  9
$DIMCLRE
 70
     0
  9
$DIMCLRT
 70
     0
  9
$DIMTFAC
 40
1.0
  9
$DIMGAP
 40
0.09
  9
$LUNITS
 70
     2
  9
$LUPREC
 70
     4
  9
$SKETCHINC
 40
1.0
  9
$FILLETRAD
 40
1.5
  9
$AUNITS
 70
     0
  9
$AUPREC
 70
     0
  9
$MENU
  1
.
  9
$ELEVATION
 40
0.0
  9
$PELEVATION
 40
0.0
  9
$THICKNESS
 40
0.0
  9
$LIMCHECK
 70
     0
  9
$BLIPMODE
 70
     0
  9
$CHAMFERA
 40
0.0
  9
$CHAMFERB
 40
0.0
  9
$SKPOLY
 70
     0
  9
$TDCREATE
 40
2451430.616412153
  9
$TDUPDATE
 40
2457567.5878039589
  9
$TDINDWG
 40
0.5422622569
  9
$TDUSRTIMER
 40
0.5422606481
  9
$USRTIMER
 70
     1
  9
$ANGBASE
 50
0.0
  9
$ANGDIR
 70
     0
  9
$PDMODE
 70
     0
  9
$PDSIZE
 40
0.0
  9
$PLINEWID
 40
0.0
  9
$COORDS
 70
     1
  9
$SPLFRAME
 70
     0
  9
$SPLINETYPE
 70
     6
  9
$SPLINESEGS
 70
     8
  9
$ATTDIA
 70
     0
  9
$ATTREQ
 70
     1
  9
$HANDLING
 70
     1
  9
$HANDSEED
  5
3B77
  9
$SURFTAB1
 70
     6
  9
$SURFTAB2
 70
     6
  9
$SURFTYPE
 70
     6
  9
$SURFU
 70
     6
  9
$SURFV
 70
     6
  9
$UCSNAME
  2

  9
$UCSORG
 10
0.0
 20
0.0
 30
0.0
  9
$UCSXDIR
 10
1.0
 20
0.0
 30
0.0
  9
$UCSYDIR
 10
0.0
 20
1.0
 30
0.0
  9
$PUCSNAME
  2

  9
$PUCSORG
 10
0.0
 20
0.0
 30
0.0
  9
$PUCSXDIR
 10
1.0
 20
0.0
 30
0.0
  9
$PUCSYDIR
 10
0.0
 20
1.0
 30
0.0
  9
$USERI1
 70
     0
  9
$USERI2
 70
     0
  9
$USERI3
 70
     0
  9
$USERI4
 70
     0
  9
$USERI5
 70
     0
  9
$USERR1
 40
0.0
  9
$USERR2
 40
0.0
  9
$USERR3
 40
0.0
  9
$USERR4
 40
0.0
  9
$USERR5
 40
0.0
  9
$WORLDVIEW
 70
     1
  9
$SHADEDGE
 70
     3
  9
$SHADEDIF
 70
    70
  9
$TILEMODE
 70
     1
  9
$MAXACTVP
 70
    16
  9
$PLIMCHECK
 70
     0
  9
$PEXTMIN
 10
19.970380158506359
 20
11.991401124274599
 30
-0.0015258207003583
  9
$PEXTMAX
 10
405.02405826069639
 20
277.00653095576041
 30
0.0000000349246037
  9
$PLIMMIN
 10
15.764304539401961
 20
7.7853093970341742
  9
$PLIMMAX
 10
409.23014998793678
 20
286.00426647099982
  9
$UNITMODE
 70
     0
  9
$VISRETAIN
 70
     0
  9
$PLINEGEN
 70
     0
  9
$PSLTSCALE
 70
     1
  0
ENDSEC
  0
SECTION
  2
TABLES
  0
TABLE
  2
VPORT
 70
     1
  0
VPORT
  2
*ACTIVE
 70
     0
 10
0.0
 20
0.0
 11
1.0
 21
1.0
 12
99.051596291074645
 22
126.974580914648
 13
0.0
 23
0.0
 14
168.0
 24
168.0
 15
0.0
 25
0.0
 16
0.0
 26
0.0
 36
1.0
 17
0.0
 27
0.0
 37
0.0
 40
263.27220731105518
 41
1.308564231738035
 42
50.0
 43
0.0
 44
0.0
 50
0.0
 51
0.0
 71
     0
 72
   100
 73
     1
 74
     0
 75
     0
 76
     0
 77
     0
 78
     1
  0
ENDTAB
  0
TABLE
  2
LTYPE
 70
     5
  0
LTYPE
  2
CONTINUOUS
 70
     0
  3
Solid line
 72
    65
 73
     0
 40
0.0
  0
LTYPE
  2
PHANTOM2
 70
     0
  3
___ _ _ ___ _ _ ___ _ _ ___ _ _
 72
    65
 73
     6
 40
1.25
 49
0.625
 49
-0.125
 49
0.125
 49
-0.125
 49
0.125
 49
-0.125
  0
LTYPE
  2
CENTER
 70
     0
  3
____ _ ____ _ ____ _ ____ _ ____ _ ____ _ ____ 
 72
    65
 73
     4
 40
2.0
 49
1.25
 49
-0.25
 49
0.25
 49
-0.25
  0
LTYPE
  2
HIDDEN
 70
     0
  3
__ __ __ __ __ __ __ __ __ __ __ __ __ __ __ __
 72
    65
 73
     2
 40
0.375
 49
0.25
 49
-0.125
  0
ENDTAB
  0
TABLE
  2
LAYER
 70
     4
  0
LAYER
  2
0
 70
     0
 62
     7
  6
CONTINUOUS
  0
LAYER
  2
1
 70
     0
 62
     7
  6
CONTINUOUS
  0
LAYER
  2
DEFPOINTS
 70
     0
 62
     7
  6
CONTINUOUS
  0
LAYER
  2
CENTER
 70
     0
 62
     9
  6
CENTER
  0
ENDTAB
  0
TABLE
  2
STYLE
 70
     4
  0
STYLE
  2
STANDARD
 70
     0
 40
0.0
 41
0.8
 50
0.0
 71
     0
 42
84.175084175084123
  3
TXT
  4
bigfont.shx
  0
STYLE
  2
ANNOTATIVE
 70
     0
 40
0.0
 41
1.0
 50
0.0
 71
     0
 42
0.2
  3
txt
  4

  0
STYLE
  2
AD-STANDARD
 70
     0
 40
0.0
 41
0.8
 50
0.0
 71
     0
 42
3.5
  3
C:\Program Files\AutoCAD LT\romans.shx
  4
bigfont.shx
  0
STYLE
  2

 70
     1
 40
0.0
 41
1.0
 50
0.0
 71
     0
 42
3.5
  3
ltypeshp.shx
  4

  0
ENDTAB
  0
TABLE
  2
VIEW
 70
     0
  0
ENDTAB
  0
TABLE
  2
UCS
 70
     0
  0
ENDTAB
  0
TABLE
  2
APPID
 70
    13
  0
APPID
  2
ACAD
 70
     0
  0
APPID
  2
ACADANNOTATIVE
 70
     0
  0
APPID
  2
CONTENTTABDATA
 70
     0
  0
APPID
  2
CONTENTCURRENTTAB
 70
     0
  0
APPID
  2
CONTENTBLOCKDESCRIPTION
 70
     0
  0
APPID
  2
CONTENTBLOCKICON
 70
     0
  0
APPID
  2
ACAD_PSEXT
 70
     0
  0
APPID
  2
ACAD_NAV_VCDISPLAY
 70
     0
  0
APPID
  2
ACAD_DSTYLE_DIMRADIAL_EXTENSION
 70
     0
  0
APPID
  2
ACAECLAYERSTANDARD
 70
     0
  0
APPID
  2
ACCMTRANSPARENCY
 70
     0
  0
APPID
  2
ACAD_EXEMPT_FROM_CAD_STANDARDS
 70
     0
  0
APPID
  2
ACAD_MLEADERVER
 70
     0
  0
ENDTAB
  0
TABLE
  2
DIMSTYLE
 70
     4
  0
DIMSTYLE
  2
STANDARD
 70
     0
  3

  4

  5

  6

  7

 40
1.0
 41
0.18
 42
0.0625
 43
0.38
 44
0.18
 45
0.0
 46
0.0
 47
0.0
 48
0.0
140
0.18
141
0.09
142
0.0
143
25.399999999999999
144
1.0
145
0.0
146
1.0
147
0.09
 71
     0
 72
     0
 73
     1
 74
     1
 75
     0
 76
     0
 77
     0
 78
     0
170
     0
171
     2
172
     0
173
     0
174
     0
175
     0
176
     0
177
     0
178
     0
  0
DIMSTYLE
  2
ANNOTATIVE
 70
     0
  3

  4

  5

  6

  7

 40
1.0
 41
0.18
 42
0.0625
 43
0.38
 44
0.18
 45
0.0
 46
0.0
 47
0.0
 48
0.0
140
0.18
141
0.09
142
0.0
143
25.399999999999999
144
1.0
145
0.0
146
1.0
147
0.09
 71
     0
 72
     0
 73
     1
 74
     1
 75
     0
 76
     0
 77
     0
 78
     0
170
     0
171
     2
172
     0
173
     0
174
     0
175
     0
176
     0
177
     0
178
     0
  0
DIMSTYLE
  2
AD-STANDARD
 70
     0
  3

  4

  5

  6

  7

 40
1.0
 41
2.5
 42
1.0
 43
0.38
 44
2.0
 45
0.0
 46
0.0
 47
0.0
 48
0.0
140
3.5
141
-2.0
142
0.0
143
25.399999999999999
144
1.0
145
0.0
146
1.0
147
0.5
 71
     0
 72
     0
 73
     0
 74
     0
 75
     0
 76
     0
 77
     1
 78
     8
170
     0
171
     2
172
     1
173
     0
174
     0
175
     0
176
     9
177
     9
178
     2
  0
ENDTAB
  0
ENDSEC
  0
SECTION
  2
BLOCKS
  0
BLOCK
  8
0
  2
$MODEL_SPACE
 70
     0
 10
0.0
 20
0.0
 30
0.0
  3
$MODEL_SPACE
  1

  0
ENDBLK
  5
39DD
  8
0
  0
BLOCK
 67
     1
  8
0
  2
$PAPER_SPACE
 70
     0
 10
0.0
 20
0.0
 30
0.0
  3
$PAPER_SPACE
  1

  0
ENDBLK
  5
39D9
 67
     1
  8
0
  0
BLOCK
  8
0
 62
     6
  2
*D2
 70
     1
 10
0.0
 20
0.0
 30
0.0
  3
*D2
  1

  0
INSERT
  5
2289
  8
1
  2
*U3
 10
0.0
 20
0.0
 30
0.0
  0
POINT
  5
228A
  8
DEFPOINTS
 62
     0
 10
4812.1401584594651
 20
5544.4955588214807
 30
0.0
  0
POINT
  5
228B
  8
DEFPOINTS
 62
     0
 10
5022.1401584594651
 20
5544.4955588214807
 30
0.0
  0
POINT
  5
228C
  8
DEFPOINTS
 62
     0
 10
5022.1401584594651
 20
5576.6331918545457
 30
0.0
  0
ENDBLK
  5
228D
  8
0
 62
     6
  0
BLOCK
  8
0
  2
*U3
 70
     1
 10
0.0
 20
0.0
 30
0.0
  3
*U3
  1

  0
ENDBLK
  5
28E7
  8
0
  0
BLOCK
  8
0
 62
     6
  2
*D4
 70
     1
 10
0.0
 20
0.0
 30
0.0
  3
*D4
  1

  0
INSERT
  5
2295
  8
1
  2
*U5
 10
0.0
 20
0.0
 30
0.0
  0
POINT
  5
2296
  8
DEFPOINTS
 62
     0
 10
4812.1401584594651
 20
5544.4955588214807
 30
0.0
  0
POINT
  5
2297
  8
DEFPOINTS
 62
     0
 10
4827.1401584594641
 20
5544.4955588214807
 30
0.0
  0
POINT
  5
2298
  8
DEFPOINTS
 62
     0
 10
4827.1401584594641
 20
5563.2209354546694
 30
0.0
  0
ENDBLK
  5
2299
  8
0
 62
     6
  0
BLOCK
  8
0
  2
*U5
 70
     1
 10
0.0
 20
0.0
 30
0.0
  3
*U5
  1

  0
ENDBLK
  5
28EB
  8
0
  0
BLOCK
  8
0
 62
     6
  2
*D6
 70
     1
 10
0.0
 20
0.0
 30
0.0
  3
*D6
  1

  0
INSERT
  5
22A1
  8
1
  2
*U7
 10
0.0
 20
0.0
 30
0.0
  0
POINT
  5
22A2
  8
DEFPOINTS
 62
     0
 10
4862.1401584594651
 20
5531.9955588214807
 30
0.0
  0
POINT
  5
22A3
  8
DEFPOINTS
 62
     0
 10
4827.1401584594651
 20
5531.9955588214807
 30
0.0
  0
POINT
  5
22A4
  8
DEFPOINTS
 62
     0
 10
4827.1401584594651
 20
5563.1549341832451
 30
0.0
  0
ENDBLK
  5
22A5
  8
0
 62
     6
  0
BLOCK
  8
0
  2
*U7
 70
     1
 10
0.0
 20
0.0
 30
0.0
  3
*U7
  1

  0
ENDBLK
  5
28EF
  8
0
  0
BLOCK
  8
0
 62
     6
  2
*D8
 70
     1
 10
0.0
 20
0.0
 30
0.0
  3
*D8
  1

  0
INSERT
  5
22AD
  8
1
  2
*U9
 10
0.0
 20
0.0
 30
0.0
  0
POINT
  5
22AE
  8
DEFPOINTS
 62
     0
 10
4827.1401584594651
 20
5531.9955588214807
 30
0.0
  0
POINT
  5
22AF
  8
DEFPOINTS
 62
     0
 10
4827.1401584594651
 20
5506.9955588214807
 30
0.0
  0
POINT
  5
22B0
  8
DEFPOINTS
 62
     0
 10
4802.917073806253
 20
5506.9955588214807
 30
0.0
  0
ENDBLK
  5
22B1
  8
0
 62
     6
  0
BLOCK
  8
0
  2
*U9
 70
     1
 10
0.0
 20
0.0
 30
0.0
  3
*U9
  1

  0
ENDBLK
  5
28F3
  8
0
  0
BLOCK
  8
0
 62
     6
  2
*D10
 70
     1
 10
0.0
 20
0.0
 30
0.0
  3
*D10
  1

  0
INSERT
  5
22BB
  8
1
  2
*U11
 10
0.0
 20
0.0
 30
0.0
  0
POINT
  5
22BC
  8
DEFPOINTS
 62
     0
 10
4864.8728400149594
 20
5488.4955588214798
 30
0.0
  0
POINT
  5
22BD
  8
DEFPOINTS
 62
     0
 10
4864.8728400149594
 20
5494.4955588214807
 30
0.0
  0
POINT
  5
22BE
  8
DEFPOINTS
 62
     0
 10
4854.9968303926616
 20
5494.4955588214807
 30
0.0
  0
ENDBLK
  5
22BF
  8
0
 62
     6
  0
BLOCK
  8
0
  2
*U11
 70
     1
 10
0.0
 20
0.0
 30
0.0
  3
*U11
  1

  0
ENDBLK
  5
28F7
  8
0
  0
BLOCK
  8
0
 62
     6
  2
*D12
 70
     1
 10
0.0
 20
0.0
 30
0.0
  3
*D12
  1

  0
INSERT
  5
22C4
  8
1
  2
*U13
 10
0.0
 20
0.0
 30
0.0
  0
POINT
  5
22C9
  8
DEFPOINTS
 62
     0
 10
4831.1394484373686
 20
5531.9201952185922
 30
0.0
  0
POINT
  5
22CA
  8
DEFPOINTS
 62
     0
 10
4823.1408684815633
 20
5532.070922424371
 30
0.0
  0
ENDBLK
  5
22CB
  8
0
 62
     6
  0
BLOCK
  8
0
  2
*U13
 70
     1
 10
0.0
 20
0.0
 30
0.0
  3
*U13
  1

  0
ENDBLK
  5
28FB
  8
0
  0
BLOCK
  8
0
 62
     6
  2
*D14
 70
     1
 10
0.0
 20
0.0
 30
0.0
  3
*D14
  1

  0
INSERT
  5
22D0
  8
1
  2
*U15
 10
0.0
 20
0.0
 30
0.0
  0
POINT
  5
22D5
  8
DEFPOINTS
 62
     0
 10
4858.1404518585878
 20
5531.9471118721922
 30
0.0
  0
POINT
  5
22D6
  8
DEFPOINTS
 62
     0
 10
4866.1398650603433
 20
5532.044005770771
 30
0.0
  0
ENDBLK
  5
22D7
  8
0
 62
     6
  0
BLOCK
  8
0
  2
*U15
 70
     1
 10
0.0
 20
0.0
 30
0.0
  3
*U15
  1

  0
ENDBLK
  5
28FF
  8
0
  0
BLOCK
  8
0
 62
     6
  2
*D16
 70
     1
 10
0.0
 20
0.0
 30
0.0
  3
*D16
  1

  0
INSERT
  5
22DC
  8
1
  2
*U17
 10
0.0
 20
0.0
 30
0.0
  0
POINT
  5
22E1
  8
DEFPOINTS
 62
     0
 10
4858.1401584594651
 20
5506.9955588214807
 30
0.0
  0
POINT
  5
22E2
  8
DEFPOINTS
 62
     0
 10
4866.1401584594651
 20
5506.9955588214807
 30
0.0
  0
ENDBLK
  5
22E3
  8
0
 62
     6
  0
BLOCK
  8
0
  2
*U17
 70
     1
 10
0.0
 20
0.0
 30
0.0
  3
*U17
  1

  0
ENDBLK
  5
2903
  8
0
  0
BLOCK
  8
0
 62
     6
  2
*D18
 70
     1
 10
0.0
 20
0.0
 30
0.0
  3
*D18
  1

  0
INSERT
  5
22EB
  8
1
  2
*U19
 10
0.0
 20
0.0
 30
0.0
  0
POINT
  5
22EC
  8
DEFPOINTS
 62
     0
 10
5022.1401584594651
 20
5544.4955588214807
 30
0.0
  0
POINT
  5
22ED
  8
DEFPOINTS
 62
     0
 10
5022.1401584594651
 20
5494.4955588214807
 30
0.0
  0
POINT
  5
22EE
  8
DEFPOINTS
 62
     0
 10
5045.8558035512442
 20
5494.4955588214807
 30
0.0
  0
ENDBLK
  5
22EF
  8
0
 62
     6
  0
BLOCK
  8
0
  2
*U19
 70
     1
 10
0.0
 20
0.0
 30
0.0
  3
*U19
  1

  0
ENDBLK
  5
2907
  8
0
  0
BLOCK
  8
0
 62
     6
  2
*D20
 70
     1
 10
0.0
 20
0.0
 30
0.0
  3
*D20
  1

  0
INSERT
  5
22F7
  8
1
  2
*U21
 10
0.0
 20
0.0
 30
0.0
  0
POINT
  5
22F8
  8
DEFPOINTS
 62
     0
 10
4992.1497593049407
 20
5531.9955588214807
 30
0.0
  0
POINT
  5
22F9
  8
DEFPOINTS
 62
     0
 10
4992.1305576139903
 20
5506.9955588214807
 30
0.0
  0
POINT
  5
22FA
  8
DEFPOINTS
 62
     0
 10
5037.2200220586419
 20
5506.9955588214807
 30
0.0
  0
ENDBLK
  5
22FB
  8
0
 62
     6
  0
BLOCK
  8
0
  2
*U21
 70
     1
 10
0.0
 20
0.0
 30
0.0
  3
*U21
  1

  0
ENDBLK
  5
290B
  8
0
  0
BLOCK
  8
0
 62
     6
  2
*D22
 70
     1
 10
0.0
 20
0.0
 30
0.0
  3
*D22
  1

  0
INSERT
  5
2303
  8
1
  2
*U23
 10
0.0
 20
0.0
 30
0.0
  0
POINT
  5
2304
  8
DEFPOINTS
 62
     0
 10
5022.1401584594651
 20
5544.4955588214807
 30
0.0
  0
POINT
  5
2305
  8
DEFPOINTS
 62
     0
 10
5010.4401584594652
 20
5544.4955588214807
 30
0.0
  0
POINT
  5
2306
  8
DEFPOINTS
 62
     0
 10
5010.4401584594652
 20
5553.440451654863
 30
0.0
  0
ENDBLK
  5
2307
  8
0
 62
     6
  0
BLOCK
  8
0
  2
*U23
 70
     1
 10
0.0
 20
0.0
 30
0.0
  3
*U23
  1

  0
ENDBLK
  5
290F
  8
0
  0
BLOCK
  8
0
 62
     6
  2
*D24
 70
     1
 10
0.0
 20
0.0
 30
0.0
  3
*D24
  1

  0
INSERT
  5
230F
  8
1
  2
*U25
 10
0.0
 20
0.0
 30
0.0
  0
POINT
  5
2310
  8
DEFPOINTS
 62
     0
 10
4992.140158459466
 20
5531.9955588214807
 30
0.0
  0
POINT
  5
2311
  8
DEFPOINTS
 62
     0
 10
5010.4401584594652
 20
5519.4955588214807
 30
0.0
  0
POINT
  5
2312
  8
DEFPOINTS
 62
     0
 10
5010.4401584594652
 20
5553.3390972014231
 30
0.0
  0
ENDBLK
  5
2313
  8
0
 62
     6
  0
BLOCK
  8
0
  2
*U25
 70
     1
 10
0.0
 20
0.0
 30
0.0
  3
*U25
  1

  0
ENDBLK
  5
2913
  8
0
  0
BLOCK
  8
0
 62
     6
  2
*D26
 70
     1
 10
0.0
 20
0.0
 30
0.0
  3
*D26
  1

  0
INSERT
  5
231B
  8
1
  2
*U27
 10
0.0
 20
0.0
 30
0.0
  0
POINT
  5
231C
  8
DEFPOINTS
 62
     0
 10
5022.1401584594651
 20
5433.755720214318
 30
0.0
  0
POINT
  5
231D
  8
DEFPOINTS
 62
     0
 10
5022.1401584594651
 20
5388.755720214318
 30
0.0
  0
POINT
  5
231E
  8
DEFPOINTS
 62
     0
 10
5043.0196219426653
 20
5388.755720214318
 30
0.0
  0
ENDBLK
  5
231F
  8
0
 62
     6
  0
BLOCK
  8
0
  2
*U27
 70
     1
 10
0.0
 20
0.0
 30
0.0
  3
*U27
  1

  0
ENDBLK
  5
2917
  8
0
  0
BLOCK
  8
0
 62
     6
  2
*D28
 70
     1
 10
0.0
 20
0.0
 30
0.0
  3
*D28
  1

  0
INSERT
  5
2327
  8
1
  2
*U29
 10
0.0
 20
0.0
 30
0.0
  0
POINT
  5
2328
  8
DEFPOINTS
 62
     0
 10
4971.1651584594656
 20
5436.7557038866307
 30
0.0
  0
POINT
  5
2329
  8
DEFPOINTS
 62
     0
 10
4971.1651584594656
 20
5385.7557365420053
 30
0.0
  0
POINT
  5
232A
  8
DEFPOINTS
 62
     0
 10
5048.129499455441
 20
5385.7557365420053
 30
0.0
  0
ENDBLK
  5
232B
  8
0
 62
     6
  0
BLOCK
  8
0
  2
*U29
 70
     1
 10
0.0
 20
0.0
 30
0.0
  3
*U29
  1

  0
ENDBLK
  5
291B
  8
0
  0
BLOCK
  8
0
 62
     6
  2
*D30
 70
     1
 10
0.0
 20
0.0
 30
0.0
  3
*D30
  1

  0
INSERT
  5
232F
  8
1
  2
*U31
 10
0.0
 20
0.0
 30
0.0
  0
POINT
  5
2332
  8
DEFPOINTS
 62
     0
 10
4996.12095676851
 20
5531.9955588214807
 30
0.0
  0
POINT
  5
2333
  8
DEFPOINTS
 62
     0
 10
4988.12095676851
 20
5531.9955588214807
 30
0.0
  0
ENDBLK
  5
2334
  8
0
 62
     6
  0
BLOCK
  8
0
  2
*U31
 70
     1
 10
0.0
 20
0.0
 30
0.0
  3
*U31
  1

  0
ENDBLK
  5
291F
  8
0
  0
BLOCK
  8
0
 62
     6
  2
*D32
 70
     1
 10
0.0
 20
0.0
 30
0.0
  3
*D32
  1

  0
INSERT
  5
2338
  8
1
  2
*U33
 10
0.0
 20
0.0
 30
0.0
  0
POINT
  5
233B
  8
DEFPOINTS
 62
     0
 10
5006.4405930718294
 20
5519.5545224545203
 30
0.0
  0
POINT
  5
233C
  8
DEFPOINTS
 62
     0
 10
5014.439723847102
 20
5519.436595188442
 30
0.0
  0
ENDBLK
  5
233D
  8
0
 62
     6
  0
BLOCK
  8
0
  2
*U33
 70
     1
 10
0.0
 20
0.0
 30
0.0
  3
*U33
  1

  0
ENDBLK
  5
2923
  8
0
  0
BLOCK
  8
0
 62
     6
  2
*D34
 70
     1
 10
0.0
 20
0.0
 30
0.0
  3
*D34
  1

  0
INSERT
  5
2341
  8
1
  2
*U35
 10
0.0
 20
0.0
 30
0.0
  0
POINT
  5
2344
  8
DEFPOINTS
 62
     0
 10
4996.12095676851
 20
5506.9955588214807
 30
0.0
  0
POINT
  5
2345
  8
DEFPOINTS
 62
     0
 10
4988.12095676851
 20
5506.9955588214807
 30
0.0
  0
ENDBLK
  5
2346
  8
0
 62
     6
  0
BLOCK
  8
0
  2
*U35
 70
     1
 10
0.0
 20
0.0
 30
0.0
  3
*U35
  1

  0
ENDBLK
  5
2927
  8
0
  0
BLOCK
  8
0
  2
*D36
 70
     1
 10
0.0
 20
0.0
 30
0.0
  3
*D36
  1

  0
INSERT
  5
26BB
  8
1
  2
*U37
 10
0.0
 20
0.0
 30
0.0
  0
POINT
  5
26BC
  8
DEFPOINTS
 62
     0
 10
167.31345571461009
 20
259.42721797122363
 30
0.0
  0
POINT
  5
26BD
  8
DEFPOINTS
 62
     0
 10
167.31345571461009
 20
208.4272506265981
 30
0.0
  0
POINT
  5
26BE
  8
DEFPOINTS
 62
     0
 10
244.27779671058539
 20
208.4272506265981
 30
0.0
  0
ENDBLK
  5
25F9
  8
0
  0
BLOCK
  8
0
  2
*U37
 70
     1
 10
0.0
 20
0.0
 30
0.0
  3
*U37
  1

  0
ENDBLK
  5
2972
  8
0
  0
BLOCK
  8
0
  2
*D38
 70
     1
 10
0.0
 20
0.0
 30
0.0
  3
*D38
  1

  0
INSERT
  5
26C0
  8
1
  2
*U39
 10
0.0
 20
0.0
 30
0.0
  0
POINT
  5
26C2
  8
DEFPOINTS
 62
     0
 10
192.2692540236545
 20
354.6670729060736
 30
0.0
  0
POINT
  5
26C3
  8
DEFPOINTS
 62
     0
 10
184.2692540236545
 20
354.6670729060736
 30
0.0
  0
ENDBLK
  5
2605
  8
0
  0
BLOCK
  8
0
  2
*U39
 70
     1
 10
0.0
 20
0.0
 30
0.0
  3
*U39
  1

  0
ENDBLK
  5
2976
  8
0
  0
BLOCK
  8
0
  2
*D40
 70
     1
 10
0.0
 20
0.0
 30
0.0
  3
*D40
  1

  0
INSERT
  5
26C5
  8
1
  2
*U41
 10
0.0
 20
0.0
 30
0.0
  0
POINT
  5
26C7
  8
DEFPOINTS
 62
     0
 10
202.588890326974
 20
342.22603653911227
 30
0.0
  0
POINT
  5
26C8
  8
DEFPOINTS
 62
     0
 10
210.5880211022465
 20
342.10810927303493
 30
0.0
  0
ENDBLK
  5
260D
  8
0
  0
BLOCK
  8
0
  2
*U41
 70
     1
 10
0.0
 20
0.0
 30
0.0
  3
*U41
  1

  0
ENDBLK
  5
297A
  8
0
  0
BLOCK
  8
0
  2
*D42
 70
     1
 10
0.0
 20
0.0
 30
0.0
  3
*D42
  1

  0
INSERT
  5
26CA
  8
1
  2
*U43
 10
0.0
 20
0.0
 30
0.0
  0
POINT
  5
26CC
  8
DEFPOINTS
 62
     0
 10
192.2692540236545
 20
329.6670729060736
 30
0.0
  0
POINT
  5
26CD
  8
DEFPOINTS
 62
     0
 10
184.2692540236545
 20
329.6670729060736
 30
0.0
  0
ENDBLK
  5
2615
  8
0
  0
BLOCK
  8
0
  2
*U43
 70
     1
 10
0.0
 20
0.0
 30
0.0
  3
*U43
  1

  0
ENDBLK
  5
297E
  8
0
  0
BLOCK
  8
0
  2
*D44
 70
     1
 10
0.0
 20
0.0
 30
0.0
  3
*D44
  1

  0
INSERT
  5
26D3
  8
1
  2
*U45
 10
0.0
 20
0.0
 30
0.0
  0
POINT
  5
26D4
  8
DEFPOINTS
 62
     0
 10
8.2884557146095368
 20
367.1670729060736
 30
0.0
  0
POINT
  5
26D5
  8
DEFPOINTS
 62
     0
 10
218.28845571460951
 20
367.1670729060736
 30
0.0
  0
POINT
  5
26D6
  8
DEFPOINTS
 62
     0
 10
218.28845571460951
 20
399.30470593913952
 30
0.0
  0
ENDBLK
  5
261D
  8
0
  0
BLOCK
  8
0
  2
*U45
 70
     1
 10
0.0
 20
0.0
 30
0.0
  3
*U45
  1

  0
ENDBLK
  5
2982
  8
0
  0
BLOCK
  8
0
  2
*D46
 70
     1
 10
0.0
 20
0.0
 30
0.0
  3
*D46
  1

  0
INSERT
  5
26DC
  8
1
  2
*U47
 10
0.0
 20
0.0
 30
0.0
  0
POINT
  5
26DD
  8
DEFPOINTS
 62
     0
 10
8.2884557146095368
 20
367.1670729060736
 30
0.0
  0
POINT
  5
26DE
  8
DEFPOINTS
 62
     0
 10
23.288455714608631
 20
367.1670729060736
 30
0.0
  0
POINT
  5
26DF
  8
DEFPOINTS
 62
     0
 10
23.288455714608631
 20
385.89244953926232
 30
0.0
  0
ENDBLK
  5
2629
  8
0
  0
BLOCK
  8
0
  2
*U47
 70
     1
 10
0.0
 20
0.0
 30
0.0
  3
*U47
  1

  0
ENDBLK
  5
2986
  8
0
  0
BLOCK
  8
0
  2
*D48
 70
     1
 10
0.0
 20
0.0
 30
0.0
  3
*D48
  1

  0
INSERT
  5
26E5
  8
1
  2
*U49
 10
0.0
 20
0.0
 30
0.0
  0
POINT
  5
26E6
  8
DEFPOINTS
 62
     0
 10
58.28845571460954
 20
354.6670729060736
 30
0.0
  0
POINT
  5
26E7
  8
DEFPOINTS
 62
     0
 10
23.28845571460954
 20
354.6670729060736
 30
0.0
  0
POINT
  5
26E8
  8
DEFPOINTS
 62
     0
 10
23.28845571460954
 20
385.82644826783712
 30
0.0
  0
ENDBLK
  5
2635
  8
0
  0
BLOCK
  8
0
  2
*U49
 70
     1
 10
0.0
 20
0.0
 30
0.0
  3
*U49
  1

  0
ENDBLK
  5
298A
  8
0
  0
BLOCK
  8
0
  2
*D50
 70
     1
 10
0.0
 20
0.0
 30
0.0
  3
*D50
  1

  0
INSERT
  5
26EE
  8
1
  2
*U51
 10
0.0
 20
0.0
 30
0.0
  0
POINT
  5
26EF
  8
DEFPOINTS
 62
     0
 10
23.28845571460954
 20
354.6670729060736
 30
0.0
  0
POINT
  5
26F0
  8
DEFPOINTS
 62
     0
 10
23.28845571460954
 20
329.6670729060736
 30
0.0
  0
POINT
  5
26F1
  8
DEFPOINTS
 62
     0
 10
-0.9346289386024864
 20
329.6670729060736
 30
0.0
  0
ENDBLK
  5
2641
  8
0
  0
BLOCK
  8
0
  2
*U51
 70
     1
 10
0.0
 20
0.0
 30
0.0
  3
*U51
  1

  0
ENDBLK
  5
298E
  8
0
  0
BLOCK
  8
0
  2
*D52
 70
     1
 10
0.0
 20
0.0
 30
0.0
  3
*D52
  1

  0
INSERT
  5
26F9
  8
1
  2
*U53
 10
0.0
 20
0.0
 30
0.0
  0
POINT
  5
26FA
  8
DEFPOINTS
 62
     0
 10
61.021137270104752
 20
311.1670729060736
 30
0.0
  0
POINT
  5
26FB
  8
DEFPOINTS
 62
     0
 10
61.021137270104752
 20
317.1670729060736
 30
0.0
  0
POINT
  5
26FC
  8
DEFPOINTS
 62
     0
 10
51.145127647806127
 20
317.1670729060736
 30
0.0
  0
ENDBLK
  5
264D
  8
0
  0
BLOCK
  8
0
  2
*U53
 70
     1
 10
0.0
 20
0.0
 30
0.0
  3
*U53
  1

  0
ENDBLK
  5
2992
  8
0
  0
BLOCK
  8
0
  2
*D54
 70
     1
 10
0.0
 20
0.0
 30
0.0
  3
*D54
  1

  0
INSERT
  5
26FF
  8
1
  2
*U55
 10
0.0
 20
0.0
 30
0.0
  0
POINT
  5
2703
  8
DEFPOINTS
 62
     0
 10
27.287745692513109
 20
354.5917093031851
 30
0.0
  0
POINT
  5
2704
  8
DEFPOINTS
 62
     0
 10
19.28916573670779
 20
354.74243650896392
 30
0.0
  0
ENDBLK
  5
265B
  8
0
  0
BLOCK
  8
0
  2
*U55
 70
     1
 10
0.0
 20
0.0
 30
0.0
  3
*U55
  1

  0
ENDBLK
  5
2996
  8
0
  0
BLOCK
  8
0
  2
*D56
 70
     1
 10
0.0
 20
0.0
 30
0.0
  3
*D56
  1

  0
INSERT
  5
2707
  8
1
  2
*U57
 10
0.0
 20
0.0
 30
0.0
  0
POINT
  5
270B
  8
DEFPOINTS
 62
     0
 10
54.288749113732237
 20
354.61862595678321
 30
0.0
  0
POINT
  5
270C
  8
DEFPOINTS
 62
     0
 10
62.288162315487739
 20
354.71551985536382
 30
0.0
  0
ENDBLK
  5
2666
  8
0
  0
BLOCK
  8
0
  2
*U57
 70
     1
 10
0.0
 20
0.0
 30
0.0
  3
*U57
  1

  0
ENDBLK
  5
299A
  8
0
  0
BLOCK
  8
0
  2
*D58
 70
     1
 10
0.0
 20
0.0
 30
0.0
  3
*D58
  1

  0
INSERT
  5
270F
  8
1
  2
*U59
 10
0.0
 20
0.0
 30
0.0
  0
POINT
  5
2713
  8
DEFPOINTS
 62
     0
 10
54.28845571460954
 20
329.6670729060736
 30
0.0
  0
POINT
  5
2714
  8
DEFPOINTS
 62
     0
 10
62.28845571460954
 20
329.6670729060736
 30
0.0
  0
ENDBLK
  5
2671
  8
0
  0
BLOCK
  8
0
  2
*U59
 70
     1
 10
0.0
 20
0.0
 30
0.0
  3
*U59
  1

  0
ENDBLK
  5
299E
  8
0
  0
BLOCK
  8
0
  2
*D60
 70
     1
 10
0.0
 20
0.0
 30
0.0
  3
*D60
  1

  0
INSERT
  5
271A
  8
1
  2
*U61
 10
0.0
 20
0.0
 30
0.0
  0
POINT
  5
271B
  8
DEFPOINTS
 62
     0
 10
218.28845571460951
 20
367.1670729060736
 30
0.0
  0
POINT
  5
271C
  8
DEFPOINTS
 62
     0
 10
218.28845571460951
 20
317.1670729060736
 30
0.0
  0
POINT
  5
271D
  8
DEFPOINTS
 62
     0
 10
242.00410080638781
 20
317.1670729060736
 30
0.0
  0
ENDBLK
  5
267C
  8
0
  0
BLOCK
  8
0
  2
*U61
 70
     1
 10
0.0
 20
0.0
 30
0.0
  3
*U61
  1

  0
ENDBLK
  5
29A2
  8
0
  0
BLOCK
  8
0
  2
*D62
 70
     1
 10
0.0
 20
0.0
 30
0.0
  3
*D62
  1

  0
INSERT
  5
2723
  8
1
  2
*U63
 10
0.0
 20
0.0
 30
0.0
  0
POINT
  5
2724
  8
DEFPOINTS
 62
     0
 10
188.29805656008679
 20
354.6670729060736
 30
0.0
  0
POINT
  5
2725
  8
DEFPOINTS
 62
     0
 10
188.278854869132
 20
329.6670729060736
 30
0.0
  0
POINT
  5
2726
  8
DEFPOINTS
 62
     0
 10
233.3683193137864
 20
329.6670729060736
 30
0.0
  0
ENDBLK
  5
2688
  8
0
  0
BLOCK
  8
0
  2
*U63
 70
     1
 10
0.0
 20
0.0
 30
0.0
  3
*U63
  1

  0
ENDBLK
  5
29A6
  8
0
  0
BLOCK
  8
0
  2
*D64
 70
     1
 10
0.0
 20
0.0
 30
0.0
  3
*D64
  1

  0
INSERT
  5
272C
  8
1
  2
*U65
 10
0.0
 20
0.0
 30
0.0
  0
POINT
  5
272D
  8
DEFPOINTS
 62
     0
 10
218.28845571460951
 20
367.1670729060736
 30
0.0
  0
POINT
  5
272E
  8
DEFPOINTS
 62
     0
 10
206.58845571460881
 20
367.1670729060736
 30
0.0
  0
POINT
  5
272F
  8
DEFPOINTS
 62
     0
 10
206.58845571460881
 20
376.11196573945602
 30
0.0
  0
ENDBLK
  5
2694
  8
0
  0
BLOCK
  8
0
  2
*U65
 70
     1
 10
0.0
 20
0.0
 30
0.0
  3
*U65
  1

  0
ENDBLK
  5
29AA
  8
0
  0
BLOCK
  8
0
  2
*D66
 70
     1
 10
0.0
 20
0.0
 30
0.0
  3
*D66
  1

  0
INSERT
  5
2735
  8
1
  2
*U67
 10
0.0
 20
0.0
 30
0.0
  0
POINT
  5
2736
  8
DEFPOINTS
 62
     0
 10
188.28845571460951
 20
354.6670729060736
 30
0.0
  0
POINT
  5
2737
  8
DEFPOINTS
 62
     0
 10
206.58845571460969
 20
342.1670729060736
 30
0.0
  0
POINT
  5
2738
  8
DEFPOINTS
 62
     0
 10
206.58845571460969
 20
376.01061128601418
 30
0.0
  0
ENDBLK
  5
26A0
  8
0
  0
BLOCK
  8
0
  2
*U67
 70
     1
 10
0.0
 20
0.0
 30
0.0
  3
*U67
  1

  0
ENDBLK
  5
29AE
  8
0
  0
BLOCK
  8
0
  2
*D68
 70
     1
 10
0.0
 20
0.0
 30
0.0
  3
*D68
  1

  0
INSERT
  5
273E
  8
1
  2
*U69
 10
0.0
 20
0.0
 30
0.0
  0
POINT
  5
273F
  8
DEFPOINTS
 62
     0
 10
218.28845571460951
 20
256.42723429891089
 30
0.0
  0
POINT
  5
2740
  8
DEFPOINTS
 62
     0
 10
218.28845571460951
 20
211.42723429891089
 30
0.0
  0
POINT
  5
2741
  8
DEFPOINTS
 62
     0
 10
239.16791919780971
 20
211.42723429891089
 30
0.0
  0
ENDBLK
  5
26AC
  8
0
  0
BLOCK
  8
0
  2
*U69
 70
     1
 10
0.0
 20
0.0
 30
0.0
  3
*U69
  1

  0
ENDBLK
  5
29B2
  8
0
  0
BLOCK
  8
0
  2
*U70
 70
     1
 10
0.0
 20
0.0
 30
0.0
  3
*U70
  1

  0
ENDBLK
  5
2950
  8
0
  0
BLOCK
  8
0
  2
*U71
 70
     1
 10
0.0
 20
0.0
 30
0.0
  3
*U71
  1

  0
ENDBLK
  5
2955
  8
0
  0
BLOCK
  8
0
 62
     6
  2
*D72
 70
     1
 10
0.0
 20
0.0
 30
0.0
  3
*D72
  1

  0
LINE
  5
2F20
  8
1
 62
     9
 10
4812.1401584594651
 20
5545.4955588214807
 30
0.0
 11
4812.1401584594651
 21
5565.2209354546712
 31
0.0
  0
LINE
  5
2F21
  8
1
 62
     9
 10
4827.1401584594641
 20
5545.4955588214807
 30
0.0
 11
4827.1401584594641
 21
5565.2209354546712
 31
0.0
  0
LINE
  5
2F22
  8
1
 62
     9
 10
4814.6401584594641
 20
5563.2209354546694
 30
0.0
 11
4824.6401584594641
 21
5563.2209354546694
 31
0.0
  0
SOLID
  5
2F23
  8
1
 62
     9
 10
4814.6401584594641
 20
5563.6376021213346
 30
0.0
 11
4814.6401584594641
 21
5562.8042687880034
 31
0.0
 12
4812.1401584594651
 22
5563.2209354546694
 32
0.0
 13
4812.1401584594651
 23
5563.2209354546694
 33
0.0
  0
SOLID
  5
2F24
  8
1
 62
     9
 10
4824.6401584594641
 20
5563.6376021213346
 30
0.0
 11
4824.6401584594641
 21
5562.8042687880034
 31
0.0
 12
4827.1401584594641
 22
5563.2209354546694
 32
0.0
 13
4827.1401584594641
 23
5563.2209354546694
 33
0.0
  0
INSERT
  5
2F25
  8
1
  2
*U73
 10
0.0
 20
0.0
 30
0.0
  0
POINT
  5
2F26
  8
DEFPOINTS
 62
     0
 10
4812.1401584594651
 20
5544.4955588214807
 30
0.0
  0
POINT
  5
2F27
  8
DEFPOINTS
 62
     0
 10
4827.1401584594641
 20
5544.4955588214807
 30
0.0
  0
POINT
  5
2F28
  8
DEFPOINTS
 62
     0
 10
4827.1401584594641
 20
5563.2209354546694
 30
0.0
  0
ENDBLK
  5
2F29
  8
0
 62
     6
  0
BLOCK
  8
0
  2
*U73
 70
     1
 10
0.0
 20
0.0
 30
0.0
  3
*U73
  1

  0
TEXT
  5
34A7
  8
1
 62
     2
 10
4816.7734917927983
 20
5563.7209354546712
 30
0.0
 40
3.5
  1
15
 41
0.8
  7
AD-STANDARD
  0
ENDBLK
  5
34A9
  8
0
  0
BLOCK
  8
0
 62
     6
  2
*D74
 70
     1
 10
0.0
 20
0.0
 30
0.0
  3
*D74
  1

  0
LINE
  5
2F2C
  8
1
 62
     9
 10
4862.1401584594651
 20
5532.9955588214807
 30
0.0
 11
4862.1401584594651
 21
5565.1549341832442
 31
0.0
  0
LINE
  5
2F2D
  8
1
 62
     9
 10
4827.1401584594651
 20
5532.9955588214807
 30
0.0
 11
4827.1401584594651
 21
5565.1549341832442
 31
0.0
  0
LINE
  5
2F2E
  8
1
 62
     9
 10
4859.6401584594651
 20
5563.1549341832451
 30
0.0
 11
4829.6401584594651
 21
5563.1549341832451
 31
0.0
  0
SOLID
  5
2F2F
  8
1
 62
     9
 10
4859.6401584594651
 20
5563.5716008499112
 30
0.0
 11
4859.6401584594651
 21
5562.7382675165791
 31
0.0
 12
4862.1401584594651
 22
5563.1549341832451
 32
0.0
 13
4862.1401584594651
 23
5563.1549341832451
 33
0.0
  0
SOLID
  5
2F30
  8
1
 62
     9
 10
4829.6401584594651
 20
5563.5716008499112
 30
0.0
 11
4829.6401584594651
 21
5562.7382675165791
 31
0.0
 12
4827.1401584594651
 22
5563.1549341832451
 32
0.0
 13
4827.1401584594651
 23
5563.1549341832451
 33
0.0
  0
INSERT
  5
2F31
  8
1
  2
*U75
 10
0.0
 20
0.0
 30
0.0
  0
POINT
  5
2F32
  8
DEFPOINTS
 62
     0
 10
4862.1401584594651
 20
5531.9955588214807
 30
0.0
  0
POINT
  5
2F33
  8
DEFPOINTS
 62
     0
 10
4827.1401584594651
 20
5531.9955588214807
 30
0.0
  0
POINT
  5
2F34
  8
DEFPOINTS
 62
     0
 10
4827.1401584594651
 20
5563.1549341832451
 30
0.0
  0
ENDBLK
  5
2F35
  8
0
 62
     6
  0
BLOCK
  8
0
  2
*U75
 70
     1
 10
0.0
 20
0.0
 30
0.0
  3
*U75
  1

  0
TEXT
  5
34AB
  8
1
 62
     2
 10
4841.973491792799
 20
5563.6549341832442
 30
0.0
 40
3.5
  1
35
 41
0.8
  7
AD-STANDARD
  0
ENDBLK
  5
34AD
  8
0
  0
BLOCK
  8
0
 62
     6
  2
*D76
 70
     1
 10
0.0
 20
0.0
 30
0.0
  3
*D76
  1

  0
LINE
  5
2F38
  8
1
 62
     9
 10
4826.1401584594651
 20
5531.9955588214807
 30
0.0
 11
4800.917073806253
 21
5531.9955588214807
 31
0.0
  0
LINE
  5
2F39
  8
1
 62
     9
 10
4826.1401584594651
 20
5506.9955588214807
 30
0.0
 11
4800.917073806253
 21
5506.9955588214807
 31
0.0
  0
LINE
  5
2F3A
  8
1
 62
     9
 10
4802.917073806253
 20
5529.4955588214798
 30
0.0
 11
4802.917073806253
 21
5509.4955588214798
 31
0.0
  0
SOLID
  5
2F3B
  8
1
 62
     9
 10
4802.5004071395861
 20
5529.4955588214798
 30
0.0
 11
4803.3337404729209
 21
5529.4955588214798
 31
0.0
 12
4802.917073806253
 22
5531.9955588214807
 32
0.0
 13
4802.917073806253
 23
5531.9955588214807
 33
0.0
  0
SOLID
  5
2F3C
  8
1
 62
     9
 10
4802.5004071395861
 20
5509.4955588214798
 30
0.0
 11
4803.3337404729209
 21
5509.4955588214798
 31
0.0
 12
4802.917073806253
 22
5506.9955588214807
 32
0.0
 13
4802.917073806253
 23
5506.9955588214807
 33
0.0
  0
INSERT
  5
2F3D
  8
1
  2
*U77
 10
0.0
 20
0.0
 30
0.0
  0
POINT
  5
2F3E
  8
DEFPOINTS
 62
     0
 10
4827.1401584594651
 20
5531.9955588214807
 30
0.0
  0
POINT
  5
2F3F
  8
DEFPOINTS
 62
     0
 10
4827.1401584594651
 20
5506.9955588214807
 30
0.0
  0
POINT
  5
2F40
  8
DEFPOINTS
 62
     0
 10
4802.917073806253
 20
5506.9955588214807
 30
0.0
  0
ENDBLK
  5
2F41
  8
0
 62
     6
  0
BLOCK
  8
0
  2
*U77
 70
     1
 10
0.0
 20
0.0
 30
0.0
  3
*U77
  1

  0
TEXT
  5
34AF
  8
1
 62
     2
 10
4802.4170738062521
 20
5516.8288921548155
 30
0.0
 40
3.5
  1
25
 50
90.0
 41
0.8
  7
AD-STANDARD
  0
ENDBLK
  5
34B1
  8
0
  0
BLOCK
  8
0
 62
     6
  2
*D78
 70
     1
 10
0.0
 20
0.0
 30
0.0
  3
*D78
  1

  0
LINE
  5
2F44
  8
1
 62
     9
 10
4863.8728400149594
 20
5488.4955588214798
 30
0.0
 11
4852.9968303926616
 21
5488.4955588214798
 31
0.0
  0
LINE
  5
2F45
  8
1
 62
     9
 10
4863.8728400149594
 20
5494.4955588214807
 30
0.0
 11
4852.9968303926616
 21
5494.4955588214807
 31
0.0
  0
LINE
  5
2F46
  8
1
 62
     9
 10
4854.9968303926616
 20
5485.9955588214807
 30
0.0
 11
4854.9968303926616
 21
5483.4955588214807
 31
0.0
  0
LINE
  5
2F47
  8
1
 62
     9
 10
4854.9968303926616
 20
5496.9955588214807
 30
0.0
 11
4854.9968303926616
 21
5499.4955588214807
 31
0.0
  0
LINE
  5
2F48
  8
1
 62
     9
 10
4854.9968303926616
 20
5488.4955588214798
 30
0.0
 11
4854.9968303926616
 21
5494.4955588214807
 31
0.0
  0
SOLID
  5
2F49
  8
1
 62
     9
 10
4854.5801637259938
 20
5485.9955588214807
 30
0.0
 11
4855.4134970593304
 21
5485.9955588214807
 31
0.0
 12
4854.9968303926616
 22
5488.4955588214798
 32
0.0
 13
4854.9968303926616
 23
5488.4955588214798
 33
0.0
  0
SOLID
  5
2F4A
  8
1
 62
     9
 10
4854.5801637259938
 20
5496.9955588214807
 30
0.0
 11
4855.4134970593304
 21
5496.9955588214807
 31
0.0
 12
4854.9968303926616
 22
5494.4955588214807
 32
0.0
 13
4854.9968303926616
 23
5494.4955588214807
 33
0.0
  0
INSERT
  5
2F4B
  8
1
  2
*U79
 10
0.0
 20
0.0
 30
0.0
  0
POINT
  5
2F4C
  8
DEFPOINTS
 62
     0
 10
4864.8728400149594
 20
5488.4955588214798
 30
0.0
  0
POINT
  5
2F4D
  8
DEFPOINTS
 62
     0
 10
4864.8728400149594
 20
5494.4955588214807
 30
0.0
  0
POINT
  5
2F4E
  8
DEFPOINTS
 62
     0
 10
4854.9968303926616
 20
5494.4955588214807
 30
0.0
  0
ENDBLK
  5
2F4F
  8
0
 62
     6
  0
BLOCK
  8
0
  2
*U79
 70
     1
 10
0.0
 20
0.0
 30
0.0
  3
*U79
  1

  0
TEXT
  5
34B3
  8
1
 62
     2
 10
4854.4968303926607
 20
5490.0955588214811
 30
0.0
 40
3.5
  1
6
 50
90.0
 41
0.8
  7
AD-STANDARD
  0
ENDBLK
  5
34B5
  8
0
  0
BLOCK
  8
0
 62
     6
  2
*D80
 70
     1
 10
0.0
 20
0.0
 30
0.0
  3
*D80
  1

  0
LINE
  5
2F52
  8
1
 62
     9
 10
4844.0070057262983
 20
5525.9709097468449
 30
0.0
 11
4833.2613917872923
 21
5529.8091227839277
 31
0.0
  0
LINE
  5
2F53
  8
1
 62
     9
 10
4821.0189251316406
 20
5534.1819948590382
 30
0.0
 11
4818.6646046209407
 21
5535.0229317965568
 31
0.0
  0
INSERT
  5
2F54
  8
1
  2
*U81
 10
0.0
 20
0.0
 30
0.0
  0
LINE
  5
2F56
  8
1
 62
     9
 10
4823.3732456423431
 20
5533.341057921516
 30
0.0
 11
4830.9070712765897
 21
5530.6500597214499
 31
0.0
  0
SOLID
  5
2F57
  8
1
 62
     9
 10
4821.1590812878958
 20
5534.5743816108215
 30
0.0
 11
4820.8787689753881
 21
5533.7896081072531
 31
0.0
 12
4823.3732456423431
 22
5533.341057921516
 32
0.0
 13
4823.3732456423431
 23
5533.341057921516
 33
0.0
  0
SOLID
  5
2F58
  8
1
 62
     9
 10
4833.4015479435448
 20
5530.2015095357128
 30
0.0
 11
4833.1212356310389
 21
5529.4167360321444
 31
0.0
 12
4830.9070712765897
 22
5530.6500597214499
 32
0.0
 13
4830.9070712765897
 23
5530.6500597214499
 33
0.0
  0
POINT
  5
2F59
  8
DEFPOINTS
 62
     0
 10
4830.9070712765897
 20
5530.6500597214499
 30
0.0
  0
POINT
  5
2F5A
  8
DEFPOINTS
 62
     0
 10
4823.3732456423431
 20
5533.341057921516
 30
0.0
  0
ENDBLK
  5
2F5B
  8
0
 62
     6
  0
BLOCK
  8
0
  2
*U81
 70
     1
 10
0.0
 20
0.0
 30
0.0
  3
*U81
  1

  0
TEXT
  5
34B7
  8
1
 62
     2
 10
4839.1840336311161
 20
5528.2245601565292
 30
0.0
 40
3.5
  1
\U+22058
 50
340.34384099859301
 41
0.8
  7
AD-STANDARD
  0
ENDBLK
  5
34B9
  8
0
  0
BLOCK
  8
0
 62
     6
  2
*D82
 70
     1
 10
0.0
 20
0.0
 30
0.0
  3
*D82
  1

  0
LINE
  5
2F5E
  8
1
 62
     9
 10
4847.7412146963061
 20
5531.8211498040337
 30
0.0
 11
4855.6406352330396
 21
5531.9168325288847
 31
0.0
  0
LINE
  5
2F5F
  8
1
 62
     9
 10
4868.6396816858914
 20
5532.0742851140767
 30
0.0
 11
4871.1394983114433
 21
5532.1045644573842
 31
0.0
  0
INSERT
  5
2F60
  8
1
  2
*U83
 10
0.0
 20
0.0
 30
0.0
  0
LINE
  5
2F62
  8
1
 62
     9
 10
4866.1398650603433
 20
5532.0440057707701
 30
0.0
 11
4858.1404518585878
 21
5531.9471118721922
 31
0.0
  0
SOLID
  5
2F63
  8
1
 62
     9
 10
4868.6346351286729
 20
5532.4909212183347
 30
0.0
 11
4868.6447282431091
 21
5531.6576490098178
 31
0.0
 12
4866.1398650603433
 22
5532.0440057707701
 32
0.0
 13
4866.1398650603433
 23
5532.0440057707701
 33
0.0
  0
SOLID
  5
2F64
  8
1
 62
     9
 10
4855.6355886758211
 20
5532.3334686331418
 30
0.0
 11
4855.6456817902572
 21
5531.5001964246267
 31
0.0
 12
4858.1404518585878
 22
5531.9471118721922
 32
0.0
 13
4858.1404518585878
 23
5531.9471118721922
 33
0.0
  0
POINT
  5
2F65
  8
DEFPOINTS
 62
     0
 10
4858.1404518585878
 20
5531.9471118721922
 30
0.0
  0
POINT
  5
2F66
  8
DEFPOINTS
 62
     0
 10
4866.1398650603433
 20
5532.0440057707701
 30
0.0
  0
ENDBLK
  5
2F67
  8
0
 62
     6
  0
BLOCK
  8
0
  2
*U83
 70
     1
 10
0.0
 20
0.0
 30
0.0
  3
*U83
  1

  0
TEXT
  5
34BB
  8
1
 62
     2
 10
4847.8351514926671
 20
5532.3223243028788
 30
0.0
 40
3.5
  1
\U+22058
 50
0.6939683987147275
 41
0.8
  7
AD-STANDARD
  0
ENDBLK
  5
34BD
  8
0
  0
BLOCK
  8
0
 62
     6
  2
*D84
 70
     1
 10
0.0
 20
0.0
 30
0.0
  3
*D84
  1

  0
LINE
  5
2F6A
  8
1
 62
     9
 10
4847.7401584594663
 20
5506.9955588214807
 30
0.0
 11
4855.6401584594651
 21
5506.9955588214807
 31
0.0
  0
LINE
  5
2F6B
  8
1
 62
     9
 10
4868.6401584594651
 20
5506.9955588214807
 30
0.0
 11
4871.1401584594651
 21
5506.9955588214807
 31
0.0
  0
INSERT
  5
2F6C
  8
1
  2
*U85
 10
0.0
 20
0.0
 30
0.0
  0
LINE
  5
2F6E
  8
1
 62
     9
 10
4866.1401584594651
 20
5506.9955588214807
 30
0.0
 11
4858.1401584594651
 21
5506.9955588214807
 31
0.0
  0
SOLID
  5
2F6F
  8
1
 62
     9
 10
4868.6401584594651
 20
5507.4122254881486
 30
0.0
 11
4868.6401584594651
 21
5506.5788921548146
 31
0.0
 12
4866.1401584594651
 22
5506.9955588214807
 32
0.0
 13
4866.1401584594651
 23
5506.9955588214807
 33
0.0
  0
SOLID
  5
2F70
  8
1
 62
     9
 10
4855.6401584594651
 20
5507.4122254881486
 30
0.0
 11
4855.6401584594651
 21
5506.5788921548146
 31
0.0
 12
4858.1401584594651
 22
5506.9955588214807
 32
0.0
 13
4858.1401584594651
 23
5506.9955588214807
 33
0.0
  0
POINT
  5
2F71
  8
DEFPOINTS
 62
     0
 10
4858.1401584594651
 20
5506.9955588214807
 30
0.0
  0
POINT
  5
2F72
  8
DEFPOINTS
 62
     0
 10
4866.1401584594651
 20
5506.9955588214807
 30
0.0
  0
ENDBLK
  5
2F73
  8
0
 62
     6
  0
BLOCK
  8
0
  2
*U85
 70
     1
 10
0.0
 20
0.0
 30
0.0
  3
*U85
  1

  0
TEXT
  5
34BF
  8
1
 62
     2
 10
4847.8401584594649
 20
5507.4955588214807
 30
0.0
 40
3.5
  1
\U+22058
 41
0.8
  7
AD-STANDARD
  0
ENDBLK
  5
34C1
  8
0
  0
BLOCK
  8
0
 62
     6
  2
*D86
 70
     1
 10
0.0
 20
0.0
 30
0.0
  3
*D86
  1

  0
LINE
  5
2F76
  8
1
 62
     9
 10
5023.1401584594651
 20
5544.4955588214807
 30
0.0
 11
5047.8558035512442
 21
5544.4955588214807
 31
0.0
  0
LINE
  5
2F77
  8
1
 62
     9
 10
5023.1401584594651
 20
5494.4955588214807
 30
0.0
 11
5047.8558035512442
 21
5494.4955588214807
 31
0.0
  0
LINE
  5
2F78
  8
1
 62
     9
 10
5045.8558035512442
 20
5541.9955588214789
 30
0.0
 11
5045.8558035512442
 21
5496.9955588214807
 31
0.0
  0
SOLID
  5
2F79
  8
1
 62
     9
 10
5045.4391368845781
 20
5541.9955588214789
 30
0.0
 11
5046.2724702179112
 21
5541.9955588214789
 31
0.0
 12
5045.8558035512442
 22
5544.4955588214807
 32
0.0
 13
5045.8558035512442
 23
5544.4955588214807
 33
0.0
  0
SOLID
  5
2F7A
  8
1
 62
     9
 10
5045.4391368845781
 20
5496.9955588214807
 30
0.0
 11
5046.2724702179112
 21
5496.9955588214807
 31
0.0
 12
5045.8558035512442
 22
5494.4955588214807
 32
0.0
 13
5045.8558035512442
 23
5494.4955588214807
 33
0.0
  0
INSERT
  5
2F7B
  8
1
  2
*U87
 10
0.0
 20
0.0
 30
0.0
  0
POINT
  5
2F7C
  8
DEFPOINTS
 62
     0
 10
5022.1401584594651
 20
5544.4955588214807
 30
0.0
  0
POINT
  5
2F7D
  8
DEFPOINTS
 62
     0
 10
5022.1401584594651
 20
5494.4955588214807
 30
0.0
  0
POINT
  5
2F7E
  8
DEFPOINTS
 62
     0
 10
5045.8558035512442
 20
5494.4955588214807
 30
0.0
  0
ENDBLK
  5
2F7F
  8
0
 62
     6
  0
BLOCK
  8
0
  2
*U87
 70
     1
 10
0.0
 20
0.0
 30
0.0
  3
*U87
  1

  0
TEXT
  5
34C3
  8
1
 62
     2
 10
5045.3558035512442
 20
5516.8288921548155
 30
0.0
 40
3.5
  1
50
 50
90.0
 41
0.8
  7
AD-STANDARD
  0
ENDBLK
  5
34C5
  8
0
  0
BLOCK
  8
0
 62
     6
  2
*D88
 70
     1
 10
0.0
 20
0.0
 30
0.0
  3
*D88
  1

  0
LINE
  5
2F82
  8
1
 62
     9
 10
4993.1689609958976
 20
5531.9955588214689
 30
0.0
 11
5039.2296229041203
 21
5531.9955588214689
 31
0.0
  0
LINE
  5
2F83
  8
1
 62
     9
 10
4993.1593601504201
 20
5506.995558821468
 30
0.0
 11
5039.2296229041203
 21
5506.995558821468
 31
0.0
  0
LINE
  5
2F84
  8
1
 62
     9
 10
5037.2296229041203
 20
5529.4955588214689
 30
0.0
 11
5037.2296229041203
 21
5509.4955588214689
 31
0.0
  0
SOLID
  5
2F85
  8
1
 62
     9
 10
5036.8129562374534
 20
5529.4955588214689
 30
0.0
 11
5037.6462895707873
 21
5529.4955588214689
 31
0.0
 12
5037.2296229041203
 22
5531.9955588214689
 32
0.0
 13
5037.2296229041203
 23
5531.9955588214689
 33
0.0
  0
SOLID
  5
2F86
  8
1
 62
     9
 10
5036.8129562374534
 20
5509.4955588214689
 30
0.0
 11
5037.6462895707873
 21
5509.4955588214689
 31
0.0
 12
5037.2296229041203
 22
5506.995558821468
 32
0.0
 13
5037.2296229041203
 23
5506.995558821468
 33
0.0
  0
INSERT
  5
2F87
  8
1
  2
*U89
 10
0.0
 20
0.0
 30
0.0
  0
POINT
  5
2F88
  8
DEFPOINTS
 62
     0
 10
4992.1689609958967
 20
5531.9955588214689
 30
0.0
  0
POINT
  5
2F89
  8
DEFPOINTS
 62
     0
 10
4992.1593601504201
 20
5506.995558821468
 30
0.0
  0
POINT
  5
2F8A
  8
DEFPOINTS
 62
     0
 10
5037.2296229041203
 20
5506.995558821468
 30
0.0
  0
ENDBLK
  5
2F8B
  8
0
 62
     6
  0
BLOCK
  8
0
  2
*U89
 70
     1
 10
0.0
 20
0.0
 30
0.0
  3
*U89
  1

  0
TEXT
  5
34C7
  8
1
 62
     2
 10
5036.7296229041176
 20
5516.8288921548037
 30
0.0
 40
3.5
  1
25
 50
90.0
 41
0.8
  7
AD-STANDARD
  0
ENDBLK
  5
34C9
  8
0
  0
BLOCK
  8
0
 62
     6
  2
*D90
 70
     1
 10
0.0
 20
0.0
 30
0.0
  3
*D90
  1

  0
LINE
  5
2F8E
  8
1
 62
     9
 10
4985.7305576139879
 20
5531.9955588214689
 30
0.0
 11
4993.6305576139903
 21
5531.9955588214689
 31
0.0
  0
INSERT
  5
2F8F
  8
1
  2
*U91
 10
0.0
 20
0.0
 30
0.0
  0
SOLID
  5
2F91
  8
1
 62
     9
 10
4993.6305576139903
 20
5532.4122254881358
 30
0.0
 11
4993.6305576139903
 21
5531.5788921548019
 31
0.0
 12
4996.1305576139857
 22
5531.9955588214689
 32
0.0
 13
4996.1305576139857
 23
5531.9955588214689
 33
0.0
  0
POINT
  5
2F92
  8
DEFPOINTS
 62
     0
 10
4996.1305576139857
 20
5531.9955588214689
 30
0.0
  0
POINT
  5
2F93
  8
DEFPOINTS
 62
     0
 10
4988.1305576139875
 20
5531.9955588214689
 30
0.0
  0
ENDBLK
  5
2F94
  8
0
 62
     6
  0
BLOCK
  8
0
  2
*U91
 70
     1
 10
0.0
 20
0.0
 30
0.0
  3
*U91
  1

  0
TEXT
  5
34CB
  8
1
 62
     2
 10
4985.8305576139883
 20
5532.4955588214689
 30
0.0
 40
3.5
  1
\U+22058
 41
0.8
  7
AD-STANDARD
  0
ENDBLK
  5
34CD
  8
0
  0
BLOCK
  8
0
 62
     6
  2
*D92
 70
     1
 10
0.0
 20
0.0
 30
0.0
  3
*D92
  1

  0
LINE
  5
2F97
  8
1
 62
     9
 10
4985.7305576139879
 20
5506.995558821468
 30
0.0
 11
4993.6305576139903
 21
5506.995558821468
 31
0.0
  0
INSERT
  5
2F98
  8
1
  2
*U93
 10
0.0
 20
0.0
 30
0.0
  0
SOLID
  5
2F9A
  8
1
 62
     9
 10
4993.6305576139903
 20
5507.4122254881358
 30
0.0
 11
4993.6305576139903
 21
5506.5788921548019
 31
0.0
 12
4996.1305576139857
 22
5506.995558821468
 32
0.0
 13
4996.1305576139857
 23
5506.995558821468
 33
0.0
  0
POINT
  5
2F9B
  8
DEFPOINTS
 62
     0
 10
4996.1305576139857
 20
5506.995558821468
 30
0.0
  0
POINT
  5
2F9C
  8
DEFPOINTS
 62
     0
 10
4988.1305576139875
 20
5506.995558821468
 30
0.0
  0
ENDBLK
  5
2F9D
  8
0
 62
     6
  0
BLOCK
  8
0
  2
*U93
 70
     1
 10
0.0
 20
0.0
 30
0.0
  3
*U93
  1

  0
TEXT
  5
34CF
  8
1
 62
     2
 10
4985.8305576139883
 20
5507.4955588214689
 30
0.0
 40
3.5
  1
\U+22058
 41
0.8
  7
AD-STANDARD
  0
ENDBLK
  5
34D1
  8
0
  0
BLOCK
  8
0
 62
     6
  2
*D94
 70
     1
 10
0.0
 20
0.0
 30
0.0
  3
*D94
  1

  0
LINE
  5
2FA0
  8
1
  6
CENTER
 62
     9
 10
5022.1401584594651
 20
5545.4955588214807
 30
0.0
 11
5022.1401584594651
 21
5555.8252860468929
 31
0.0
  0
LINE
  5
2FA1
  8
1
  6
CENTER
 62
     9
 10
5010.4401584594652
 20
5545.4955588214752
 30
0.0
 11
5010.4401584594652
 21
5555.8252860468929
 31
0.0
  0
LINE
  5
2FA2
  8
1
  6
CENTER
 62
     9
 10
5019.6401584594651
 20
5553.8252860468929
 30
0.0
 11
5012.9401584594643
 21
5553.8252860468929
 31
0.0
  0
SOLID
  5
2FA3
  8
1
  6
CENTER
 62
     9
 10
5019.6401584594651
 20
5554.2419527135598
 30
0.0
 11
5019.6401584594651
 21
5553.4086193802259
 31
0.0
 12
5022.1401584594651
 22
5553.8252860468929
 32
0.0
 13
5022.1401584594651
 23
5553.8252860468929
 33
0.0
  0
SOLID
  5
2FA4
  8
1
  6
CENTER
 62
     9
 10
5012.9401584594643
 20
5554.2419527135598
 30
0.0
 11
5012.9401584594643
 21
5553.4086193802259
 31
0.0
 12
5010.4401584594652
 22
5553.8252860468929
 32
0.0
 13
5010.4401584594652
 23
5553.8252860468929
 33
0.0
  0
INSERT
  5
2FA5
  8
1
  2
*U95
 10
0.0
 20
0.0
 30
0.0
  0
POINT
  5
2FA6
  8
DEFPOINTS
  6
CENTER
 62
     0
 10
5022.1401584594651
 20
5544.4955588214807
 30
0.0
  0
POINT
  5
2FA7
  8
DEFPOINTS
  6
CENTER
 62
     0
 10
5010.4401584594652
 20
5544.4955588214743
 30
0.0
  0
POINT
  5
2FA8
  8
DEFPOINTS
  6
CENTER
 62
     0
 10
5010.4401584594652
 20
5553.8252860468929
 30
0.0
  0
ENDBLK
  5
2FA9
  8
0
 62
     6
  0
BLOCK
  8
0
  2
*U95
 70
     1
 10
0.0
 20
0.0
 30
0.0
  3
*U95
  1

  0
TEXT
  5
34D3
  8
1
 62
     2
 10
5011.4234917927988
 20
5554.3252860468929
 30
0.0
 40
3.5
  1
11.7
 41
0.8
  7
AD-STANDARD
  0
ENDBLK
  5
34D5
  8
0
  0
BLOCK
  8
0
  2
*D96
 70
     1
 10
0.0
 20
0.0
 30
0.0
  3
*D96
  1

  0
LINE
  5
2FAC
  8
1
  6
CENTER
 62
     9
 10
4992.140158459466
 20
5532.995558821468
 30
0.0
 11
4992.140158459466
 21
5555.8252860468929
 31
0.0
  0
LINE
  5
2FAD
  8
1
  6
CENTER
 62
     9
 10
5010.4401584594652
 20
5520.4955588214807
 30
0.0
 11
5010.4401584594652
 21
5555.8252860468929
 31
0.0
  0
LINE
  5
2FAE
  8
1
  6
CENTER
 62
     9
 10
4994.6401584594651
 20
5553.8252860468929
 30
0.0
 11
5007.9401584594643
 21
5553.8252860468929
 31
0.0
  0
SOLID
  5
2FAF
  8
1
  6
CENTER
 62
     9
 10
4994.6401584594651
 20
5554.2419527135598
 30
0.0
 11
4994.6401584594651
 21
5553.4086193802259
 31
0.0
 12
4992.140158459466
 22
5553.8252860468929
 32
0.0
 13
4992.140158459466
 23
5553.8252860468929
 33
0.0
  0
SOLID
  5
2FB0
  8
1
  6
CENTER
 62
     9
 10
5007.9401584594643
 20
5554.2419527135598
 30
0.0
 11
5007.9401584594643
 21
5553.4086193802259
 31
0.0
 12
5010.4401584594652
 22
5553.8252860468929
 32
0.0
 13
5010.4401584594652
 23
5553.8252860468929
 33
0.0
  0
INSERT
  5
2FB1
  8
1
  2
*U97
 10
0.0
 20
0.0
 30
0.0
  0
POINT
  5
2FB2
  8
DEFPOINTS
  6
CENTER
 62
     0
 10
4992.140158459466
 20
5531.9955588214689
 30
0.0
  0
POINT
  5
2FB3
  8
DEFPOINTS
  6
CENTER
 62
     0
 10
5010.4401584594652
 20
5519.4955588214807
 30
0.0
  0
POINT
  5
2FB4
  8
DEFPOINTS
  6
CENTER
 62
     0
 10
5010.4401584594652
 20
5553.8252860468929
 30
0.0
  0
ENDBLK
  5
2FB5
  8
0
  0
BLOCK
  8
0
  2
*U97
 70
     1
 10
0.0
 20
0.0
 30
0.0
  3
*U97
  1

  0
TEXT
  5
34D7
  8
1
 62
     2
 10
4996.4234917927988
 20
5554.3252860468929
 30
0.0
 40
3.5
  1
18.3
 41
0.8
  7
AD-STANDARD
  0
ENDBLK
  5
34D9
  8
0
  0
BLOCK
  8
0
  2
*D98
 70
     1
 10
0.0
 20
0.0
 30
0.0
  3
*D98
  1

  0
LINE
  5
33D0
  8
1
 62
     9
 10
34.192860251442532
 20
188.53953290145509
 30
0.0
 11
34.192860251442532
 21
208.26490953464389
 31
0.0
  0
LINE
  5
33D1
  8
1
 62
     9
 10
49.192860251441623
 20
188.53953290145509
 30
0.0
 11
49.192860251441623
 21
208.26490953464389
 31
0.0
  0
LINE
  5
33D2
  8
1
 62
     9
 10
36.692860251442532
 20
206.26490953464389
 30
0.0
 11
46.692860251441623
 21
206.26490953464389
 31
0.0
  0
SOLID
  5
33D3
  8
1
 62
     9
 10
36.692860251442532
 20
206.68157620131061
 30
0.0
 11
36.692860251442532
 21
205.84824286797721
 31
0.0
 12
34.192860251442532
 22
206.26490953464389
 32
0.0
 13
34.192860251442532
 23
206.26490953464389
 33
0.0
  0
SOLID
  5
33D4
  8
1
 62
     9
 10
46.692860251441623
 20
206.68157620131061
 30
0.0
 11
46.692860251441623
 21
205.84824286797721
 31
0.0
 12
49.192860251441623
 22
206.26490953464389
 32
0.0
 13
49.192860251441623
 23
206.26490953464389
 33
0.0
  0
INSERT
  5
33D5
  8
1
  2
*U99
 10
0.0
 20
0.0
 30
0.0
  0
POINT
  5
33D6
  8
DEFPOINTS
 62
     0
 10
34.192860251442532
 20
187.53953290145509
 30
0.0
  0
POINT
  5
33D7
  8
DEFPOINTS
 62
     0
 10
49.192860251441623
 20
187.53953290145509
 30
0.0
  0
POINT
  5
33D8
  8
DEFPOINTS
 62
     0
 10
49.192860251441623
 20
206.26490953464389
 30
0.0
  0
ENDBLK
  5
3258
  8
0
  0
BLOCK
  8
0
  2
*U99
 70
     1
 10
0.0
 20
0.0
 30
0.0
  3
*U99
  1

  0
TEXT
  5
3530
  8
1
 62
     2
 10
38.82619358477541
 20
206.76490953464389
 30
0.0
 40
3.5
  1
15
 41
0.8
  7
AD-STANDARD
  0
ENDBLK
  5
3532
  8
0
  0
BLOCK
  8
0
  2
*D100
 70
     1
 10
0.0
 20
0.0
 30
0.0
  3
*D100
  1

  0
LINE
  5
33D9
  8
1
 62
     9
 10
84.192860251442553
 20
176.03953290145509
 30
0.0
 11
84.192860251442553
 21
208.1989082632187
 31
0.0
  0
LINE
  5
33DA
  8
1
 62
     9
 10
49.192860251442518
 20
176.03953290145509
 30
0.0
 11
49.192860251442518
 21
208.1989082632187
 31
0.0
  0
LINE
  5
33DB
  8
1
 62
     9
 10
81.692860251442553
 20
206.1989082632187
 30
0.0
 11
51.692860251442518
 21
206.1989082632187
 31
0.0
  0
SOLID
  5
33DC
  8
1
 62
     9
 10
81.692860251442553
 20
206.6155749298853
 30
0.0
 11
81.692860251442553
 21
205.78224159655201
 31
0.0
 12
84.192860251442553
 22
206.1989082632187
 32
0.0
 13
84.192860251442553
 23
206.1989082632187
 33
0.0
  0
SOLID
  5
33DD
  8
1
 62
     9
 10
51.692860251442518
 20
206.6155749298853
 30
0.0
 11
51.692860251442518
 21
205.78224159655201
 31
0.0
 12
49.192860251442518
 22
206.1989082632187
 32
0.0
 13
49.192860251442518
 23
206.1989082632187
 33
0.0
  0
INSERT
  5
33DE
  8
1
  2
*U101
 10
0.0
 20
0.0
 30
0.0
  0
POINT
  5
33DF
  8
DEFPOINTS
 62
     0
 10
84.192860251442553
 20
175.03953290145509
 30
0.0
  0
POINT
  5
33E0
  8
DEFPOINTS
 62
     0
 10
49.192860251442518
 20
175.03953290145509
 30
0.0
  0
POINT
  5
33E1
  8
DEFPOINTS
 62
     0
 10
49.192860251442518
 20
206.1989082632187
 30
0.0
  0
ENDBLK
  5
3264
  8
0
  0
BLOCK
  8
0
  2
*U101
 70
     1
 10
0.0
 20
0.0
 30
0.0
  3
*U101
  1

  0
TEXT
  5
3534
  8
1
 62
     2
 10
64.026193584775854
 20
206.6989082632187
 30
0.0
 40
3.5
  1
35
 41
0.8
  7
AD-STANDARD
  0
ENDBLK
  5
3536
  8
0
  0
BLOCK
  8
0
  2
*D102
 70
     1
 10
0.0
 20
0.0
 30
0.0
  3
*D102
  1

  0
LINE
  5
33E2
  8
1
 62
     9
 10
48.192860251442518
 20
175.03953290145509
 30
0.0
 11
22.969775598230509
 21
175.03953290145509
 31
0.0
  0
LINE
  5
33E3
  8
1
 62
     9
 10
48.192860251442518
 20
150.03953290145509
 30
0.0
 11
22.969775598230509
 21
150.03953290145509
 31
0.0
  0
LINE
  5
33E4
  8
1
 62
     9
 10
24.969775598230509
 20
172.5395329014552
 30
0.0
 11
24.969775598230509
 21
152.5395329014552
 31
0.0
  0
SOLID
  5
33E5
  8
1
 62
     9
 10
24.553108931563852
 20
172.5395329014552
 30
0.0
 11
25.38644226489718
 21
172.5395329014552
 31
0.0
 12
24.969775598230509
 22
175.03953290145509
 32
0.0
 13
24.969775598230509
 23
175.03953290145509
 33
0.0
  0
SOLID
  5
33E6
  8
1
 62
     9
 10
24.553108931563841
 20
152.5395329014552
 30
0.0
 11
25.38644226489718
 21
152.5395329014552
 31
0.0
 12
24.969775598230509
 22
150.03953290145509
 32
0.0
 13
24.969775598230509
 23
150.03953290145509
 33
0.0
  0
INSERT
  5
33E7
  8
1
  2
*U103
 10
0.0
 20
0.0
 30
0.0
  0
POINT
  5
33E8
  8
DEFPOINTS
 62
     0
 10
49.192860251442518
 20
175.03953290145509
 30
0.0
  0
POINT
  5
33E9
  8
DEFPOINTS
 62
     0
 10
49.192860251442518
 20
150.03953290145509
 30
0.0
  0
POINT
  5
33EA
  8
DEFPOINTS
 62
     0
 10
24.969775598230509
 20
150.03953290145509
 30
0.0
  0
ENDBLK
  5
3270
  8
0
  0
BLOCK
  8
0
  2
*U103
 70
     1
 10
0.0
 20
0.0
 30
0.0
  3
*U103
  1

  0
TEXT
  5
3538
  8
1
 62
     2
 10
24.469775598230491
 20
159.87286623478849
 30
0.0
 40
3.5
  1
25
 50
90.0
 41
0.8
  7
AD-STANDARD
  0
ENDBLK
  5
353A
  8
0
  0
BLOCK
  8
0
  2
*D104
 70
     1
 10
0.0
 20
0.0
 30
0.0
  3
*D104
  1

  0
LINE
  5
33EB
  8
1
 62
     9
 10
85.925541806937787
 20
131.53953290145509
 30
0.0
 11
75.049532184639133
 21
131.53953290145509
 31
0.0
  0
LINE
  5
33EC
  8
1
 62
     9
 10
85.925541806937787
 20
137.53953290145509
 30
0.0
 11
75.049532184639133
 21
137.53953290145509
 31
0.0
  0
LINE
  5
33ED
  8
1
 62
     9
 10
77.049532184639133
 20
129.03953290145509
 30
0.0
 11
77.049532184639133
 21
126.5395329014552
 31
0.0
  0
LINE
  5
33EE
  8
1
 62
     9
 10
77.049532184639133
 20
140.0395329014552
 30
0.0
 11
77.049532184639133
 21
142.5395329014552
 31
0.0
  0
LINE
  5
33EF
  8
1
 62
     9
 10
77.049532184639133
 20
131.53953290145509
 30
0.0
 11
77.049532184639133
 21
137.53953290145509
 31
0.0
  0
SOLID
  5
33F0
  8
1
 62
     9
 10
76.632865517972448
 20
129.03953290145509
 30
0.0
 11
77.466198851305805
 21
129.03953290145509
 31
0.0
 12
77.049532184639133
 22
131.53953290145509
 32
0.0
 13
77.049532184639133
 23
131.53953290145509
 33
0.0
  0
SOLID
  5
33F1
  8
1
 62
     9
 10
76.632865517972448
 20
140.0395329014552
 30
0.0
 11
77.466198851305805
 21
140.0395329014552
 31
0.0
 12
77.049532184639133
 22
137.53953290145509
 32
0.0
 13
77.049532184639133
 23
137.53953290145509
 33
0.0
  0
INSERT
  5
33F2
  8
1
  2
*U105
 10
0.0
 20
0.0
 30
0.0
  0
POINT
  5
33F3
  8
DEFPOINTS
 62
     0
 10
86.925541806937744
 20
131.53953290145509
 30
0.0
  0
POINT
  5
33F4
  8
DEFPOINTS
 62
     0
 10
86.925541806937744
 20
137.53953290145509
 30
0.0
  0
POINT
  5
33F5
  8
DEFPOINTS
 62
     0
 10
77.049532184639133
 20
137.53953290145509
 30
0.0
  0
ENDBLK
  5
327C
  8
0
  0
BLOCK
  8
0
  2
*U105
 70
     1
 10
0.0
 20
0.0
 30
0.0
  3
*U105
  1

  0
TEXT
  5
353C
  8
1
 62
     2
 10
76.549532184639133
 20
133.1395329014552
 30
0.0
 40
3.5
  1
6
 50
90.0
 41
0.8
  7
AD-STANDARD
  0
ENDBLK
  5
353E
  8
0
  0
BLOCK
  8
0
  2
*D106
 70
     1
 10
0.0
 20
0.0
 30
0.0
  3
*D106
  1

  0
LINE
  5
33F6
  8
1
 62
     9
 10
47.780267945023724
 20
175.54409506396959
 30
0.0
 11
50.605452557864979
 21
174.53497073894511
 31
0.0
  0
INSERT
  5
33F7
  8
1
  2
*U107
 10
0.0
 20
0.0
 30
0.0
  0
SOLID
  5
33F8
  8
1
 62
     9
 10
47.920424101277192
 20
175.9364818157533
 30
0.0
 11
47.640111788770263
 21
175.1517083121858
 31
0.0
 12
45.425947434321479
 22
176.3850320014904
 32
0.0
 13
45.425947434321479
 23
176.3850320014904
 33
0.0
  0
SOLID
  5
33F9
  8
1
 62
     9
 10
50.745608714118433
 20
174.92735749072881
 30
0.0
 11
50.465296401611511
 21
174.1425839871614
 31
0.0
 12
52.959773068567188
 22
173.6940338014243
 32
0.0
 13
52.959773068567188
 23
173.6940338014243
 33
0.0
  0
POINT
  5
33FA
  8
DEFPOINTS
 62
     0
 10
52.959773068567188
 20
173.6940338014243
 30
0.0
  0
POINT
  5
33FB
  8
DEFPOINTS
 62
     0
 10
45.425947434321479
 20
176.3850320014904
 30
0.0
  0
ENDBLK
  5
328A
  8
0
  0
BLOCK
  8
0
  2
*U107
 70
     1
 10
0.0
 20
0.0
 30
0.0
  3
*U107
  1

  0
TEXT
  5
3540
  8
1
 62
     2
 10
60.479892179323357
 20
169.14964577687209
 30
0.0
 40
3.5
  1
\U+22058
 50
340.34384099859892
 41
0.8
  7
AD-STANDARD
  0
ENDBLK
  5
3542
  8
0
  0
BLOCK
  8
0
  2
*D108
 70
     1
 10
0.0
 20
0.0
 30
0.0
  3
*D108
  1

  0
LINE
  5
33FC
  8
1
 62
     9
 10
69.793916488283244
 20
174.86512388401101
 30
0.0
 11
77.693337025016675
 21
174.96080660885841
 31
0.0
  0
LINE
  5
33FD
  8
1
 62
     9
 10
90.692383477869299
 20
175.11825919405061
 30
0.0
 11
93.192200103417832
 21
175.1485385373569
 31
0.0
  0
INSERT
  5
33FE
  8
1
  2
*U109
 10
0.0
 20
0.0
 30
0.0
  0
LINE
  5
33FF
  8
1
 62
     9
 10
88.192566852320709
 20
175.0879798507446
 30
0.0
 11
80.193153650565236
 21
174.9910859521647
 31
0.0
  0
SOLID
  5
3400
  8
1
 62
     9
 10
90.687336920651575
 20
175.53489529830881
 30
0.0
 11
90.697430035086995
 21
174.70162308979261
 31
0.0
 12
88.192566852320709
 22
175.0879798507446
 32
0.0
 13
88.192566852320709
 23
175.0879798507446
 33
0.0
  0
SOLID
  5
3401
  8
1
 62
     9
 10
77.688290467798993
 20
175.37744271311661
 30
0.0
 11
77.698383582234371
 21
174.54417050460049
 31
0.0
 12
80.193153650565236
 22
174.9910859521647
 32
0.0
 13
80.193153650565236
 23
174.9910859521647
 33
0.0
  0
POINT
  5
3402
  8
DEFPOINTS
 62
     0
 10
80.193153650565236
 20
174.9910859521647
 30
0.0
  0
POINT
  5
3403
  8
DEFPOINTS
 62
     0
 10
88.192566852320709
 20
175.0879798507446
 30
0.0
  0
ENDBLK
  5
3293
  8
0
  0
BLOCK
  8
0
  2
*U109
 70
     1
 10
0.0
 20
0.0
 30
0.0
  3
*U109
  1

  0
TEXT
  5
3544
  8
1
 62
     2
 10
69.887853284643953
 20
175.36629838285299
 30
0.0
 40
3.5
  1
\U+22058
 50
0.6939683987084047
 41
0.8
  7
AD-STANDARD
  0
ENDBLK
  5
3546
  8
0
  0
BLOCK
  8
0
  2
*D110
 70
     1
 10
0.0
 20
0.0
 30
0.0
  3
*D110
  1

  0
LINE
  5
3404
  8
1
 62
     9
 10
69.792860251442534
 20
150.03953290145509
 30
0.0
 11
77.692860251442525
 21
150.03953290145509
 31
0.0
  0
LINE
  5
3405
  8
1
 62
     9
 10
90.692860251442553
 20
150.03953290145509
 30
0.0
 11
93.192860251442553
 21
150.03953290145509
 31
0.0
  0
INSERT
  5
3406
  8
1
  2
*U111
 10
0.0
 20
0.0
 30
0.0
  0
LINE
  5
3407
  8
1
 62
     9
 10
88.192860251442553
 20
150.03953290145509
 30
0.0
 11
80.192860251442525
 21
150.03953290145509
 31
0.0
  0
SOLID
  5
3408
  8
1
 62
     9
 10
90.692860251442553
 20
150.4561995681218
 30
0.0
 11
90.692860251442553
 21
149.62286623478849
 31
0.0
 12
88.192860251442553
 22
150.03953290145509
 32
0.0
 13
88.192860251442553
 23
150.03953290145509
 33
0.0
  0
SOLID
  5
3409
  8
1
 62
     9
 10
77.692860251442525
 20
150.4561995681218
 30
0.0
 11
77.692860251442525
 21
149.62286623478849
 31
0.0
 12
80.192860251442525
 22
150.03953290145509
 32
0.0
 13
80.192860251442525
 23
150.03953290145509
 33
0.0
  0
POINT
  5
340A
  8
DEFPOINTS
 62
     0
 10
80.192860251442525
 20
150.03953290145509
 30
0.0
  0
POINT
  5
340B
  8
DEFPOINTS
 62
     0
 10
88.192860251442553
 20
150.03953290145509
 30
0.0
  0
ENDBLK
  5
329E
  8
0
  0
BLOCK
  8
0
  2
*U111
 70
     1
 10
0.0
 20
0.0
 30
0.0
  3
*U111
  1

  0
TEXT
  5
3548
  8
1
 62
     2
 10
69.892860251442514
 20
150.5395329014552
 30
0.0
 40
3.5
  1
\U+22058
 41
0.8
  7
AD-STANDARD
  0
ENDBLK
  5
354A
  8
0
  0
BLOCK
  8
0
  2
*D112
 70
     1
 10
0.0
 20
0.0
 30
0.0
  3
*D112
  1

  0
LINE
  5
340C
  8
1
 62
     9
 10
245.1928602514426
 20
187.53953290145509
 30
0.0
 11
269.90850534322169
 21
187.53953290145509
 31
0.0
  0
LINE
  5
340D
  8
1
 62
     9
 10
245.1928602514426
 20
137.53953290145509
 30
0.0
 11
269.90850534322169
 21
137.53953290145509
 31
0.0
  0
LINE
  5
340E
  8
1
 62
     9
 10
267.90850534322169
 20
185.0395329014552
 30
0.0
 11
267.90850534322169
 21
165.30619956812271
 31
0.0
  0
LINE
  5
340F
  8
1
 62
     9
 10
267.90850534322169
 20
140.0395329014552
 30
0.0
 11
267.90850534322169
 21
159.7728662347894
 31
0.0
  0
INSERT
  5
3410
  8
1
  2
*U113
 10
0.0
 20
0.0
 30
0.0
  0
SOLID
  5
3411
  8
1
 62
     9
 10
267.49183867655501
 20
185.0395329014552
 30
0.0
 11
268.32517200988838
 21
185.0395329014552
 31
0.0
 12
267.90850534322169
 22
187.53953290145509
 32
0.0
 13
267.90850534322169
 23
187.53953290145509
 33
0.0
  0
SOLID
  5
3412
  8
1
 62
     9
 10
267.49183867655501
 20
140.0395329014552
 30
0.0
 11
268.32517200988838
 21
140.0395329014552
 31
0.0
 12
267.90850534322169
 22
137.53953290145509
 32
0.0
 13
267.90850534322169
 23
137.53953290145509
 33
0.0
  0
POINT
  5
3413
  8
DEFPOINTS
 62
     0
 10
244.1928602514424
 20
187.53953290145509
 30
0.0
  0
POINT
  5
3414
  8
DEFPOINTS
 62
     0
 10
244.1928602514424
 20
137.53953290145509
 30
0.0
  0
POINT
  5
3415
  8
DEFPOINTS
 62
     0
 10
267.90850534322169
 20
137.53953290145509
 30
0.0
  0
ENDBLK
  5
32A9
  8
0
  0
BLOCK
  8
0
  2
*U113
 70
     1
 10
0.0
 20
0.0
 30
0.0
  3
*U113
  1

  0
TEXT
  5
354C
  8
1
 62
     2
 10
269.65850534322078
 20
159.8728662347894
 30
0.0
 40
3.5
  1
50
 50
90.0
 41
0.8
  7
AD-STANDARD
  0
ENDBLK
  5
354E
  8
0
  0
BLOCK
  8
0
  2
*D114
 70
     1
 10
0.0
 20
0.0
 30
0.0
  3
*D114
  1

  0
LINE
  5
3416
  8
1
 62
     9
 10
215.221662787875
 20
175.03953290144329
 30
0.0
 11
261.28232469609691
 21
175.03953290144329
 31
0.0
  0
LINE
  5
3417
  8
1
 62
     9
 10
215.21206194239761
 20
150.03953290144329
 30
0.0
 11
261.28232469609691
 21
150.03953290144329
 31
0.0
  0
LINE
  5
3418
  8
1
 62
     9
 10
259.28232469609691
 20
172.53953290144329
 30
0.0
 11
259.28232469609691
 21
152.53953290144329
 31
0.0
  0
SOLID
  5
3419
  8
1
 62
     9
 10
258.86565802943022
 20
172.53953290144329
 30
0.0
 11
259.69899136276359
 21
172.53953290144329
 31
0.0
 12
259.28232469609691
 22
175.03953290144329
 32
0.0
 13
259.28232469609691
 23
175.03953290144329
 33
0.0
  0
SOLID
  5
341A
  8
1
 62
     9
 10
258.86565802943022
 20
152.53953290144329
 30
0.0
 11
259.69899136276359
 21
152.53953290144329
 31
0.0
 12
259.28232469609691
 22
150.03953290144329
 32
0.0
 13
259.28232469609691
 23
150.03953290144329
 33
0.0
  0
INSERT
  5
341B
  8
1
  2
*U115
 10
0.0
 20
0.0
 30
0.0
  0
POINT
  5
341C
  8
DEFPOINTS
 62
     0
 10
214.22166278787509
 20
175.03953290144329
 30
0.0
  0
POINT
  5
341D
  8
DEFPOINTS
 62
     0
 10
214.2120619423975
 20
150.03953290144329
 30
0.0
  0
POINT
  5
341E
  8
DEFPOINTS
 62
     0
 10
259.28232469609691
 20
150.03953290144329
 30
0.0
  0
ENDBLK
  5
32B6
  8
0
  0
BLOCK
  8
0
  2
*U115
 70
     1
 10
0.0
 20
0.0
 30
0.0
  3
*U115
  1

  0
TEXT
  5
3550
  8
1
 62
     2
 10
258.78232469609691
 20
159.87286623477669
 30
0.0
 40
3.5
  1
25
 50
90.0
 41
0.8
  7
AD-STANDARD
  0
ENDBLK
  5
3552
  8
0
  0
BLOCK
  8
0
  2
*D116
 70
     1
 10
0.0
 20
0.0
 30
0.0
  3
*D116
  1

  0
LINE
  5
341F
  8
1
 62
     9
 10
207.683259405965
 20
175.03953290144329
 30
0.0
 11
205.183259405965
 21
175.03953290144329
 31
0.0
  0
LINE
  5
3420
  8
1
 62
     9
 10
220.683259405965
 20
175.03953290144329
 30
0.0
 11
223.183259405965
 21
175.03953290144329
 31
0.0
  0
INSERT
  5
3421
  8
1
  2
*U117
 10
0.0
 20
0.0
 30
0.0
  0
LINE
  5
3422
  8
1
 62
     9
 10
210.183259405965
 20
175.03953290144329
 30
0.0
 11
218.183259405965
 21
175.03953290144329
 31
0.0
  0
SOLID
  5
3423
  8
1
 62
     9
 10
207.683259405965
 20
175.45619956811001
 30
0.0
 11
207.683259405965
 21
174.62286623477669
 31
0.0
 12
210.183259405965
 22
175.03953290144329
 32
0.0
 13
210.183259405965
 23
175.03953290144329
 33
0.0
  0
SOLID
  5
3424
  8
1
 62
     9
 10
220.683259405965
 20
175.45619956811001
 30
0.0
 11
220.683259405965
 21
174.62286623477669
 31
0.0
 12
218.183259405965
 22
175.03953290144329
 32
0.0
 13
218.183259405965
 23
175.03953290144329
 33
0.0
  0
POINT
  5
3425
  8
DEFPOINTS
 62
     0
 10
218.183259405965
 20
175.03953290144329
 30
0.0
  0
POINT
  5
3426
  8
DEFPOINTS
 62
     0
 10
210.183259405965
 20
175.03953290144329
 30
0.0
  0
ENDBLK
  5
32C2
  8
0
  0
BLOCK
  8
0
  2
*U117
 70
     1
 10
0.0
 20
0.0
 30
0.0
  3
*U117
  1

  0
TEXT
  5
3554
  8
1
 62
     2
 10
207.88325940596519
 20
173.28953290144329
 30
0.0
 40
3.5
  1
\U+22058
 41
0.8
  7
AD-STANDARD
  0
ENDBLK
  5
3556
  8
0
  0
BLOCK
  8
0
  2
*D118
 70
     1
 10
0.0
 20
0.0
 30
0.0
  3
*D118
  1

  0
LINE
  5
3427
  8
1
 62
     9
 10
207.683259405965
 20
150.03953290144329
 30
0.0
 11
205.183259405965
 21
150.03953290144329
 31
0.0
  0
LINE
  5
3428
  8
1
 62
     9
 10
220.683259405965
 20
150.03953290144329
 30
0.0
 11
223.183259405965
 21
150.03953290144329
 31
0.0
  0
INSERT
  5
3429
  8
1
  2
*U119
 10
0.0
 20
0.0
 30
0.0
  0
LINE
  5
342A
  8
1
 62
     9
 10
210.183259405965
 20
150.03953290144329
 30
0.0
 11
218.183259405965
 21
150.03953290144329
 31
0.0
  0
SOLID
  5
342B
  8
1
 62
     9
 10
207.683259405965
 20
150.45619956811001
 30
0.0
 11
207.683259405965
 21
149.62286623477669
 31
0.0
 12
210.183259405965
 22
150.03953290144329
 32
0.0
 13
210.183259405965
 23
150.03953290144329
 33
0.0
  0
SOLID
  5
342C
  8
1
 62
     9
 10
220.683259405965
 20
150.45619956811001
 30
0.0
 11
220.683259405965
 21
149.62286623477669
 31
0.0
 12
218.183259405965
 22
150.03953290144329
 32
0.0
 13
218.183259405965
 23
150.03953290144329
 33
0.0
  0
POINT
  5
342D
  8
DEFPOINTS
 62
     0
 10
218.183259405965
 20
150.03953290144329
 30
0.0
  0
POINT
  5
342E
  8
DEFPOINTS
 62
     0
 10
210.183259405965
 20
150.03953290144329
 30
0.0
  0
ENDBLK
  5
32CD
  8
0
  0
BLOCK
  8
0
  2
*U119
 70
     1
 10
0.0
 20
0.0
 30
0.0
  3
*U119
  1

  0
TEXT
  5
3558
  8
1
 62
     2
 10
207.88325940596519
 20
148.28953290144329
 30
0.0
 40
3.5
  1
\U+22058
 41
0.8
  7
AD-STANDARD
  0
ENDBLK
  5
355A
  8
0
  0
BLOCK
  8
0
  2
*D120
 70
     1
 10
0.0
 20
0.0
 30
0.0
  3
*D120
  1

  0
LINE
  5
342F
  8
1
  6
CENTER
 62
     9
 10
244.1928602514424
 20
188.53953290145509
 30
0.0
 11
244.1928602514424
 21
198.86926012686729
 31
0.0
  0
LINE
  5
3430
  8
1
  6
CENTER
 62
     9
 10
232.49286025144269
 20
188.5395329014479
 30
0.0
 11
232.49286025144269
 21
198.86926012686729
 31
0.0
  0
LINE
  5
3431
  8
1
  6
CENTER
 62
     9
 10
241.6928602514424
 20
196.86926012686729
 30
0.0
 11
234.99286025144269
 21
196.86926012686729
 31
0.0
  0
SOLID
  5
3432
  8
1
  6
CENTER
 62
     9
 10
241.6928602514424
 20
197.285926793534
 30
0.0
 11
241.6928602514424
 21
196.45259346020069
 31
0.0
 12
244.1928602514424
 22
196.86926012686729
 32
0.0
 13
244.1928602514424
 23
196.86926012686729
 33
0.0
  0
SOLID
  5
3433
  8
1
  6
CENTER
 62
     9
 10
234.99286025144269
 20
197.285926793534
 30
0.0
 11
234.99286025144269
 21
196.45259346020069
 31
0.0
 12
232.49286025144269
 22
196.86926012686729
 32
0.0
 13
232.49286025144269
 23
196.86926012686729
 33
0.0
  0
INSERT
  5
3434
  8
1
  2
*U121
 10
0.0
 20
0.0
 30
0.0
  0
POINT
  5
3435
  8
DEFPOINTS
  6
CENTER
 62
     0
 10
244.1928602514424
 20
187.53953290145509
 30
0.0
  0
POINT
  5
3436
  8
DEFPOINTS
  6
CENTER
 62
     0
 10
232.49286025144269
 20
187.5395329014479
 30
0.0
  0
POINT
  5
3437
  8
DEFPOINTS
  6
CENTER
 62
     0
 10
232.49286025144269
 20
196.86926012686729
 30
0.0
  0
ENDBLK
  5
32D8
  8
0
  0
BLOCK
  8
0
  2
*U121
 70
     1
 10
0.0
 20
0.0
 30
0.0
  3
*U121
  1

  0
TEXT
  5
355C
  8
1
 62
     2
 10
233.47619358477601
 20
197.36926012686729
 30
0.0
 40
3.5
  1
11.7
 41
0.8
  7
AD-STANDARD
  0
ENDBLK
  5
355E
  8
0
  0
BLOCK
  8
0
  2
*D122
 70
     1
 10
0.0
 20
0.0
 30
0.0
  3
*D122
  1

  0
LINE
  5
3438
  8
1
  6
CENTER
 62
     9
 10
214.19286025144251
 20
176.03953290144329
 30
0.0
 11
214.19286025144251
 21
198.86926012686729
 31
0.0
  0
LINE
  5
3439
  8
1
  6
CENTER
 62
     9
 10
232.49286025144269
 20
163.53953290145509
 30
0.0
 11
232.49286025144269
 21
198.86926012686729
 31
0.0
  0
LINE
  5
343A
  8
1
  6
CENTER
 62
     9
 10
216.6928602514424
 20
196.86926012686729
 30
0.0
 11
229.99286025144269
 21
196.86926012686729
 31
0.0
  0
SOLID
  5
343B
  8
1
  6
CENTER
 62
     9
 10
216.6928602514424
 20
197.285926793534
 30
0.0
 11
216.6928602514424
 21
196.45259346020069
 31
0.0
 12
214.19286025144251
 22
196.86926012686729
 32
0.0
 13
214.19286025144251
 23
196.86926012686729
 33
0.0
  0
SOLID
  5
343C
  8
1
  6
CENTER
 62
     9
 10
229.99286025144269
 20
197.285926793534
 30
0.0
 11
229.99286025144269
 21
196.45259346020069
 31
0.0
 12
232.49286025144269
 22
196.86926012686729
 32
0.0
 13
232.49286025144269
 23
196.86926012686729
 33
0.0
  0
INSERT
  5
343D
  8
1
  2
*U123
 10
0.0
 20
0.0
 30
0.0
  0
POINT
  5
343E
  8
DEFPOINTS
  6
CENTER
 62
     0
 10
214.19286025144251
 20
175.03953290144329
 30
0.0
  0
POINT
  5
343F
  8
DEFPOINTS
  6
CENTER
 62
     0
 10
232.49286025144269
 20
162.53953290145509
 30
0.0
  0
POINT
  5
3440
  8
DEFPOINTS
  6
CENTER
 62
     0
 10
232.49286025144269
 20
196.86926012686729
 30
0.0
  0
ENDBLK
  5
32E4
  8
0
  0
BLOCK
  8
0
  2
*U123
 70
     1
 10
0.0
 20
0.0
 30
0.0
  3
*U123
  1

  0
TEXT
  5
3560
  8
1
 62
     2
 10
218.47619358477601
 20
197.36926012686729
 30
0.0
 40
3.5
  1
18.3
 41
0.8
  7
AD-STANDARD
  0
ENDBLK
  5
3562
  8
0
  0
BLOCK
  8
0
  2
*U124
 70
     1
 10
0.0
 20
0.0
 30
0.0
  3
*U124
  1

  0
TEXT
  5
34F7
  8
1
 62
     2
 10
7.1073043574026702
 20
103.0082006114116
 30
0.0
 40
4.0
  1
4-M8
 41
0.8
  0
LINE
  5
34F8
  8
1
  6
BYBLOCK
 10
21.200637690735672
 20
102.2082006114115
 30
0.0
 11
20.840637690735669
 21
102.2082006114115
 31
0.0
  0
POLYLINE
  5
34F9
  8
1
  6
BYBLOCK
 66
     1
 10
0.0
 20
0.0
 30
0.0
  0
VERTEX
  5
3B33
  8
1
  6
BYBLOCK
 10
26.48263143338443
 20
113.1381968905428
 30
0.0
  0
VERTEX
  5
3B34
  8
1
  6
BYBLOCK
 10
21.200637690735672
 20
102.2082006114115
 30
0.0
  0
SEQEND
  5
3B35
  8
1
  6
BYBLOCK
  0
SOLID
  5
34FD
  8
1
 10
25.882380772564471
 20
113.4282720336172
 30
0.0
 11
28.22308229183092
 21
116.7397008554626
 31
0.0
 12
27.0828820942044
 22
112.8481217474684
 32
0.0
 13
27.0828820942044
 23
112.8481217474684
 33
0.0
  0
POLYLINE
  5
34FE
  8
1
  6
BYBLOCK
 66
     1
 10
0.0
 20
0.0
 30
0.0
  0
VERTEX
  5
3B36
  8
1
  6
BYBLOCK
 10
7.1073043574023433
 20
102.2082006114115
 30
0.0
  0
VERTEX
  5
3B37
  8
1
  6
BYBLOCK
 10
20.840637690735669
 20
102.2082006114115
 30
0.0
  0
SEQEND
  5
3B38
  8
1
  6
BYBLOCK
  0
ENDBLK
  5
3503
  8
0
  0
ENDSEC
  0
SECTION
  2
ENTITIES
  0
POLYLINE
  5
310A
  8
1
 66
     1
 10
0.0
 20
0.0
 30
0.0
  0
VERTEX
  5
3B1A
  8
1
 10
199.2928602514429
 20
137.53953290145509
 30
0.0
  0
VERTEX
  5
3B1B
  8
1
 10
244.1928602514424
 20
137.53953290145509
 30
0.0
  0
VERTEX
  5
3B1C
  8
1
 10
244.1928602514424
 20
187.53953290145509
 30
0.0
  0
VERTEX
  5
3B1D
  8
1
 10
199.2928602514429
 20
187.53953290145509
 30
0.0
  0
SEQEND
  5
3B1E
  8
1
  0
POLYLINE
  5
310B
  8
1
 66
     1
 10
0.0
 20
0.0
 30
0.0
  0
VERTEX
  5
3B1F
  8
1
 10
99.092860251442175
 20
187.53953290145509
 30
0.0
  0
VERTEX
  5
3B20
  8
1
 10
34.192860251442532
 20
187.53953290145509
 30
0.0
  0
VERTEX
  5
3B21
  8
1
 10
34.192860251442532
 20
137.53953290145509
 30
0.0
  0
VERTEX
  5
3B22
  8
1
 10
100.5928602514422
 20
137.53953290145509
 30
0.0
  0
SEQEND
  5
3B23
  8
1
  0
LINE
  5
310C
  8
1
 10
202.1928602514424
 20
187.53953290145509
 30
0.0
 11
202.1928602514424
 21
137.53953290145509
 31
0.0
  0
LINE
  5
310D
  8
1
 10
96.192860251443463
 20
187.53953290145509
 30
0.0
 11
96.192860251443463
 21
137.53953290145509
 31
0.0
  0
LINE
  5
310E
  8
CENTER
 10
214.19286025144251
 20
168.69979104263129
 30
0.0
 11
214.19286025144251
 21
181.37927476025709
 31
0.0
  0
LINE
  5
310F
  8
CENTER
 10
220.86300479777481
 20
175.03953290144329
 30
0.0
 11
207.58032077797529
 21
175.03953290144329
 31
0.0
  0
LINE
  5
3110
  8
CENTER
 10
84.192860251442553
 20
169.434510404744
 30
0.0
 11
84.192860251442553
 21
180.16583883087119
 31
0.0
  0
LINE
  5
3111
  8
CENTER
 10
49.192860251449787
 20
169.783041134108
 30
0.0
 11
49.192860251449787
 21
180.29602466880229
 31
0.0
  0
LINE
  5
3112
  8
CENTER
 10
90.332615592622346
 20
150.03953290145509
 30
0.0
 11
78.402323021044012
 21
150.03953290145509
 31
0.0
  0
LINE
  5
3113
  8
CENTER
 10
55.152213225490293
 20
150.03953290145509
 30
0.0
 11
43.408182690105448
 21
150.03953290145509
 31
0.0
  0
LINE
  5
3114
  8
CENTER
 10
89.618530542225812
 20
175.03953290145509
 30
0.0
 11
79.212198174020031
 21
175.03953290145509
 31
0.0
  0
LINE
  5
3115
  8
CENTER
 10
55.194655658117782
 20
175.03953290145509
 30
0.0
 11
43.191064844781849
 21
175.03953290145509
 31
0.0
  0
LINE
  5
3116
  8
1
 10
294.50681267080921
 20
77.946957301268128
 30
0.0
 11
294.50681267080921
 21
32.946957301268128
 31
0.0
  0
LINE
  5
3117
  8
1
 10
344.50681267080921
 20
77.946957301268128
 30
0.0
 11
344.50681267080921
 21
32.946957301268128
 31
0.0
  0
LINE
  5
3118
  8
1
 10
294.50681267080921
 20
77.946957301268128
 30
0.0
 11
344.50681267080921
 21
77.946957301268128
 31
0.0
  0
LINE
  5
3119
  8
1
 10
294.50681267080921
 20
32.946957301268128
 30
0.0
 11
344.50681267080921
 21
32.946957301268128
 31
0.0
  0
LINE
  5
311A
  8
CENTER
 10
289.51094560169338
 20
55.446957301268128
 30
0.0
 11
350.7892904001427
 21
55.446957301268128
 31
0.0
  0
CIRCLE
  5
311B
  8
1
 10
214.2024610969201
 20
150.03953290144329
 30
0.0
 40
3.399999999999999
  0
CIRCLE
  5
311C
  8
1
 10
214.2024610969201
 20
175.03953290144329
 30
0.0
 40
4.0
  0
CIRCLE
  5
311D
  8
1
 10
232.49286025144269
 20
162.53953290145509
 30
0.0
 40
4.0
  0
CIRCLE
  5
311E
  8
1
 10
214.2024610969201
 20
150.03953290144329
 30
0.0
 40
4.0
  0
CIRCLE
  5
311F
  8
1
 10
232.49286025144269
 20
162.53953290145509
 30
0.0
 40
3.399999999999999
  0
CIRCLE
  5
3120
  8
1
 10
214.2024610969201
 20
175.03953290144329
 30
0.0
 40
3.399999999999999
  0
CIRCLE
  5
3121
  8
1
  6
HIDDEN
 10
84.192860251442553
 20
150.03953290145509
 30
0.0
 40
3.399999999999999
  0
CIRCLE
  5
3122
  8
1
  6
HIDDEN
 10
84.192860251442553
 20
150.03953290145509
 30
0.0
 40
4.0
  0
CIRCLE
  5
3123
  8
1
  6
HIDDEN
 10
49.192860251442518
 20
150.03953290145509
 30
0.0
 40
3.399999999999999
  0
CIRCLE
  5
3124
  8
1
  6
HIDDEN
 10
49.192860251442518
 20
150.03953290145509
 30
0.0
 40
4.0
  0
CIRCLE
  5
3125
  8
1
  6
HIDDEN
 10
49.192860251442518
 20
175.03953290145509
 30
0.0
 40
3.399999999999999
  0
CIRCLE
  5
3126
  8
1
  6
HIDDEN
 10
49.192860251442518
 20
175.03953290145509
 30
0.0
 40
4.0
  0
CIRCLE
  5
3127
  8
1
  6
HIDDEN
 10
84.192860251442553
 20
175.03953290145509
 30
0.0
 40
3.399999999999999
  0
CIRCLE
  5
3128
  8
1
  6
HIDDEN
 10
84.192860251442553
 20
175.03953290145509
 30
0.0
 40
4.0
  0
POLYLINE
  5
3129
  8
1
 66
     1
 10
0.0
 20
0.0
 30
0.0
  0
VERTEX
  5
3B24
  8
1
 10
96.192860251442568
 20
137.53978796530251
 30
0.0
  0
VERTEX
  5
3B25
  8
1
 10
96.192860251442568
 20
187.53978796530251
 30
0.0
  0
SEQEND
  5
3B26
  8
1
  0
POLYLINE
  5
312A
  8
1
 66
     1
 10
0.0
 20
0.0
 30
0.0
  0
VERTEX
  5
3B27
  8
1
 10
99.092860251442175
 20
188.03978796530239
 30
0.0
  0
VERTEX
  5
3B28
  8
1
 10
199.29286025144199
 20
188.03978796530239
 30
0.0
  0
SEQEND
  5
3B29
  8
1
  0
POLYLINE
  5
312B
  8
1
 66
     1
 10
0.0
 20
0.0
 30
0.0
  0
VERTEX
  5
3B2A
  8
1
 10
202.1928602514424
 20
187.53978796530251
 30
0.0
  0
VERTEX
  5
3B2B
  8
1
 10
202.1928602514424
 20
137.53978796530251
 30
0.0
  0
SEQEND
  5
3B2C
  8
1
  0
LINE
  5
312C
  8
1
 10
110.3928602514423
 20
189.03978796530251
 30
0.0
 11
120.3928602514423
 21
189.03978796530251
 31
0.0
  0
LINE
  5
312D
  8
1
 10
110.3928602514423
 20
189.03978796530251
 30
0.0
 11
109.5413730347653
 21
188.18830074862541
 31
0.0
  0
LINE
  5
312E
  8
1
 10
109.5413730347653
 20
188.18830074862541
 30
0.0
 11
109.3928602514423
 21
188.03978796530239
 31
0.0
  0
LINE
  5
312F
  8
1
 10
120.3928602514423
 20
189.03978796530251
 30
0.0
 11
121.3816292111149
 21
188.05101900562991
 31
0.0
  0
LINE
  5
3130
  8
1
 10
121.3816292111149
 20
188.05101900562991
 30
0.0
 11
121.3928602514423
 21
188.03978796530239
 31
0.0
  0
LINE
  5
3131
  8
1
 10
96.192860251442568
 20
187.53978796530251
 30
0.0
 11
99.092860251442175
 21
187.53978796530251
 31
0.0
  0
LINE
  5
3132
  8
1
 10
99.092860251442175
 20
187.53978796530251
 30
0.0
 11
99.092860251442175
 21
137.53978796530251
 31
0.0
  0
LINE
  5
3133
  8
1
 10
99.092860251442175
 20
137.53978796530251
 30
0.0
 11
96.192860251442568
 21
137.53978796530251
 31
0.0
  0
LINE
  5
3134
  8
1
 10
99.092860251442175
 20
187.53978796530251
 30
0.0
 11
99.092860251442175
 21
188.03978796530239
 31
0.0
  0
LINE
  5
3135
  8
1
 10
99.092860251442175
 20
137.53978796530251
 30
0.0
 11
99.092860251442175
 21
137.53953290145509
 31
0.0
  0
POLYLINE
  5
3136
  8
1
 66
     1
 10
0.0
 20
0.0
 30
0.0
  0
VERTEX
  5
3B2D
  8
1
 10
202.1928602514424
 20
137.53978796530251
 30
0.0
  0
VERTEX
  5
3B2E
  8
1
 10
202.1928602514424
 20
187.53978796530251
 30
0.0
  0
SEQEND
  5
3B2F
  8
1
  0
LINE
  5
3137
  8
1
 10
202.1928602514424
 20
187.53978796530251
 30
0.0
 11
199.2928602514429
 21
187.53978796530251
 31
0.0
  0
LINE
  5
3138
  8
1
 10
199.2928602514429
 20
187.53978796530251
 30
0.0
 11
199.2928602514429
 21
137.53978796530251
 31
0.0
  0
LINE
  5
3139
  8
1
 10
199.2928602514429
 20
137.53978796530251
 30
0.0
 11
202.1928602514424
 21
137.53978796530251
 31
0.0
  0
LINE
  5
313A
  8
1
 10
199.2928602514429
 20
187.53978796530251
 30
0.0
 11
199.2928602514429
 21
188.03978796530239
 31
0.0
  0
LINE
  5
313B
  8
1
 10
199.2928602514429
 20
137.53978796530251
 30
0.0
 11
199.2928602514429
 21
137.03978796530251
 31
0.0
  0
LINE
  5
313C
  8
1
 10
100.5928602514422
 20
137.53953290145509
 30
0.0
 11
100.5928602514422
 21
188.03978796530239
 31
0.0
  0
LINE
  5
313D
  8
1
 10
197.99286025144181
 20
137.03978796530251
 30
0.0
 11
197.99286025144181
 21
188.03978796530239
 31
0.0
  0
LINE
  5
313E
  8
1
 10
106.5928602514421
 20
185.03978796530251
 30
0.0
 11
106.5928602514421
 21
185.03978796530251
 31
0.0
  0
LINE
  5
313F
  8
1
 10
108.0928602514422
 20
183.53978796530239
 30
0.0
 11
108.0928602514422
 21
141.53978796530251
 31
0.0
  0
ARC
  5
3140
  8
1
 10
106.5928602514421
 20
183.53978796530239
 30
0.0
 40
1.5
 50
0.0
 51
90.0
  0
LINE
  5
3141
  8
1
 10
106.5928602514421
 20
140.03978796530251
 30
0.0
 11
106.5928602514421
 21
140.03978796530251
 31
0.0
  0
ARC
  5
3142
  8
1
 10
106.5928602514421
 20
141.53978796530251
 30
0.0
 40
1.5
 50
270.0
 51
0.0
  0
ARC
  5
3143
  8
1
 10
106.5928602514421
 20
141.53978796530251
 30
0.0
 40
1.5
 50
180.0
 51
270.0
  0
LINE
  5
3144
  8
1
 10
105.0928602514421
 20
141.53978796530251
 30
0.0
 11
105.0928602514421
 21
183.53978796530239
 31
0.0
  0
ARC
  5
3145
  8
1
 10
106.5928602514421
 20
183.53978796530239
 30
0.0
 40
1.5
 50
90.0
 51
180.0
  0
LINE
  5
3146
  8
1
 10
112.6928602514425
 20
168.03978796530251
 30
0.0
 11
112.6928602514425
 21
157.03978796530251
 31
0.0
  0
ARC
  5
3147
  8
1
 10
116.1928602514425
 20
168.03978796530251
 30
0.0
 40
3.5
 50
90.0
 51
180.0
  0
LINE
  5
3148
  8
1
 10
185.6928602514424
 20
168.03978796530251
 30
0.0
 11
185.6928602514424
 21
157.03978796530251
 31
0.0
  0
ARC
  5
3149
  8
1
 10
182.1928602514424
 20
157.03978796530251
 30
0.0
 40
3.5
 50
270.0
 51
0.0
  0
ARC
  5
314A
  8
1
 10
182.1928602514424
 20
168.03978796530251
 30
0.0
 40
3.5
 50
0.0
 51
90.0
  0
LINE
  5
314B
  8
1
 10
116.1928602514425
 20
171.53978796530251
 30
0.0
 11
182.1928602514424
 21
171.53978796530251
 31
0.0
  0
LINE
  5
314C
  8
1
 10
116.1928602514425
 20
153.53978796530251
 30
0.0
 11
182.1928602514424
 21
153.53978796530251
 31
0.0
  0
ARC
  5
314D
  8
1
 10
116.1928602514425
 20
157.03978796530251
 30
0.0
 40
3.5
 50
180.0
 51
270.0
  0
LINE
  5
314E
  8
1
 10
114.1928602514425
 20
167.87827807633741
 30
0.0
 11
114.1928602514425
 21
156.87827807633741
 31
0.0
  0
ARC
  5
314F
  8
1
 10
116.1928602514425
 20
167.87827807633741
 30
0.0
 40
2.0
 50
90.0
 51
180.0
  0
LINE
  5
3150
  8
1
 10
184.1928602514424
 20
167.87827807633741
 30
0.0
 11
184.1928602514424
 21
156.87827807633741
 31
0.0
  0
ARC
  5
3151
  8
1
 10
182.1928602514424
 20
167.87827807633741
 30
0.0
 40
2.0
 50
0.0
 51
90.0
  0
LINE
  5
3152
  8
1
 10
116.1928602514425
 20
169.8782780763373
 30
0.0
 11
182.1928602514424
 21
169.8782780763373
 31
0.0
  0
LINE
  5
3153
  8
1
 10
116.1928602514425
 20
154.87827807633741
 30
0.0
 11
182.1928602514424
 21
154.87827807633741
 31
0.0
  0
ARC
  5
3154
  8
1
 10
182.1928602514424
 20
156.87827807633741
 30
0.0
 40
2.0
 50
270.0
 51
0.0
  0
ARC
  5
3155
  8
1
 10
116.1928602514425
 20
156.87827807633741
 30
0.0
 40
2.0
 50
180.0
 51
270.0
  0
CIRCLE
  5
3156
  8
1
 10
99.092860251442175
 20
173.53978796530251
 30
0.0
 40
1.0
  0
CIRCLE
  5
3157
  8
1
 10
199.2928602514429
 20
173.53978796530251
 30
0.0
 40
1.0
  0
CIRCLE
  5
3158
  8
1
 10
99.092860251442175
 20
151.53978796530251
 30
0.0
 40
1.0
  0
CIRCLE
  5
3159
  8
1
 10
199.2928602514429
 20
151.53978796530251
 30
0.0
 40
1.0
  0
LINE
  5
315A
  8
1
 10
191.7928602514429
 20
185.03978796530251
 30
0.0
 11
191.7928602514429
 21
185.03978796530251
 31
0.0
  0
LINE
  5
315B
  8
1
 10
190.2928602514429
 20
183.53978796530239
 30
0.0
 11
190.2928602514429
 21
141.53978796530251
 31
0.0
  0
ARC
  5
315C
  8
1
 10
191.7928602514429
 20
183.53978796530239
 30
0.0
 40
1.5
 50
90.0
 51
180.0
  0
LINE
  5
315D
  8
1
 10
191.7928602514429
 20
140.03978796530251
 30
0.0
 11
191.7928602514429
 21
140.03978796530251
 31
0.0
  0
ARC
  5
315E
  8
1
 10
191.7928602514429
 20
141.53978796530251
 30
0.0
 40
1.5
 50
270.0
 51
0.0
  0
ARC
  5
315F
  8
1
 10
191.7928602514429
 20
141.53978796530251
 30
0.0
 40
1.5
 50
180.0
 51
270.0
  0
LINE
  5
3160
  8
1
 10
193.2928602514429
 20
141.53978796530251
 30
0.0
 11
193.2928602514429
 21
183.53978796530239
 31
0.0
  0
ARC
  5
3161
  8
1
 10
191.7928602514429
 20
183.53978796530239
 30
0.0
 40
1.5
 50
0.0
 51
90.0
  0
POLYLINE
  5
3162
  8
1
 66
     1
 10
0.0
 20
0.0
 30
0.0
  0
VERTEX
  5
3B30
  8
1
 10
121.7755418069372
 20
137.03978796530251
 30
0.0
  0
VERTEX
  5
3B31
  8
1
 10
199.29286025144199
 20
137.03978796530251
 30
0.0
  0
SEQEND
  5
3B32
  8
1
  0
LINE
  5
3163
  8
1
 10
120.7755418069372
 20
134.53953290145509
 30
0.0
 11
107.2755418069372
 21
134.53953290145509
 31
0.0
  0
ARC
  5
3164
  8
1
 10
120.7755418069372
 20
135.53953290145509
 30
0.0
 40
1.0
 50
270.0
 51
0.0
  0
LINE
  5
3165
  8
1
 10
106.2755418069372
 20
135.53953290145509
 30
0.0
 11
106.2755418069372
 21
138.53953290145509
 31
0.0
  0
ARC
  5
3166
  8
1
 10
107.2755418069372
 20
138.53953290145509
 30
0.0
 40
1.0
 50
90.0
 51
180.0
  0
ARC
  5
3167
  8
1
 10
107.2755418069372
 20
135.53953290145509
 30
0.0
 40
1.0
 50
180.0
 51
270.0
  0
LINE
  5
3168
  8
1
 10
107.2755418069372
 20
139.53953290145509
 30
0.0
 11
120.7755418069372
 21
139.53953290145509
 31
0.0
  0
ARC
  5
3169
  8
1
 10
120.7755418069372
 20
138.53953290145509
 30
0.0
 40
1.0
 50
0.0
 51
90.0
  0
LINE
  5
316A
  8
1
 10
121.7755418069372
 20
138.53953290145509
 30
0.0
 11
121.7755418069372
 21
135.53953290145509
 31
0.0
  0
LINE
  5
316B
  8
1
 10
114.6255418069376
 20
134.53953290145509
 30
0.0
 11
114.6255418069376
 21
131.8395329014553
 31
0.0
  0
LINE
  5
316C
  8
1
 10
114.32554180693739
 20
131.53953290145509
 30
0.0
 11
86.925541806937744
 21
131.53953290145509
 31
0.0
  0
ARC
  5
316D
  8
1
 10
114.32554180693739
 20
131.8395329014553
 30
0.0
 40
0.3
 50
270.0
 51
0.0
  0
LINE
  5
316E
  8
1
 10
86.625541806937562
 20
131.8395329014553
 30
0.0
 11
86.625541806937562
 21
137.53953290145509
 31
0.0
  0
ARC
  5
316F
  8
1
 10
86.925541806937744
 20
131.8395329014553
 30
0.0
 40
0.3
 50
180.0
 51
270.0
  0
LINE
  5
3170
  8
1
 10
86.625541806937562
 20
137.53953290145509
 30
0.0
 11
106.2755418069372
 21
137.53953290145509
 31
0.0
  0
LINE
  5
3171
  8
CENTER
 10
49.192860251442518
 20
145.1918456866438
 30
0.0
 11
49.192860251442518
 21
155.42001514872001
 31
0.0
  0
LINE
  5
3172
  8
CENTER
 10
84.192860251442553
 20
145.1918456866438
 30
0.0
 11
84.192860251442553
 21
155.42001514872001
 31
0.0
  0
LINE
  5
3173
  8
1
 10
295.5068126708091
 20
30.696957301283589
 30
0.0
 11
292.50681267080921
 21
30.696957301283589
 31
0.0
  0
ARC
  5
3174
  8
1
 10
292.50681267080921
 20
31.696957301283589
 30
0.0
 40
1.0
 50
180.0
 51
270.0
  0
LINE
  5
3175
  8
1
 10
291.50681267080921
 20
31.696957301283589
 30
0.0
 11
291.50681267080921
 21
41.146957301283408
 31
0.0
  0
LINE
  5
3176
  8
1
 10
291.20681267080897
 20
41.446957301283597
 30
0.0
 11
288.80681267080922
 21
41.446957301283597
 31
0.0
  0
ARC
  5
3177
  8
1
 10
288.80681267080922
 20
41.746957301283771
 30
0.0
 40
0.3
 50
180.0
 51
270.0
  0
ARC
  5
3178
  8
1
 10
291.20681267080897
 20
41.146957301283408
 30
0.0
 40
0.3
 50
0.0
 51
90.0
  0
LINE
  5
3179
  8
1
 10
288.5068126708091
 20
41.746957301283771
 30
0.0
 11
288.5068126708091
 21
55.446957301283597
 31
0.0
  0
LINE
  5
317A
  8
1
 10
296.5068126708091
 20
31.696957301283589
 30
0.0
 11
296.5068126708091
 21
32.196957301283589
 31
0.0
  0
ARC
  5
317B
  8
1
 10
295.5068126708091
 20
31.696957301283589
 30
0.0
 40
1.0
 50
270.0
 51
0.0
  0
LINE
  5
317C
  8
1
 10
296.5068126708091
 20
32.196957301283589
 30
0.0
 11
294.00681267080921
 21
32.196957301283589
 31
0.0
  0
LINE
  5
317D
  8
1
 10
294.00681267080921
 20
32.196957301283589
 30
0.0
 11
294.00681267080921
 21
34.696957301283589
 31
0.0
  0
LINE
  5
317E
  8
1
 10
294.00681267080921
 20
34.696957301283589
 30
0.0
 11
294.50681267080921
 21
34.696957301283589
 31
0.0
  0
LINE
  5
317F
  8
1
 10
294.50681267080921
 20
34.696957301283589
 30
0.0
 11
294.50681267080921
 21
55.446957301283597
 31
0.0
  0
LINE
  5
3180
  8
1
 10
295.50681267066631
 20
80.196957301324517
 30
0.0
 11
292.50681267066642
 21
80.196957301307236
 31
0.0
  0
ARC
  5
3181
  8
1
 10
292.50681267067182
 20
79.196957301307236
 30
0.0
 40
1.0
 50
90.000000000312653
 51
180.00000000031261
  0
LINE
  5
3182
  8
1
 10
291.50681267067182
 20
79.196957301301794
 30
0.0
 11
291.50681267072639
 21
69.746957301301961
 31
0.0
  0
LINE
  5
3183
  8
1
 10
291.20681267072808
 20
69.44695730129996
 30
0.0
 11
288.80681267072839
 21
69.446957301286318
 31
0.0
  0
ARC
  5
3184
  8
1
 10
288.80681267073021
 20
69.14695730128615
 30
0.0
 40
0.3
 50
90.000000000312653
 51
180.00000000031261
  0
ARC
  5
3185
  8
1
 10
291.20681267072621
 20
69.746957301300142
 30
0.0
 40
0.3
 50
270.0000000003127
 51
0.0000000003126612
  0
LINE
  5
3186
  8
1
 10
288.50681267073008
 20
69.146957301284317
 30
0.0
 11
288.5068126708091
 21
55.446957301284499
 31
0.0
  0
LINE
  5
3187
  8
1
 10
296.50681267067182
 20
79.196957301329959
 30
0.0
 11
296.50681267067461
 21
78.696957301329931
 31
0.0
  0
ARC
  5
3188
  8
1
 10
295.50681267067182
 20
79.196957301324517
 30
0.0
 40
1.0
 50
0.0000000003126612
 51
90.000000000312653
  0
LINE
  5
3189
  8
1
 10
296.50681267067461
 20
78.696957301329931
 30
0.0
 11
294.00681267067461
 21
78.696957301316345
 31
0.0
  0
LINE
  5
318A
  8
1
 10
294.00681267067461
 20
78.696957301316345
 30
0.0
 11
294.0068126706891
 21
76.196957301316345
 31
0.0
  0
LINE
  5
318B
  8
1
 10
294.0068126706891
 20
76.196957301316345
 30
0.0
 11
294.5068126706891
 21
76.19695730131906
 31
0.0
  0
LINE
  5
318C
  8
1
 10
294.50681267072912
 20
69.44695730131906
 30
0.0
 11
294.50681267080921
 21
55.446957301319053
 31
0.0
  0
LINE
  5
318D
  8
1
 10
291.20681267072621
 20
69.44695730129996
 30
0.0
 11
294.5068126707273
 21
69.44695730131906
 31
0.0
  0
LINE
  5
318E
  8
1
 10
291.20681267080897
 20
41.446957301283597
 30
0.0
 11
294.5068126708083
 21
41.446957301283597
 31
0.0
  0
LINE
  5
318F
  8
1
 10
346.00681267080921
 20
78.594080296479376
 30
0.0
 11
296.4750585072378
 21
78.594080296479376
 31
0.0
  0
LINE
  5
3190
  8
1
 10
345.0068126708091
 20
76.094080296479376
 30
0.0
 11
346.00681267080921
 21
76.094080296479376
 31
0.0
  0
LINE
  5
3191
  8
1
 10
346.00681267080921
 20
76.094080296479376
 30
0.0
 11
346.00681267080921
 21
78.594080296479376
 31
0.0
  0
LINE
  5
3192
  8
1
 10
345.0068126708091
 20
76.094080296479376
 30
0.0
 11
345.0068126708091
 21
77.094080296479376
 31
0.0
  0
LINE
  5
3193
  8
1
 10
345.0068126708091
 20
77.094080296479376
 30
0.0
 11
344.50681267080921
 21
77.0940802964803
 31
0.0
  0
LINE
  5
3194
  8
1
 10
294.50681267080921
 20
77.0940802964803
 30
0.0
 11
294.00681267080921
 21
77.094080296479376
 31
0.0
  0
LINE
  5
3195
  8
1
 10
342.00681267080921
 20
78.594080296479376
 30
0.0
 11
342.00681267080921
 21
81.594080296479376
 31
0.0
  0
LINE
  5
3196
  8
1
 10
342.00681267080921
 20
81.594080296479376
 30
0.0
 11
297.00681267080921
 21
81.594080296479376
 31
0.0
  0
LINE
  5
3197
  8
1
 10
297.00681267080921
 20
81.594080296479376
 30
0.0
 11
297.00681267080921
 21
78.594080296479376
 31
0.0
  0
LINE
  5
3198
  8
1
 10
345.0068126708091
 20
77.094080296479376
 30
0.0
 11
345.0068126708091
 21
78.594080296479376
 31
0.0
  0
LINE
  5
3199
  8
1
 10
91.192860251442511
 20
187.53953290145509
 30
0.0
 11
91.192860251442511
 21
188.039532901455
 31
0.0
  0
LINE
  5
319B
  8
1
 10
90.192860251442525
 20
195.5395329014552
 30
0.0
 11
73.75972968213307
 21
195.5395329014552
 31
0.0
  0
LINE
  5
319C
  8
1
 10
97.192860251442553
 20
187.53953290145509
 30
0.0
 11
97.192860251442553
 21
187.5395329014552
 31
0.0
  0
LINE
  5
319E
  8
1
 10
89.692860251442511
 20
189.539532901455
 30
0.0
 11
68.708394068780649
 21
189.53953290145509
 31
0.0
  0
LINE
  5
319F
  8
1
 10
62.192860251442539
 20
131.53953290145509
 30
0.0
 11
62.192860251442539
 21
137.53953290145509
 31
0.0
  0
LINE
  5
31A1
  8
1
 10
56.192860251442539
 20
133.53953290145509
 30
0.0
 11
56.192860251442539
 21
137.53953290145509
 31
0.0
  0
ARC
  5
31A2
  8
1
 10
52.192860251442539
 20
133.53953290145509
 30
0.0
 40
4.0
 50
270.0
 51
0.0
  0
LINE
  5
31A3
  8
1
 10
62.192860251442539
 20
187.53953290145509
 30
0.0
 11
62.192860251442539
 21
188.03953290145509
 31
0.0
  0
LINE
  5
31A5
  8
1
 10
56.192860251442539
 20
187.53953290145509
 30
0.0
 11
56.192860251442539
 21
187.5395329014552
 31
0.0
  0
LINE
  5
31A7
  8
1
 10
63.192860251442539
 20
195.5395329014552
 30
0.0
 11
73.75972968213307
 21
195.5395329014552
 31
0.0
  0
LINE
  5
31A8
  8
1
 10
63.692860251442539
 20
189.53953290145509
 30
0.0
 11
68.708394068780649
 21
189.53953290145509
 31
0.0
  0
LINE
  5
31A9
  8
1
 10
54.192860251442539
 20
123.5395329014552
 30
0.0
 11
47.387097971371851
 21
123.5395329014552
 31
0.0
  0
LINE
  5
31AA
  8
1
 10
52.192860251442539
 20
129.53953290145509
 30
0.0
 11
49.528028835436878
 21
129.53953290145509
 31
0.0
  0
LINE
  5
31AB
  8
1
 10
50.536233480070102
 20
132.3650458450708
 30
0.0
 11
46.378893326738627
 21
120.7140199578395
 31
0.0
  0
LINE
  5
31AC
  8
1
 10
47.387097971371851
 20
123.5395329014552
 30
0.0
 11
48.457563403404372
 21
126.5395329014552
 31
0.0
  0
LINE
  5
31AD
  8
1
 10
49.101505004902599
 20
132.3650458450708
 30
0.0
 11
44.944164851571117
 21
120.7140199578395
 31
0.0
  0
LINE
  5
31AE
  8
1
 10
294.5068126706891
 20
76.19695730131906
 30
0.0
 11
294.50681267080921
 21
69.44695730131906
 31
0.0
  0
LINE
  5
31AF
  8
1
 10
296.4750585072378
 20
78.594080296479376
 30
0.0
 11
294.00681267067552
 21
78.594080296465734
 31
0.0
  0
LINE
  5
31B0
  8
1
 10
346.00681267080921
 20
32.29983430605688
 30
0.0
 11
296.4750585072378
 21
32.29983430605688
 31
0.0
  0
LINE
  5
31B1
  8
1
 10
345.0068126708091
 20
34.79983430605688
 30
0.0
 11
346.00681267080921
 21
34.79983430605688
 31
0.0
  0
LINE
  5
31B2
  8
1
 10
346.00681267080921
 20
34.79983430605688
 30
0.0
 11
346.00681267080921
 21
32.29983430605688
 31
0.0
  0
LINE
  5
31B3
  8
1
 10
345.0068126708091
 20
34.79983430605688
 30
0.0
 11
345.0068126708091
 21
33.79983430605688
 31
0.0
  0
LINE
  5
31B4
  8
1
 10
345.0068126708091
 20
33.79983430605688
 30
0.0
 11
344.50681267080921
 21
33.799834306055971
 31
0.0
  0
LINE
  5
31B5
  8
1
 10
294.50681267080921
 20
33.799834306055971
 30
0.0
 11
294.00681267080921
 21
33.79983430605688
 31
0.0
  0
LINE
  5
31B6
  8
1
 10
342.00681267080921
 20
32.29983430605688
 30
0.0
 11
342.00681267080921
 21
29.29983430605688
 31
0.0
  0
LINE
  5
31B7
  8
1
 10
342.00681267080921
 20
29.29983430605688
 30
0.0
 11
297.00681267080921
 21
29.29983430605688
 31
0.0
  0
LINE
  5
31B8
  8
1
 10
297.00681267080921
 20
29.29983430605688
 30
0.0
 11
297.00681267080921
 21
32.29983430605688
 31
0.0
  0
LINE
  5
31B9
  8
1
 10
345.0068126708091
 20
33.79983430605688
 30
0.0
 11
345.0068126708091
 21
32.29983430605688
 31
0.0
  0
LINE
  5
31BA
  8
1
 10
296.4750585072378
 20
32.29983430605688
 30
0.0
 11
294.00681267067552
 21
32.299834306070522
 31
0.0
  0
LINE
  5
31C7
  8
CENTER
 10
253.27900814980319
 20
162.53953290145509
 30
0.0
 11
29.907193802739009
 21
162.53953290145509
 31
0.0
  0
LINE
  5
31C8
  8
CENTER
 10
214.2024610969201
 20
154.45063866631941
 30
0.0
 11
214.2024610969201
 21
145.40179330251669
 31
0.0
  0
LINE
  5
31C9
  8
CENTER
 10
232.49286025144269
 20
167.5467931699765
 30
0.0
 11
232.49286025144269
 21
157.5322726329338
 31
0.0
  0
LINE
  5
31CA
  8
CENTER
 10
232.49286025144269
 20
162.53953290145509
 30
0.0
 11
232.49286025144269
 21
162.53953290145509
 31
0.0
  0
LINE
  5
31CD
  8
CENTER
 10
209.45287752436241
 20
150.03953290144329
 30
0.0
 11
218.95204466947769
 21
150.03953290144329
 31
0.0
  0
LINE
  5
31CE
  8
1
 10
244.192860251448
 20
77.946957301268128
 30
0.0
 11
202.192860251448
 21
77.946957301268128
 31
0.0
  0
LINE
  5
31CF
  8
1
 10
96.192860251447996
 20
77.946957301269023
 30
0.0
 11
34.192860251447989
 21
77.946957301268128
 31
0.0
  0
LINE
  5
31D0
  8
1
 10
34.192860251447989
 20
77.946957301268128
 30
0.0
 11
34.192860251447989
 21
58.546957301268492
 31
0.0
  0
LINE
  5
31D1
  8
1
 10
34.192860251447989
 20
32.946957301268128
 30
0.0
 11
96.192860251447996
 21
32.946957301269038
 31
0.0
  0
LINE
  5
31D2
  8
1
 10
202.192860251448
 20
32.946957301269038
 30
0.0
 11
244.192860251448
 21
32.946957301268128
 31
0.0
  0
LINE
  5
31D3
  8
1
 10
244.192860251448
 20
32.946957301268128
 30
0.0
 11
244.192860251448
 21
77.946957301268128
 31
0.0
  0
LINE
  5
31D4
  8
CENTER
 10
253.27900814980859
 20
55.446957301268128
 30
0.0
 11
29.907193802744469
 21
55.446957301268128
 31
0.0
  0
LINE
  5
31D5
  8
1
 10
59.192860251447989
 20
65.03920517872092
 30
0.0
 11
59.192860251447989
 21
47.032218990592519
 31
0.0
  0
LINE
  5
31D6
  8
CENTER
 10
169.192860251448
 20
34.769163087444838
 30
0.0
 11
169.192860251448
 21
76.350894932899479
 31
0.0
  0
LINE
  5
31D7
  8
CENTER
 10
129.192860251448
 20
34.643722668606358
 30
0.0
 11
129.192860251448
 21
76.863268144985071
 31
0.0
  0
LINE
  5
31D8
  8
1
 10
156.1984037410738
 20
65.446957301268128
 30
0.0
 11
142.18731676182219
 21
65.446957301268128
 31
0.0
  0
LINE
  5
31D9
  8
1
 10
156.1984037410738
 20
45.446957301268128
 30
0.0
 11
142.18731676182131
 21
45.446957301267211
 31
0.0
  0
ARC
  5
31DA
  8
1
 10
169.192860251448
 20
50.65695730126815
 30
0.0
 40
13.99999999999908
 50
201.847833672078
 51
20.007482394588411
  0
ARC
  5
31DB
  8
1
 10
129.192860251448
 20
50.65695730126815
 30
0.0
 40
14.0
 50
159.99251760541151
 51
338.15216632792198
  0
ARC
  5
31DC
  8
1
 10
169.192860251448
 20
60.236957301268092
 30
0.0
 40
14.0
 50
339.99251760541171
 51
158.152166327922
  0
ARC
  5
31DD
  8
1
 10
129.192860251448
 20
60.236957301268092
 30
0.0
 40
14.0
 50
21.847833672077961
 51
200.00748239458841
  0
LINE
  5
31DE
  8
1
 10
202.192860251448
 20
33.946957301268128
 30
0.0
 11
202.192860251448
 21
32.946957301269038
 31
0.0
  0
LINE
  5
31DF
  8
1
 10
96.192860251447996
 20
32.946957301268128
 30
0.0
 11
96.192860251447996
 21
33.946957301268128
 31
0.0
  0
LINE
  5
31E0
  8
1
 10
202.19286025144879
 20
76.946957301268128
 30
0.0
 11
202.19286025144879
 21
77.9469573012654
 31
0.0
  0
LINE
  5
31E1
  8
1
 10
96.192860251448863
 20
77.946957301269947
 30
0.0
 11
96.192860251448863
 21
76.946957301268128
 31
0.0
  0
LINE
  5
31E2
  8
1
 10
100.692860251448
 20
78.446957301268114
 30
0.0
 11
106.61786025144811
 21
78.446957301268114
 31
0.0
  0
LINE
  5
31E3
  8
1
 10
121.7678602514478
 20
78.446957301268114
 30
0.0
 11
197.692860251448
 21
78.446957301268114
 31
0.0
  0
LINE
  5
31E4
  8
1
 10
199.192860251448
 20
76.946957301267233
 30
0.0
 11
199.192860251448
 21
75.946957301268114
 31
0.0
  0
LINE
  5
31E5
  8
1
 10
199.192860251448
 20
75.946957301268114
 30
0.0
 11
121.7678602514478
 21
75.946957301268114
 31
0.0
  0
LINE
  5
31E6
  8
1
 10
106.61786025144811
 20
75.946957301268114
 30
0.0
 11
99.192860251447996
 21
75.946957301268114
 31
0.0
  0
LINE
  5
31E7
  8
1
 10
99.192860251447996
 20
75.946957301268114
 30
0.0
 11
99.192860251447996
 21
76.946957301268128
 31
0.0
  0
LINE
  5
31E8
  8
1
 10
99.192860251447996
 20
76.946957301268128
 30
0.0
 11
100.692860251448
 21
78.446957301268114
 31
0.0
  0
LINE
  5
31E9
  8
1
 10
199.192860251448
 20
76.946957301268128
 30
0.0
 11
197.692860251448
 21
78.446957301268114
 31
0.0
  0
LINE
  5
31EA
  8
1
 10
105.192860251448
 20
78.446957301266295
 30
0.0
 11
105.192860251448
 21
80.946957301266295
 31
0.0
  0
LINE
  5
31EB
  8
1
 10
105.192860251448
 20
80.946957301266295
 30
0.0
 11
108.192860251448
 21
80.946957301266295
 31
0.0
  0
LINE
  5
31EC
  8
1
 10
108.192860251448
 20
80.946957301266295
 30
0.0
 11
108.192860251448
 21
80.196957301284513
 31
0.0
  0
LINE
  5
31ED
  8
1
 10
121.4292980792341
 20
79.946957301268128
 30
0.0
 11
184.09286025144851
 21
79.946957301268128
 31
0.0
  0
LINE
  5
31EE
  8
1
 10
185.59286025144851
 20
78.446957301268114
 30
0.0
 11
184.09286025144851
 21
79.946957301268128
 31
0.0
  0
LINE
  5
31EF
  8
1
 10
199.192860251448
 20
76.946957301268128
 30
0.0
 11
202.0928602514476
 21
76.946957301268128
 31
0.0
  0
LINE
  5
31F0
  8
1
 10
202.0928602514476
 20
76.946957301268128
 30
0.0
 11
202.0928602514476
 21
73.046957301267582
 31
0.0
  0
LINE
  5
31F1
  8
1
 10
199.192860251448
 20
70.146957301267932
 30
0.0
 11
199.19286025144709
 21
70.146957301267932
 31
0.0
  0
ARC
  5
31F2
  8
1
 10
199.192860251448
 20
73.046957301267582
 30
0.0
 40
2.8999999999999999
 50
270.0
 51
0.0
  0
ARC
  5
31F3
  8
1
 10
199.19286025144709
 20
73.046957301267582
 30
0.0
 40
2.8999999999999999
 50
180.0
 51
270.0
  0
LINE
  5
31F4
  8
1
 10
196.29286025144731
 20
73.046957301267582
 30
0.0
 11
196.29286025144731
 21
75.946957301268114
 31
0.0
  0
LINE
  5
31F5
  8
1
 10
196.04286025144731
 20
75.946957301268114
 30
0.0
 11
196.04286025144731
 21
73.046957301268506
 31
0.0
  0
LINE
  5
31F6
  8
1
 10
196.04286025144731
 20
73.046957301268506
 30
0.0
 11
196.29286025144731
 21
73.046957301267582
 31
0.0
  0
LINE
  5
31F7
  8
1
 10
202.0928602514476
 20
76.946957301268128
 30
0.0
 11
202.3428602514476
 21
76.946957301268128
 31
0.0
  0
LINE
  5
31F8
  8
1
 10
202.3428602514476
 20
76.946957301268128
 30
0.0
 11
202.3428602514476
 21
74.046957301268506
 31
0.0
  0
LINE
  5
31F9
  8
1
 10
202.3428602514476
 20
74.046957301268506
 30
0.0
 11
202.3428602514476
 21
73.046957301267582
 31
0.0
  0
LINE
  5
31FA
  8
1
 10
202.3428602514476
 20
73.046957301267582
 30
0.0
 11
202.0928602514476
 21
73.046957301267582
 31
0.0
  0
LINE
  5
31FB
  8
1
 10
99.192860251447996
 20
76.946957301268128
 30
0.0
 11
96.29286025144836
 21
76.946957301268128
 31
0.0
  0
LINE
  5
31FC
  8
1
 10
96.29286025144836
 20
76.946957301268128
 30
0.0
 11
96.29286025144836
 21
73.046957301267582
 31
0.0
  0
LINE
  5
31FD
  8
1
 10
99.192860251447996
 20
70.146957301267932
 30
0.0
 11
99.192860251448906
 21
70.146957301267932
 31
0.0
  0
ARC
  5
31FE
  8
1
 10
99.192860251447996
 20
73.046957301267582
 30
0.0
 40
2.8999999999999999
 50
180.0
 51
270.0
  0
ARC
  5
31FF
  8
1
 10
99.192860251448906
 20
73.046957301267582
 30
0.0
 40
2.8999999999999999
 50
270.0
 51
0.0
  0
LINE
  5
3200
  8
1
 10
102.0928602514485
 20
73.046957301267582
 30
0.0
 11
102.0928602514485
 21
75.946957301268114
 31
0.0
  0
LINE
  5
3201
  8
1
 10
102.3428602514485
 20
75.946957301268114
 30
0.0
 11
102.3428602514485
 21
73.046957301268506
 31
0.0
  0
LINE
  5
3202
  8
1
 10
102.3428602514485
 20
73.046957301268506
 30
0.0
 11
102.0928602514485
 21
73.046957301267582
 31
0.0
  0
LINE
  5
3203
  8
1
 10
96.29286025144836
 20
76.946957301268128
 30
0.0
 11
96.042860251448374
 21
76.946957301268128
 31
0.0
  0
LINE
  5
3204
  8
1
 10
96.042860251448374
 20
76.946957301268128
 30
0.0
 11
96.042860251448374
 21
74.046957301268506
 31
0.0
  0
LINE
  5
3205
  8
1
 10
96.042860251448374
 20
74.046957301268506
 30
0.0
 11
96.042860251448374
 21
73.046957301267582
 31
0.0
  0
LINE
  5
3206
  8
1
 10
96.042860251448374
 20
73.046957301267582
 30
0.0
 11
96.29286025144836
 21
73.046957301267582
 31
0.0
  0
LINE
  5
3207
  8
1
 10
193.192860251448
 20
78.446957301266295
 30
0.0
 11
193.192860251448
 21
80.946957301266295
 31
0.0
  0
LINE
  5
3208
  8
1
 10
193.192860251448
 20
80.946957301266295
 30
0.0
 11
190.192860251448
 21
80.946957301266295
 31
0.0
  0
LINE
  5
3209
  8
1
 10
190.192860251448
 20
80.946957301266295
 30
0.0
 11
190.192860251448
 21
78.446957301266295
 31
0.0
  0
LINE
  5
320A
  8
1
 10
100.692860251448
 20
32.446957301268128
 30
0.0
 11
106.61786025144811
 21
32.446957301268128
 31
0.0
  0
LINE
  5
320B
  8
1
 10
121.7678602514478
 20
32.446957301268128
 30
0.0
 11
197.692860251448
 21
32.446957301268128
 31
0.0
  0
LINE
  5
320C
  8
1
 10
199.192860251448
 20
33.946957301269038
 30
0.0
 11
199.192860251448
 21
34.946957301268128
 31
0.0
  0
LINE
  5
320D
  8
1
 10
199.192860251448
 20
34.946957301268128
 30
0.0
 11
121.7678602514478
 21
34.946957301268128
 31
0.0
  0
LINE
  5
320E
  8
1
 10
106.61786025144811
 20
34.946957301268128
 30
0.0
 11
99.192860251447996
 21
34.946957301268128
 31
0.0
  0
LINE
  5
320F
  8
1
 10
99.192860251447996
 20
34.946957301268128
 30
0.0
 11
99.192860251447996
 21
33.946957301268128
 31
0.0
  0
LINE
  5
3210
  8
1
 10
99.192860251447996
 20
33.946957301268128
 30
0.0
 11
100.692860251448
 21
32.446957301268128
 31
0.0
  0
LINE
  5
3211
  8
1
 10
199.192860251448
 20
33.946957301268128
 30
0.0
 11
197.692860251448
 21
32.446957301268128
 31
0.0
  0
LINE
  5
3212
  8
1
 10
105.192860251448
 20
32.446957301269947
 30
0.0
 11
105.192860251448
 21
29.946957301269951
 31
0.0
  0
LINE
  5
3213
  8
1
 10
105.192860251448
 20
29.946957301269951
 30
0.0
 11
108.192860251448
 21
29.946957301269951
 31
0.0
  0
LINE
  5
3214
  8
1
 10
108.192860251448
 20
29.946957301269951
 30
0.0
 11
108.192860251448
 21
30.696957301250858
 31
0.0
  0
LINE
  5
3215
  8
1
 10
121.4292980792341
 20
30.946957301268132
 30
0.0
 11
184.09286025144851
 21
30.946957301268132
 31
0.0
  0
LINE
  5
3216
  8
1
 10
185.59286025144851
 20
32.446957301268128
 30
0.0
 11
184.09286025144851
 21
30.946957301268132
 31
0.0
  0
LINE
  5
3217
  8
1
 10
199.192860251448
 20
33.946957301268128
 30
0.0
 11
202.0928602514476
 21
33.946957301268128
 31
0.0
  0
LINE
  5
3218
  8
1
 10
202.0928602514476
 20
33.946957301268128
 30
0.0
 11
202.0928602514476
 21
37.846957301268667
 31
0.0
  0
LINE
  5
3219
  8
1
 10
199.192860251448
 20
40.74695730126831
 30
0.0
 11
199.19286025144709
 21
40.74695730126831
 31
0.0
  0
ARC
  5
321A
  8
1
 10
199.192860251448
 20
37.846957301268667
 30
0.0
 40
2.8999999999999999
 50
0.0
 51
90.0
  0
ARC
  5
321B
  8
1
 10
199.19286025144709
 20
37.846957301268667
 30
0.0
 40
2.8999999999999999
 50
90.0
 51
180.0
  0
LINE
  5
321C
  8
1
 10
196.29286025144731
 20
37.846957301268667
 30
0.0
 11
196.29286025144731
 21
34.946957301268128
 31
0.0
  0
LINE
  5
321D
  8
1
 10
196.04286025144731
 20
34.946957301268128
 30
0.0
 11
196.04286025144731
 21
37.846957301267757
 31
0.0
  0
LINE
  5
321E
  8
1
 10
196.04286025144731
 20
37.846957301267757
 30
0.0
 11
196.29286025144731
 21
37.846957301268667
 31
0.0
  0
LINE
  5
321F
  8
1
 10
202.0928602514476
 20
33.946957301268128
 30
0.0
 11
202.3428602514476
 21
33.946957301268128
 31
0.0
  0
LINE
  5
3220
  8
1
 10
202.3428602514476
 20
33.946957301268128
 30
0.0
 11
202.3428602514476
 21
36.846957301267757
 31
0.0
  0
LINE
  5
3221
  8
1
 10
202.3428602514476
 20
36.846957301267757
 30
0.0
 11
202.3428602514476
 21
37.846957301268667
 31
0.0
  0
LINE
  5
3222
  8
1
 10
202.3428602514476
 20
37.846957301268667
 30
0.0
 11
202.0928602514476
 21
37.846957301268667
 31
0.0
  0
LINE
  5
3223
  8
1
 10
99.192860251447996
 20
33.946957301268128
 30
0.0
 11
96.29286025144836
 21
33.946957301268128
 31
0.0
  0
LINE
  5
3224
  8
1
 10
96.29286025144836
 20
33.946957301268128
 30
0.0
 11
96.29286025144836
 21
37.846957301268667
 31
0.0
  0
LINE
  5
3225
  8
1
 10
99.192860251447996
 20
40.74695730126831
 30
0.0
 11
99.192860251448906
 21
40.74695730126831
 31
0.0
  0
ARC
  5
3226
  8
1
 10
99.192860251447996
 20
37.846957301268667
 30
0.0
 40
2.8999999999999999
 50
90.0
 51
180.0
  0
ARC
  5
3227
  8
1
 10
99.192860251448906
 20
37.846957301268667
 30
0.0
 40
2.8999999999999999
 50
0.0
 51
90.0
  0
LINE
  5
3228
  8
1
 10
102.0928602514485
 20
37.846957301268667
 30
0.0
 11
102.0928602514485
 21
34.946957301268128
 31
0.0
  0
LINE
  5
3229
  8
1
 10
102.3428602514485
 20
34.946957301268128
 30
0.0
 11
102.3428602514485
 21
37.846957301267757
 31
0.0
  0
LINE
  5
322A
  8
1
 10
102.3428602514485
 20
37.846957301267757
 30
0.0
 11
102.0928602514485
 21
37.846957301268667
 31
0.0
  0
LINE
  5
322B
  8
1
 10
96.29286025144836
 20
33.946957301268128
 30
0.0
 11
96.042860251448374
 21
33.946957301268128
 31
0.0
  0
LINE
  5
322C
  8
1
 10
96.042860251448374
 20
33.946957301268128
 30
0.0
 11
96.042860251448374
 21
36.846957301267757
 31
0.0
  0
LINE
  5
322D
  8
1
 10
96.042860251448374
 20
36.846957301267757
 30
0.0
 11
96.042860251448374
 21
37.846957301268667
 31
0.0
  0
LINE
  5
322E
  8
1
 10
96.042860251448374
 20
37.846957301268667
 30
0.0
 11
96.29286025144836
 21
37.846957301268667
 31
0.0
  0
LINE
  5
322F
  8
1
 10
193.192860251448
 20
32.446957301269947
 30
0.0
 11
193.192860251448
 21
29.946957301269951
 31
0.0
  0
LINE
  5
3230
  8
1
 10
193.192860251448
 20
29.946957301269951
 30
0.0
 11
190.192860251448
 21
29.946957301269951
 31
0.0
  0
LINE
  5
3231
  8
1
 10
190.192860251448
 20
29.946957301269951
 30
0.0
 11
190.192860251448
 21
32.446957301269947
 31
0.0
  0
LINE
  5
3232
  8
1
 10
121.7678602514478
 20
75.196957301285408
 30
0.0
 11
116.9574158202584
 21
69.464092868439991
 31
0.0
  0
ARC
  5
3233
  8
1
 10
124.6178602514472
 20
63.03621677157448
 30
0.0
 40
9.9999999999993072
 50
140.000000000044
 51
180.0
  0
LINE
  5
3234
  8
1
 10
114.61786025144821
 20
63.03621677157448
 30
0.0
 11
114.61786025144821
 21
43.446957301268121
 31
0.0
  0
ARC
  5
3235
  8
1
 10
112.61786025144811
 20
43.446957301268121
 30
0.0
 40
2.0
 50
270.0
 51
0.0
  0
LINE
  5
3236
  8
1
 10
112.61786025144811
 20
41.4469573012681
 30
0.0
 11
88.617860251448192
 21
41.4469573012681
 31
0.0
  0
ARC
  5
3237
  8
1
 10
88.617860251448192
 20
43.446957301268121
 30
0.0
 40
2.0
 50
180.0
 51
270.0
  0
LINE
  5
3238
  8
1
 10
86.617860251448178
 20
43.446957301268121
 30
0.0
 11
86.617860251448178
 21
67.446957301268128
 31
0.0
  0
ARC
  5
3239
  8
1
 10
88.617860251448192
 20
67.446957301268128
 30
0.0
 40
2.0
 50
90.0
 51
180.0
  0
LINE
  5
323A
  8
1
 10
88.617860251448192
 20
69.446957301268128
 30
0.0
 11
96.725724627699336
 21
69.446957301268128
 31
0.0
  0
ARC
  5
323B
  8
1
 10
96.725724627700288
 20
79.446957301268128
 30
0.0
 40
10.0
 50
270.0
 51
314.99999999999989
  0
LINE
  5
323C
  8
1
 10
103.796792439565
 20
72.375889489402368
 30
0.0
 11
106.61786025144811
 21
75.196957301285408
 31
0.0
  0
LINE
  5
323E
  8
1
 10
120.7678602514478
 20
80.196957301285408
 30
0.0
 11
107.61786025144811
 21
80.196957301285408
 31
0.0
  0
ARC
  5
323F
  8
1
 10
120.7678602514478
 20
79.196957301285408
 30
0.0
 40
1.0
 50
0.0
 51
90.0
  0
LINE
  5
3240
  8
1
 10
121.7678602514478
 20
79.196957301285408
 30
0.0
 11
121.7678602514478
 21
75.196957301285408
 31
0.0
  0
LINE
  5
3241
  8
1
 10
106.61786025144811
 20
79.196957301285408
 30
0.0
 11
106.61786025144811
 21
75.196957301285408
 31
0.0
  0
ARC
  5
3242
  8
1
 10
107.61786025144811
 20
79.196957301285408
 30
0.0
 40
1.0
 50
90.0
 51
180.0
  0
LINE
  5
3243
  8
1
 10
96.725724627699336
 20
69.446957301268128
 30
0.0
 11
112.61786025144811
 21
69.446957301268128
 31
0.0
  0
ARC
  5
3244
  8
1
 10
112.61786025144811
 20
67.446957301268128
 30
0.0
 40
2.0
 50
0.0
 51
90.0
  0
LINE
  5
3245
  8
1
 10
114.61786025144821
 20
67.446957301268128
 30
0.0
 11
114.61786025144821
 21
63.03621677157448
 31
0.0
  0
LINE
  5
3246
  8
1
 10
121.7678602514478
 20
35.696957301250869
 30
0.0
 11
116.9574158202584
 21
41.429821734096272
 31
0.0
  0
ARC
  5
3247
  8
1
 10
124.6178602514472
 20
47.857697830961719
 30
0.0
 40
9.9999999999993072
 50
180.0
 51
219.99999999995561
  0
ARC
  5
3248
  8
1
 10
96.725724627700288
 20
31.446957301268132
 30
0.0
 40
10.0
 50
44.999999999999957
 51
90.0
  0
LINE
  5
3249
  8
1
 10
103.796792439565
 20
38.518025113133888
 30
0.0
 11
106.61786025144811
 21
35.696957301250869
 31
0.0
  0
LINE
  5
324A
  8
1
 10
120.7678602514478
 20
30.696957301250858
 30
0.0
 11
107.61786025144811
 21
30.696957301250858
 31
0.0
  0
ARC
  5
324B
  8
1
 10
120.7678602514478
 20
31.696957301250858
 30
0.0
 40
1.0
 50
270.0
 51
0.0
  0
LINE
  5
324C
  8
1
 10
121.7678602514478
 20
31.696957301250858
 30
0.0
 11
121.7678602514478
 21
35.696957301250869
 31
0.0
  0
LINE
  5
324D
  8
1
 10
106.61786025144811
 20
31.696957301250858
 30
0.0
 11
106.61786025144811
 21
35.696957301250869
 31
0.0
  0
ARC
  5
324E
  8
1
 10
107.61786025144811
 20
31.696957301250858
 30
0.0
 40
1.0
 50
180.0
 51
270.0
  0
LINE
  5
324F
  8
1
 10
59.192860251447989
 20
65.03920517872092
 30
0.0
 11
59.192860251447989
 21
47.032218990592519
 31
0.0
  0
ARC
  5
3250
  8
1
 10
59.192860251447989
 20
55.446957301268128
 30
0.0
 40
3.1000000000000001
 50
270.0
 51
90.0
  0
LINE
  5
3251
  8
1
 10
59.192860251447989
 20
58.546957301268492
 30
0.0
 11
25.70009893132907
 21
58.546957301268492
 31
0.0
  0
LINE
  5
3252
  8
1
 10
59.192860251447989
 20
52.346957301267778
 30
0.0
 11
23.523485886196671
 21
52.446957301268128
 31
0.0
  0
LINE
  5
3253
  8
1
 10
26.672621394894911
 20
61.272470244883777
 30
0.0
 11
22.51528124156345
 21
49.621444357652472
 31
0.0
  0
LINE
  5
3254
  8
1
 10
23.523485886196671
 20
52.446957301268128
 30
0.0
 11
24.59395131822918
 21
55.446957301268128
 31
0.0
  0
LINE
  5
3255
  8
1
 10
25.237892919727411
 20
61.272470244883777
 30
0.0
 11
21.08055276639595
 21
49.621444357652472
 31
0.0
  0
ARC
  5
3445
  8
1
 10
54.192860251442539
 20
131.53953290145509
 30
0.0
 40
8.0
 50
270.0
 51
0.0
  0
LINE
  5
38F2
  8
1
 10
34.192860251447989
 20
52.417045438346072
 30
0.0
 11
34.192860251447989
 21
32.946957301268128
 31
0.0
  0
LINE
  5
3AFD
  8
1
 10
56.192860251442539
 20
187.53953290145509
 30
0.0
 11
56.192860251442539
 21
188.5395329014552
 31
0.0
  0
LINE
  5
3AFE
  8
1
 10
97.192860251442511
 20
187.53953290145509
 30
0.0
 11
97.192860251442511
 21
188.5395329014552
 31
0.0
  0
ARC
  5
3B02
  8
1
 10
63.692860251442539
 20
188.03953290145509
 30
0.0
 40
1.5
 50
90.0
 51
179.9999999999998
  0
ARC
  5
3B03
  8
1
 10
63.192860251442539
 20
188.5395329014552
 30
0.0
 40
7.0
 50
90.0
 51
180.0
  0
ARC
  5
3B04
  8
1
 10
90.192860251442525
 20
188.5395329014552
 30
0.0
 40
7.0
 50
359.99999999999989
 51
90.0
  0
ARC
  5
3B05
  8
1
 10
89.692860251442511
 20
188.039532901455
 30
0.0
 40
1.5
 50
0.0000000000004071
 51
89.999999999999915
  0
VIEWPORT
  5
1403
 67
     1
  8
0
 10
211.1125709216453
 20
189.23500069648171
 30
0.0
 40
520.69740825145118
 41
424.034607335028
 68
     1
 69
     1
1001
ACAD
1000
MVIEW
1002
{
1070
    16
1010
0.0
1020
0.0
1030
0.0
1010
0.0
1020
0.0
1030
1.0
1040
0.0
1040
424.034607335028
1040
211.1125709216453
1040
189.23500069648171
1040
50.0
1040
0.0
1040
0.0
1070
     0
1070
   100
1070
     1
1070
     0
1070
     0
1070
     0
1070
     0
1070
     0
1040
0.0
1040
0.0
1040
0.0
1040
1.0
1040
1.0
1040
10.0
1040
10.0
1070
     0
1002
{
1002
}
1002
}
  0
VIEWPORT
  5
1404
 67
     1
  8
DEFPOINTS
 10
212.5
 20
144.4999999999998
 30
0.0
 40
385.0
 41
264.99999999999989
 68
     2
 69
     2
1001
ACAD
1000
MVIEW
1002
{
1070
    16
1010
0.0
1020
0.0
1030
0.0
1010
0.0
1020
0.0
1030
1.0
1040
0.0
1040
264.99999999999989
1040
5000.0
1040
5000.0
1040
50.0
1040
0.0
1040
0.0
1070
     0
1070
   100
1070
     1
1070
     0
1070
     0
1070
     0
1070
     0
1070
     1
1040
0.0
1040
0.0
1040
0.0
1040
168.0
1040
168.0
1040
0.0
1040
0.0
1070
     0
1002
{
1002
}
1002
}
  0
VIEWPORT
  5
1462
 67
     1
  8
DEFPOINTS
 10
212.49999999999989
 20
144.4999999999998
 30
0.0
 40
384.99999999999977
 41
265.0
 68
     3
 69
     3
1001
ACAD
1000
MVIEW
1002
{
1070
    16
1010
0.0
1020
0.0
1030
0.0
1010
0.0
1020
0.0
1030
1.0
1040
0.0
1040
215.2989965031114
1040
120.6987180836561
1040
92.318345776788505
1040
50.0
1040
0.0
1040
0.0
1070
     0
1070
   100
1070
     1
1070
     0
1070
     0
1070
     0
1070
     0
1070
     1
1040
0.0
1040
0.0
1040
0.0
1040
168.0
1040
168.0
1040
0.0
1040
0.0
1070
     0
1002
{
1002
}
1002
}
  0
ENDSEC
  0
EOF
