  0
SECTION
  2
HEADER
  9
$ACADVER
  1
AC1009
  9
$INSBASE
 10
0.0
 20
0.0
 30
0.0
  9
$EXTMIN
 10
75.0
 20
130.50000000013949
 30
-0.00000001
  9
$EXTMAX
 10
376.49480159556941
 20
319.00000000000011
 30
0.00000001
  9
$LIMMIN
 10
0.0
 20
0.0
  9
$LIMMAX
 10
10000.0
 20
10000.0
  9
$ORTHOMODE
 70
     1
  9
$REGENMODE
 70
     1
  9
$FILLMODE
 70
     1
  9
$QTEXTMODE
 70
     0
  9
$MIRRTEXT
 70
     1
  9
$DRAGMODE
 70
     2
  9
$LTSCALE
 40
33.670033670033661
  9
$OSMODE
 70
    32
  9
$ATTMODE
 70
     1
  9
$TEXTSIZE
 40
2.7999999999999989
  9
$TRACEWID
 40
1.0
  9
$TEXTSTYLE
  7
AD-STANDARD
  9
$CLAYER
  8
1
  9
$CELTYPE
  6
BYLAYER
  9
$CECOLOR
 62
   256
  9
$DIMSCALE
 40
1.0
  9
$DIMASZ
 40
2.5
  9
$DIMEXO
 40
1.0
  9
$DIMDLI
 40
0.38
  9
$DIMRND
 40
0.0
  9
$DIMDLE
 40
0.0
  9
$DIMEXE
 40
2.0
  9
$DIMTP
 40
0.15
  9
$DIMTM
 40
0.15
  9
$DIMTXT
 40
3.5
  9
$DIMCEN
 40
-2.0
  9
$DIMTSZ
 40
0.0
  9
$DIMTOL
 70
     1
  9
$DIMLIM
 70
     0
  9
$DIMTIH
 70
     0
  9
$DIMTOH
 70
     0
  9
$DIMSE1
 70
     0
  9
$DIMSE2
 70
     0
  9
$DIMTAD
 70
     1
  9
$DIMZIN
 70
     8
  9
$DIMBLK
  1

  9
$DIMASO
 70
     1
  9
$DIMSHO
 70
     1
  9
$DIMPOST
  1

  9
$DIMAPOST
  1

  9
$DIMALT
 70
     0
  9
$DIMALTD
 70
     2
  9
$DIMALTF
 40
25.399999999999999
  9
$DIMLFAC
 40
1.0
  9
$DIMTOFL
 70
     1
  9
$DIMTVP
 40
0.0
  9
$DIMTIX
 70
     0
  9
$DIMSOXD
 70
     0
  9
$DIMSAH
 70
     0
  9
$DIMBLK1
  1

  9
$DIMBLK2
  1

  9
$DIMSTYLE
  2
AD-STANDARD
  9
$DIMCLRD
 70
     8
  9
$DIMCLRE
 70
     8
  9
$DIMCLRT
 70
     2
  9
$DIMTFAC
 40
0.7
  9
$DIMGAP
 40
0.5
  9
$LUNITS
 70
     2
  9
$LUPREC
 70
     4
  9
$SKETCHINC
 40
1.0
  9
$FILLETRAD
 40
2.0
  9
$AUNITS
 70
     0
  9
$AUPREC
 70
     0
  9
$MENU
  1
.
  9
$ELEVATION
 40
0.0
  9
$PELEVATION
 40
0.0
  9
$THICKNESS
 40
0.0
  9
$LIMCHECK
 70
     0
  9
$BLIPMODE
 70
     0
  9
$CHAMFERA
 40
0.0
  9
$CHAMFERB
 40
0.0
  9
$SKPOLY
 70
     0
  9
$TDCREATE
 40
2450492.6330531249
  9
$TDUPDATE
 40
2453973.865455451
  9
$TDINDWG
 40
0.7720454051
  9
$TDUSRTIMER
 40
0.7720454051
  9
$USRTIMER
 70
     1
  9
$ANGBASE
 50
0.0
  9
$ANGDIR
 70
     0
  9
$PDMODE
 70
     0
  9
$PDSIZE
 40
0.0
  9
$PLINEWID
 40
0.0
  9
$COORDS
 70
     1
  9
$SPLFRAME
 70
     0
  9
$SPLINETYPE
 70
     6
  9
$SPLINESEGS
 70
     8
  9
$ATTDIA
 70
     0
  9
$ATTREQ
 70
     1
  9
$HANDLING
 70
 10241
  9
$HANDSEED
  5
B1D
  9
$SURFTAB1
 70
     6
  9
$SURFTAB2
 70
     6
  9
$SURFTYPE
 70
     6
  9
$SURFU
 70
     6
  9
$SURFV
 70
     6
  9
$UCSNAME
  2

  9
$UCSORG
 10
0.0
 20
0.0
 30
0.0
  9
$UCSXDIR
 10
1.0
 20
0.0
 30
0.0
  9
$UCSYDIR
 10
0.0
 20
1.0
 30
0.0
  9
$PUCSNAME
  2

  9
$PUCSORG
 10
0.0
 20
0.0
 30
0.0
  9
$PUCSXDIR
 10
1.0
 20
0.0
 30
0.0
  9
$PUCSYDIR
 10
0.0
 20
1.0
 30
0.0
  9
$USERI1
 70
     0
  9
$USERI2
 70
     0
  9
$USERI3
 70
     0
  9
$USERI4
 70
     0
  9
$USERI5
 70
     0
  9
$USERR1
 40
0.0
  9
$USERR2
 40
0.0
  9
$USERR3
 40
0.0
  9
$USERR4
 40
0.0
  9
$USERR5
 40
0.0
  9
$WORLDVIEW
 70
     1
  9
$SHADEDGE
 70
     3
  9
$SHADEDIF
 70
    70
  9
$TILEMODE
 70
     1
  9
$MAXACTVP
 70
    16
  9
$PLIMCHECK
 70
     0
  9
$PEXTMIN
 10
20.0
 20
17.0
 30
0.0
  9
$PEXTMAX
 10
405.0
 20
281.99999999999989
 30
0.0
  9
$PLIMMIN
 10
-5.789093017578125
 20
-5.8314166069030762
  9
$PLIMMAX
 10
414.19989013671869
 20
291.13690614700312
  9
$UNITMODE
 70
     0
  9
$VISRETAIN
 70
     0
  9
$PLINEGEN
 70
     0
  9
$PSLTSCALE
 70
     1
  0
ENDSEC
  0
SECTION
  2
TABLES
  0
TABLE
  2
VPORT
 70
     1
  0
VPORT
  2
*ACTIVE
 70
     0
 10
0.0
 20
0.0
 11
1.0
 21
1.0
 12
219.85381763787919
 22
227.86014418421109
 13
0.0
 23
0.0
 14
0.5
 24
0.5
 15
5.0
 25
5.0
 16
0.0
 26
0.0
 36
1.0
 17
0.0
 27
0.0
 37
0.0
 40
371.63981851992179
 41
1.6020806241872561
 42
50.0
 43
0.0
 44
0.0
 50
0.0
 51
0.0
 71
     0
 72
   100
 73
     1
 74
     0
 75
     0
 76
     0
 77
     0
 78
     1
  0
ENDTAB
  0
TABLE
  2
LTYPE
 70
     3
  0
LTYPE
  2
CONTINUOUS
 70
     0
  3
Solid line
 72
    65
 73
     0
 40
0.0
  0
LTYPE
  2
CENTER
 70
     0
  3
____ _ ____ _ ____ _ ____ _ ____ _ ____ _ ____ 
 72
    65
 73
     4
 40
2.0
 49
1.25
 49
-0.25
 49
0.25
 49
-0.25
  0
LTYPE
  2
HIDDEN
 70
     0
  3
__ __ __ __ __ __ __ __ __ __ __ __ __ __ __ __
 72
    65
 73
     2
 40
0.375
 49
0.25
 49
-0.125
  0
ENDTAB
  0
TABLE
  2
LAYER
 70
     3
  0
LAYER
  2
0
 70
     0
 62
     7
  6
CONTINUOUS
  0
LAYER
  2
CENTER
 70
     0
 62
     8
  6
CENTER
  0
LAYER
  2
1
 70
     0
 62
     7
  6
CONTINUOUS
  0
ENDTAB
  0
TABLE
  2
STYLE
 70
     2
  0
STYLE
  2
STANDARD
 70
     0
 40
0.0
 41
0.8
 50
0.0
 71
     0
 42
84.175084175084166
  3
TXT
  4
Bigfont.shx
  0
STYLE
  2
AD-STANDARD
 70
     0
 40
0.0
 41
0.8
 50
0.0
 71
     0
 42
2.7999999999999989
  3
romans.shx
  4
Bigfont.shx
  0
ENDTAB
  0
TABLE
  2
VIEW
 70
     0
  0
ENDTAB
  0
TABLE
  2
UCS
 70
     0
  0
ENDTAB
  0
TABLE
  2
APPID
 70
     1
  0
APPID
  2
ACAD
 70
     0
  0
ENDTAB
  0
TABLE
  2
DIMSTYLE
 70
     1
  0
DIMSTYLE
  2
AD-STANDARD
 70
     0
  3

  4

  5

  6

  7

 40
5.0
 41
2.5
 42
0.5
 43
0.38
 44
1.0
 45
0.0
 46
0.0
 47
0.0
 48
0.0
140
3.5
141
-2.0
142
0.0
143
25.399999999999999
144
1.0
145
0.0
146
1.0
147
0.5
 71
     0
 72
     0
 73
     0
 74
     0
 75
     0
 76
     0
 77
     1
 78
     8
170
     0
171
     2
172
     1
173
     0
174
     0
175
     0
176
     8
177
     8
178
     2
  0
ENDTAB
  0
ENDSEC
  0
SECTION
  2
BLOCKS
  0
BLOCK
  8
0
  2
$MODEL_SPACE
 70
     0
 10
0.0
 20
0.0
 30
0.0
  3
$MODEL_SPACE
  1

  0
ENDBLK
  5
B
  8
0
  0
BLOCK
 67
     1
  8
0
  2
$PAPER_SPACE
 70
     0
 10
0.0
 20
0.0
 30
0.0
  3
$PAPER_SPACE
  1

  0
ENDBLK
  5
12
 67
     1
  8
0
  0
ENDSEC
  0
SECTION
  2
ENTITIES
  0
POLYLINE
  8
1
  5
271
  66
     1
 10
0.000000
 20
0.000000
 30
0.000000
  70
     8
  0
VERTEX
  8
1
  5
272
 10
102.900
 20
190.068
 30
0.000000
  70
    32
  0
VERTEX
  8
1
  5
273
 10
102.909
 20
190.062
 30
0.000000
  70
    32
  0
VERTEX
  8
1
  5
274
 10
102.918
 20
190.055
 30
0.000000
  70
    32
  0
VERTEX
  8
1
  5
275
 10
102.926
 20
190.048
 30
0.000000
  70
    32
  0
VERTEX
  8
1
  5
276
 10
102.935
 20
190.042
 30
0.000000
  70
    32
  0
VERTEX
  8
1
  5
277
 10
102.944
 20
190.035
 30
0.000000
  70
    32
  0
VERTEX
  8
1
  5
278
 10
102.952
 20
190.028
 30
0.000000
  70
    32
  0
VERTEX
  8
1
  5
279
 10
102.961
 20
190.022
 30
0.000000
  70
    32
  0
VERTEX
  8
1
  5
27A
 10
102.970
 20
190.015
 30
0.000000
  70
    32
  0
VERTEX
  8
1
  5
27B
 10
102.978
 20
190.008
 30
0.000000
  70
    32
  0
VERTEX
  8
1
  5
27C
 10
102.987
 20
190.001
 30
0.000000
  70
    32
  0
VERTEX
  8
1
  5
27D
 10
102.996
 20
189.994
 30
0.000000
  70
    32
  0
VERTEX
  8
1
  5
27E
 10
103.004
 20
189.987
 30
0.000000
  70
    32
  0
VERTEX
  8
1
  5
27F
 10
103.013
 20
189.980
 30
0.000000
  70
    32
  0
VERTEX
  8
1
  5
280
 10
103.021
 20
189.973
 30
0.000000
  70
    32
  0
VERTEX
  8
1
  5
281
 10
103.030
 20
189.966
 30
0.000000
  70
    32
  0
VERTEX
  8
1
  5
282
 10
103.038
 20
189.959
 30
0.000000
  70
    32
  0
VERTEX
  8
1
  5
283
 10
103.047
 20
189.952
 30
0.000000
  70
    32
  0
VERTEX
  8
1
  5
284
 10
103.055
 20
189.945
 30
0.000000
  70
    32
  0
VERTEX
  8
1
  5
285
 10
103.064
 20
189.937
 30
0.000000
  70
    32
  0
VERTEX
  8
1
  5
286
 10
103.072
 20
189.930
 30
0.000000
  70
    32
  0
VERTEX
  8
1
  5
287
 10
103.080
 20
189.923
 30
0.000000
  70
    32
  0
VERTEX
  8
1
  5
288
 10
103.089
 20
189.915
 30
0.000000
  70
    32
  0
VERTEX
  8
1
  5
289
 10
103.097
 20
189.908
 30
0.000000
  70
    32
  0
VERTEX
  8
1
  5
28A
 10
103.105
 20
189.901
 30
0.000000
  70
    32
  0
VERTEX
  8
1
  5
28B
 10
103.114
 20
189.893
 30
0.000000
  70
    32
  0
VERTEX
  8
1
  5
28C
 10
103.122
 20
189.886
 30
0.000000
  70
    32
  0
VERTEX
  8
1
  5
28D
 10
103.130
 20
189.878
 30
0.000000
  70
    32
  0
VERTEX
  8
1
  5
28E
 10
103.139
 20
189.870
 30
0.000000
  70
    32
  0
VERTEX
  8
1
  5
28F
 10
103.147
 20
189.863
 30
0.000000
  70
    32
  0
VERTEX
  8
1
  5
290
 10
103.155
 20
189.855
 30
0.000000
  70
    32
  0
VERTEX
  8
1
  5
291
 10
103.163
 20
189.848
 30
0.000000
  70
    32
  0
VERTEX
  8
1
  5
292
 10
103.172
 20
189.840
 30
0.000000
  70
    32
  0
VERTEX
  8
1
  5
293
 10
103.180
 20
189.832
 30
0.000000
  70
    32
  0
VERTEX
  8
1
  5
294
 10
103.188
 20
189.824
 30
0.000000
  70
    32
  0
VERTEX
  8
1
  5
295
 10
103.196
 20
189.816
 30
0.000000
  70
    32
  0
VERTEX
  8
1
  5
296
 10
103.204
 20
189.809
 30
0.000000
  70
    32
  0
VERTEX
  8
1
  5
297
 10
103.212
 20
189.801
 30
0.000000
  70
    32
  0
VERTEX
  8
1
  5
298
 10
103.220
 20
189.793
 30
0.000000
  70
    32
  0
VERTEX
  8
1
  5
299
 10
103.229
 20
189.785
 30
0.000000
  70
    32
  0
VERTEX
  8
1
  5
29A
 10
103.237
 20
189.777
 30
0.000000
  70
    32
  0
VERTEX
  8
1
  5
29B
 10
103.245
 20
189.769
 30
0.000000
  70
    32
  0
VERTEX
  8
1
  5
29C
 10
103.253
 20
189.761
 30
0.000000
  70
    32
  0
VERTEX
  8
1
  5
29D
 10
103.261
 20
189.753
 30
0.000000
  70
    32
  0
VERTEX
  8
1
  5
29E
 10
103.269
 20
189.744
 30
0.000000
  70
    32
  0
VERTEX
  8
1
  5
29F
 10
103.277
 20
189.736
 30
0.000000
  70
    32
  0
VERTEX
  8
1
  5
2A0
 10
103.285
 20
189.728
 30
0.000000
  70
    32
  0
VERTEX
  8
1
  5
2A1
 10
103.293
 20
189.720
 30
0.000000
  70
    32
  0
VERTEX
  8
1
  5
2A2
 10
103.301
 20
189.712
 30
0.000000
  70
    32
  0
VERTEX
  8
1
  5
2A3
 10
103.309
 20
189.703
 30
0.000000
  70
    32
  0
VERTEX
  8
1
  5
2A4
 10
103.317
 20
189.695
 30
0.000000
  70
    32
  0
VERTEX
  8
1
  5
2A5
 10
103.324
 20
189.687
 30
0.000000
  70
    32
  0
VERTEX
  8
1
  5
2A6
 10
103.332
 20
189.678
 30
0.000000
  70
    32
  0
VERTEX
  8
1
  5
2A7
 10
103.340
 20
189.670
 30
0.000000
  70
    32
  0
VERTEX
  8
1
  5
2A8
 10
103.348
 20
189.662
 30
0.000000
  70
    32
  0
VERTEX
  8
1
  5
2A9
 10
103.356
 20
189.653
 30
0.000000
  70
    32
  0
VERTEX
  8
1
  5
2AA
 10
103.364
 20
189.645
 30
0.000000
  70
    32
  0
VERTEX
  8
1
  5
2AB
 10
103.372
 20
189.636
 30
0.000000
  70
    32
  0
VERTEX
  8
1
  5
2AC
 10
103.379
 20
189.628
 30
0.000000
  70
    32
  0
VERTEX
  8
1
  5
2AD
 10
103.387
 20
189.619
 30
0.000000
  70
    32
  0
VERTEX
  8
1
  5
2AE
 10
103.395
 20
189.611
 30
0.000000
  70
    32
  0
VERTEX
  8
1
  5
2AF
 10
103.403
 20
189.602
 30
0.000000
  70
    32
  0
VERTEX
  8
1
  5
2B0
 10
103.411
 20
189.593
 30
0.000000
  70
    32
  0
VERTEX
  8
1
  5
2B1
 10
103.418
 20
189.585
 30
0.000000
  70
    32
  0
VERTEX
  8
1
  5
2B2
 10
103.426
 20
189.576
 30
0.000000
  70
    32
  0
VERTEX
  8
1
  5
2B3
 10
103.434
 20
189.567
 30
0.000000
  70
    32
  0
VERTEX
  8
1
  5
2B4
 10
103.442
 20
189.559
 30
0.000000
  70
    32
  0
VERTEX
  8
1
  5
2B5
 10
103.449
 20
189.550
 30
0.000000
  70
    32
  0
VERTEX
  8
1
  5
2B6
 10
103.457
 20
189.541
 30
0.000000
  70
    32
  0
VERTEX
  8
1
  5
2B7
 10
103.465
 20
189.533
 30
0.000000
  70
    32
  0
VERTEX
  8
1
  5
2B8
 10
103.472
 20
189.524
 30
0.000000
  70
    32
  0
VERTEX
  8
1
  5
2B9
 10
103.480
 20
189.515
 30
0.000000
  70
    32
  0
VERTEX
  8
1
  5
2BA
 10
103.488
 20
189.506
 30
0.000000
  70
    32
  0
VERTEX
  8
1
  5
2BB
 10
103.496
 20
189.497
 30
0.000000
  70
    32
  0
VERTEX
  8
1
  5
2BC
 10
103.503
 20
189.488
 30
0.000000
  70
    32
  0
VERTEX
  8
1
  5
2BD
 10
103.511
 20
189.480
 30
0.000000
  70
    32
  0
VERTEX
  8
1
  5
2BE
 10
103.518
 20
189.471
 30
0.000000
  70
    32
  0
VERTEX
  8
1
  5
2BF
 10
103.526
 20
189.462
 30
0.000000
  70
    32
  0
VERTEX
  8
1
  5
2C0
 10
103.534
 20
189.453
 30
0.000000
  70
    32
  0
VERTEX
  8
1
  5
2C1
 10
103.541
 20
189.444
 30
0.000000
  70
    32
  0
VERTEX
  8
1
  5
2C2
 10
103.549
 20
189.435
 30
0.000000
  70
    32
  0
VERTEX
  8
1
  5
2C3
 10
103.557
 20
189.426
 30
0.000000
  70
    32
  0
VERTEX
  8
1
  5
2C4
 10
103.564
 20
189.417
 30
0.000000
  70
    32
  0
VERTEX
  8
1
  5
2C5
 10
103.572
 20
189.408
 30
0.000000
  70
    32
  0
VERTEX
  8
1
  5
2C6
 10
103.579
 20
189.399
 30
0.000000
  70
    32
  0
VERTEX
  8
1
  5
2C7
 10
103.587
 20
189.390
 30
0.000000
  70
    32
  0
VERTEX
  8
1
  5
2C8
 10
103.594
 20
189.381
 30
0.000000
  70
    32
  0
VERTEX
  8
1
  5
2C9
 10
103.602
 20
189.372
 30
0.000000
  70
    32
  0
VERTEX
  8
1
  5
2CA
 10
103.609
 20
189.362
 30
0.000000
  70
    32
  0
VERTEX
  8
1
  5
2CB
 10
103.617
 20
189.353
 30
0.000000
  70
    32
  0
VERTEX
  8
1
  5
2CC
 10
103.625
 20
189.344
 30
0.000000
  70
    32
  0
VERTEX
  8
1
  5
2CD
 10
103.632
 20
189.335
 30
0.000000
  70
    32
  0
VERTEX
  8
1
  5
2CE
 10
103.640
 20
189.326
 30
0.000000
  70
    32
  0
VERTEX
  8
1
  5
2CF
 10
103.647
 20
189.317
 30
0.000000
  70
    32
  0
VERTEX
  8
1
  5
2D0
 10
103.655
 20
189.308
 30
0.000000
  70
    32
  0
VERTEX
  8
1
  5
2D1
 10
103.662
 20
189.298
 30
0.000000
  70
    32
  0
VERTEX
  8
1
  5
2D2
 10
103.670
 20
189.289
 30
0.000000
  70
    32
  0
VERTEX
  8
1
  5
2D3
 10
103.677
 20
189.280
 30
0.000000
  70
    32
  0
VERTEX
  8
1
  5
2D4
 10
103.685
 20
189.271
 30
0.000000
  70
    32
  0
VERTEX
  8
1
  5
2D5
 10
103.692
 20
189.261
 30
0.000000
  70
    32
  0
VERTEX
  8
1
  5
2D6
 10
103.699
 20
189.252
 30
0.000000
  70
    32
  0
VERTEX
  8
1
  5
2D7
 10
103.707
 20
189.243
 30
0.000000
  70
    32
  0
VERTEX
  8
1
  5
2D8
 10
103.714
 20
189.234
 30
0.000000
  70
    32
  0
VERTEX
  8
1
  5
2D9
 10
103.722
 20
189.224
 30
0.000000
  70
    32
  0
VERTEX
  8
1
  5
2DA
 10
103.729
 20
189.215
 30
0.000000
  70
    32
  0
VERTEX
  8
1
  5
2DB
 10
103.737
 20
189.206
 30
0.000000
  70
    32
  0
VERTEX
  8
1
  5
2DC
 10
103.744
 20
189.197
 30
0.000000
  70
    32
  0
VERTEX
  8
1
  5
2DD
 10
103.752
 20
189.187
 30
0.000000
  70
    32
  0
VERTEX
  8
1
  5
2DE
 10
103.759
 20
189.178
 30
0.000000
  70
    32
  0
VERTEX
  8
1
  5
2DF
 10
103.767
 20
189.169
 30
0.000000
  70
    32
  0
VERTEX
  8
1
  5
2E0
 10
103.774
 20
189.159
 30
0.000000
  70
    32
  0
VERTEX
  8
1
  5
2E1
 10
103.781
 20
189.150
 30
0.000000
  70
    32
  0
VERTEX
  8
1
  5
2E2
 10
103.789
 20
189.141
 30
0.000000
  70
    32
  0
VERTEX
  8
1
  5
2E3
 10
103.796
 20
189.131
 30
0.000000
  70
    32
  0
VERTEX
  8
1
  5
2E4
 10
103.804
 20
189.122
 30
0.000000
  70
    32
  0
VERTEX
  8
1
  5
2E5
 10
103.811
 20
189.113
 30
0.000000
  70
    32
  0
VERTEX
  8
1
  5
2E6
 10
103.818
 20
189.103
 30
0.000000
  70
    32
  0
VERTEX
  8
1
  5
2E7
 10
103.826
 20
189.094
 30
0.000000
  70
    32
  0
VERTEX
  8
1
  5
2E8
 10
103.833
 20
189.084
 30
0.000000
  70
    32
  0
VERTEX
  8
1
  5
2E9
 10
103.841
 20
189.075
 30
0.000000
  70
    32
  0
VERTEX
  8
1
  5
2EA
 10
103.848
 20
189.066
 30
0.000000
  70
    32
  0
VERTEX
  8
1
  5
2EB
 10
103.856
 20
189.056
 30
0.000000
  70
    32
  0
VERTEX
  8
1
  5
2EC
 10
103.863
 20
189.047
 30
0.000000
  70
    32
  0
VERTEX
  8
1
  5
2ED
 10
103.870
 20
189.038
 30
0.000000
  70
    32
  0
VERTEX
  8
1
  5
2EE
 10
103.878
 20
189.028
 30
0.000000
  70
    32
  0
VERTEX
  8
1
  5
2EF
 10
103.885
 20
189.019
 30
0.000000
  70
    32
  0
VERTEX
  8
1
  5
2F0
 10
103.893
 20
189.009
 30
0.000000
  70
    32
  0
VERTEX
  8
1
  5
2F1
 10
103.900
 20
189.000
 30
0.000000
  70
    32
  0
SEQEND
  8
1
  5
2F2
  0
POLYLINE
  8
1
  5
2F3
  66
     1
 10
0.000000
 20
0.000000
 30
0.000000
  70
     8
  0
VERTEX
  8
1
  5
2F4
 10
113.900
 20
190.450
 30
0.000000
  70
    32
  0
VERTEX
  8
1
  5
2F5
 10
113.884
 20
190.448
 30
0.000000
  70
    32
  0
VERTEX
  8
1
  5
2F6
 10
113.868
 20
190.446
 30
0.000000
  70
    32
  0
VERTEX
  8
1
  5
2F7
 10
113.852
 20
190.443
 30
0.000000
  70
    32
  0
VERTEX
  8
1
  5
2F8
 10
113.837
 20
190.441
 30
0.000000
  70
    32
  0
VERTEX
  8
1
  5
2F9
 10
113.821
 20
190.439
 30
0.000000
  70
    32
  0
VERTEX
  8
1
  5
2FA
 10
113.805
 20
190.436
 30
0.000000
  70
    32
  0
VERTEX
  8
1
  5
2FB
 10
113.789
 20
190.434
 30
0.000000
  70
    32
  0
VERTEX
  8
1
  5
2FC
 10
113.774
 20
190.431
 30
0.000000
  70
    32
  0
VERTEX
  8
1
  5
2FD
 10
113.758
 20
190.428
 30
0.000000
  70
    32
  0
VERTEX
  8
1
  5
2FE
 10
113.742
 20
190.425
 30
0.000000
  70
    32
  0
VERTEX
  8
1
  5
2FF
 10
113.727
 20
190.422
 30
0.000000
  70
    32
  0
VERTEX
  8
1
  5
300
 10
113.711
 20
190.419
 30
0.000000
  70
    32
  0
VERTEX
  8
1
  5
301
 10
113.696
 20
190.416
 30
0.000000
  70
    32
  0
VERTEX
  8
1
  5
302
 10
113.680
 20
190.413
 30
0.000000
  70
    32
  0
VERTEX
  8
1
  5
303
 10
113.665
 20
190.410
 30
0.000000
  70
    32
  0
VERTEX
  8
1
  5
304
 10
113.650
 20
190.406
 30
0.000000
  70
    32
  0
VERTEX
  8
1
  5
305
 10
113.634
 20
190.403
 30
0.000000
  70
    32
  0
VERTEX
  8
1
  5
306
 10
113.619
 20
190.399
 30
0.000000
  70
    32
  0
VERTEX
  8
1
  5
307
 10
113.604
 20
190.396
 30
0.000000
  70
    32
  0
VERTEX
  8
1
  5
308
 10
113.589
 20
190.392
 30
0.000000
  70
    32
  0
VERTEX
  8
1
  5
309
 10
113.574
 20
190.388
 30
0.000000
  70
    32
  0
VERTEX
  8
1
  5
30A
 10
113.559
 20
190.384
 30
0.000000
  70
    32
  0
VERTEX
  8
1
  5
30B
 10
113.544
 20
190.380
 30
0.000000
  70
    32
  0
VERTEX
  8
1
  5
30C
 10
113.529
 20
190.376
 30
0.000000
  70
    32
  0
VERTEX
  8
1
  5
30D
 10
113.514
 20
190.372
 30
0.000000
  70
    32
  0
VERTEX
  8
1
  5
30E
 10
113.499
 20
190.368
 30
0.000000
  70
    32
  0
VERTEX
  8
1
  5
30F
 10
113.484
 20
190.363
 30
0.000000
  70
    32
  0
VERTEX
  8
1
  5
310
 10
113.469
 20
190.359
 30
0.000000
  70
    32
  0
VERTEX
  8
1
  5
311
 10
113.454
 20
190.354
 30
0.000000
  70
    32
  0
VERTEX
  8
1
  5
312
 10
113.440
 20
190.349
 30
0.000000
  70
    32
  0
VERTEX
  8
1
  5
313
 10
113.425
 20
190.345
 30
0.000000
  70
    32
  0
VERTEX
  8
1
  5
314
 10
113.410
 20
190.340
 30
0.000000
  70
    32
  0
VERTEX
  8
1
  5
315
 10
113.396
 20
190.335
 30
0.000000
  70
    32
  0
VERTEX
  8
1
  5
316
 10
113.381
 20
190.329
 30
0.000000
  70
    32
  0
VERTEX
  8
1
  5
317
 10
113.367
 20
190.324
 30
0.000000
  70
    32
  0
VERTEX
  8
1
  5
318
 10
113.353
 20
190.319
 30
0.000000
  70
    32
  0
VERTEX
  8
1
  5
319
 10
113.338
 20
190.313
 30
0.000000
  70
    32
  0
VERTEX
  8
1
  5
31A
 10
113.324
 20
190.308
 30
0.000000
  70
    32
  0
VERTEX
  8
1
  5
31B
 10
113.310
 20
190.302
 30
0.000000
  70
    32
  0
VERTEX
  8
1
  5
31C
 10
113.296
 20
190.296
 30
0.000000
  70
    32
  0
VERTEX
  8
1
  5
31D
 10
113.282
 20
190.290
 30
0.000000
  70
    32
  0
VERTEX
  8
1
  5
31E
 10
113.268
 20
190.284
 30
0.000000
  70
    32
  0
VERTEX
  8
1
  5
31F
 10
113.254
 20
190.278
 30
0.000000
  70
    32
  0
VERTEX
  8
1
  5
320
 10
113.240
 20
190.271
 30
0.000000
  70
    32
  0
VERTEX
  8
1
  5
321
 10
113.226
 20
190.265
 30
0.000000
  70
    32
  0
VERTEX
  8
1
  5
322
 10
113.212
 20
190.258
 30
0.000000
  70
    32
  0
VERTEX
  8
1
  5
323
 10
113.199
 20
190.251
 30
0.000000
  70
    32
  0
VERTEX
  8
1
  5
324
 10
113.185
 20
190.244
 30
0.000000
  70
    32
  0
VERTEX
  8
1
  5
325
 10
113.171
 20
190.237
 30
0.000000
  70
    32
  0
VERTEX
  8
1
  5
326
 10
113.158
 20
190.230
 30
0.000000
  70
    32
  0
VERTEX
  8
1
  5
327
 10
113.144
 20
190.223
 30
0.000000
  70
    32
  0
VERTEX
  8
1
  5
328
 10
113.131
 20
190.216
 30
0.000000
  70
    32
  0
VERTEX
  8
1
  5
329
 10
113.117
 20
190.208
 30
0.000000
  70
    32
  0
VERTEX
  8
1
  5
32A
 10
113.104
 20
190.201
 30
0.000000
  70
    32
  0
VERTEX
  8
1
  5
32B
 10
113.091
 20
190.193
 30
0.000000
  70
    32
  0
VERTEX
  8
1
  5
32C
 10
113.077
 20
190.186
 30
0.000000
  70
    32
  0
VERTEX
  8
1
  5
32D
 10
113.064
 20
190.178
 30
0.000000
  70
    32
  0
VERTEX
  8
1
  5
32E
 10
113.051
 20
190.170
 30
0.000000
  70
    32
  0
VERTEX
  8
1
  5
32F
 10
113.038
 20
190.162
 30
0.000000
  70
    32
  0
VERTEX
  8
1
  5
330
 10
113.025
 20
190.153
 30
0.000000
  70
    32
  0
VERTEX
  8
1
  5
331
 10
113.012
 20
190.145
 30
0.000000
  70
    32
  0
VERTEX
  8
1
  5
332
 10
112.999
 20
190.137
 30
0.000000
  70
    32
  0
VERTEX
  8
1
  5
333
 10
112.986
 20
190.128
 30
0.000000
  70
    32
  0
VERTEX
  8
1
  5
334
 10
112.973
 20
190.120
 30
0.000000
  70
    32
  0
VERTEX
  8
1
  5
335
 10
112.961
 20
190.111
 30
0.000000
  70
    32
  0
VERTEX
  8
1
  5
336
 10
112.948
 20
190.102
 30
0.000000
  70
    32
  0
VERTEX
  8
1
  5
337
 10
112.935
 20
190.093
 30
0.000000
  70
    32
  0
VERTEX
  8
1
  5
338
 10
112.923
 20
190.084
 30
0.000000
  70
    32
  0
VERTEX
  8
1
  5
339
 10
112.910
 20
190.075
 30
0.000000
  70
    32
  0
VERTEX
  8
1
  5
33A
 10
112.897
 20
190.066
 30
0.000000
  70
    32
  0
VERTEX
  8
1
  5
33B
 10
112.885
 20
190.057
 30
0.000000
  70
    32
  0
VERTEX
  8
1
  5
33C
 10
112.872
 20
190.048
 30
0.000000
  70
    32
  0
VERTEX
  8
1
  5
33D
 10
112.860
 20
190.038
 30
0.000000
  70
    32
  0
VERTEX
  8
1
  5
33E
 10
112.848
 20
190.029
 30
0.000000
  70
    32
  0
VERTEX
  8
1
  5
33F
 10
112.835
 20
190.019
 30
0.000000
  70
    32
  0
VERTEX
  8
1
  5
340
 10
112.823
 20
190.009
 30
0.000000
  70
    32
  0
VERTEX
  8
1
  5
341
 10
112.811
 20
189.999
 30
0.000000
  70
    32
  0
VERTEX
  8
1
  5
342
 10
112.799
 20
189.990
 30
0.000000
  70
    32
  0
VERTEX
  8
1
  5
343
 10
112.786
 20
189.980
 30
0.000000
  70
    32
  0
VERTEX
  8
1
  5
344
 10
112.774
 20
189.970
 30
0.000000
  70
    32
  0
VERTEX
  8
1
  5
345
 10
112.762
 20
189.959
 30
0.000000
  70
    32
  0
VERTEX
  8
1
  5
346
 10
112.750
 20
189.949
 30
0.000000
  70
    32
  0
VERTEX
  8
1
  5
347
 10
112.738
 20
189.939
 30
0.000000
  70
    32
  0
VERTEX
  8
1
  5
348
 10
112.726
 20
189.929
 30
0.000000
  70
    32
  0
VERTEX
  8
1
  5
349
 10
112.714
 20
189.918
 30
0.000000
  70
    32
  0
VERTEX
  8
1
  5
34A
 10
112.702
 20
189.908
 30
0.000000
  70
    32
  0
VERTEX
  8
1
  5
34B
 10
112.690
 20
189.897
 30
0.000000
  70
    32
  0
VERTEX
  8
1
  5
34C
 10
112.679
 20
189.886
 30
0.000000
  70
    32
  0
VERTEX
  8
1
  5
34D
 10
112.667
 20
189.875
 30
0.000000
  70
    32
  0
VERTEX
  8
1
  5
34E
 10
112.655
 20
189.865
 30
0.000000
  70
    32
  0
VERTEX
  8
1
  5
34F
 10
112.643
 20
189.854
 30
0.000000
  70
    32
  0
VERTEX
  8
1
  5
350
 10
112.632
 20
189.843
 30
0.000000
  70
    32
  0
VERTEX
  8
1
  5
351
 10
112.620
 20
189.832
 30
0.000000
  70
    32
  0
VERTEX
  8
1
  5
352
 10
112.608
 20
189.821
 30
0.000000
  70
    32
  0
VERTEX
  8
1
  5
353
 10
112.597
 20
189.809
 30
0.000000
  70
    32
  0
VERTEX
  8
1
  5
354
 10
112.585
 20
189.798
 30
0.000000
  70
    32
  0
VERTEX
  8
1
  5
355
 10
112.574
 20
189.787
 30
0.000000
  70
    32
  0
VERTEX
  8
1
  5
356
 10
112.562
 20
189.775
 30
0.000000
  70
    32
  0
VERTEX
  8
1
  5
357
 10
112.551
 20
189.764
 30
0.000000
  70
    32
  0
VERTEX
  8
1
  5
358
 10
112.539
 20
189.753
 30
0.000000
  70
    32
  0
VERTEX
  8
1
  5
359
 10
112.528
 20
189.741
 30
0.000000
  70
    32
  0
VERTEX
  8
1
  5
35A
 10
112.516
 20
189.729
 30
0.000000
  70
    32
  0
VERTEX
  8
1
  5
35B
 10
112.505
 20
189.718
 30
0.000000
  70
    32
  0
VERTEX
  8
1
  5
35C
 10
112.494
 20
189.706
 30
0.000000
  70
    32
  0
VERTEX
  8
1
  5
35D
 10
112.483
 20
189.694
 30
0.000000
  70
    32
  0
VERTEX
  8
1
  5
35E
 10
112.471
 20
189.682
 30
0.000000
  70
    32
  0
VERTEX
  8
1
  5
35F
 10
112.460
 20
189.670
 30
0.000000
  70
    32
  0
VERTEX
  8
1
  5
360
 10
112.449
 20
189.658
 30
0.000000
  70
    32
  0
VERTEX
  8
1
  5
361
 10
112.438
 20
189.646
 30
0.000000
  70
    32
  0
VERTEX
  8
1
  5
362
 10
112.426
 20
189.634
 30
0.000000
  70
    32
  0
VERTEX
  8
1
  5
363
 10
112.415
 20
189.622
 30
0.000000
  70
    32
  0
VERTEX
  8
1
  5
364
 10
112.404
 20
189.610
 30
0.000000
  70
    32
  0
VERTEX
  8
1
  5
365
 10
112.393
 20
189.598
 30
0.000000
  70
    32
  0
VERTEX
  8
1
  5
366
 10
112.382
 20
189.585
 30
0.000000
  70
    32
  0
VERTEX
  8
1
  5
367
 10
112.371
 20
189.573
 30
0.000000
  70
    32
  0
VERTEX
  8
1
  5
368
 10
112.360
 20
189.561
 30
0.000000
  70
    32
  0
VERTEX
  8
1
  5
369
 10
112.349
 20
189.548
 30
0.000000
  70
    32
  0
VERTEX
  8
1
  5
36A
 10
112.338
 20
189.536
 30
0.000000
  70
    32
  0
VERTEX
  8
1
  5
36B
 10
112.327
 20
189.523
 30
0.000000
  70
    32
  0
VERTEX
  8
1
  5
36C
 10
112.316
 20
189.511
 30
0.000000
  70
    32
  0
VERTEX
  8
1
  5
36D
 10
112.305
 20
189.498
 30
0.000000
  70
    32
  0
VERTEX
  8
1
  5
36E
 10
112.294
 20
189.486
 30
0.000000
  70
    32
  0
VERTEX
  8
1
  5
36F
 10
112.283
 20
189.473
 30
0.000000
  70
    32
  0
VERTEX
  8
1
  5
370
 10
112.273
 20
189.460
 30
0.000000
  70
    32
  0
VERTEX
  8
1
  5
371
 10
112.262
 20
189.447
 30
0.000000
  70
    32
  0
VERTEX
  8
1
  5
372
 10
112.251
 20
189.435
 30
0.000000
  70
    32
  0
VERTEX
  8
1
  5
373
 10
112.240
 20
189.422
 30
0.000000
  70
    32
  0
VERTEX
  8
1
  5
374
 10
112.229
 20
189.409
 30
0.000000
  70
    32
  0
VERTEX
  8
1
  5
375
 10
112.219
 20
189.396
 30
0.000000
  70
    32
  0
VERTEX
  8
1
  5
376
 10
112.208
 20
189.383
 30
0.000000
  70
    32
  0
VERTEX
  8
1
  5
377
 10
112.197
 20
189.370
 30
0.000000
  70
    32
  0
VERTEX
  8
1
  5
378
 10
112.186
 20
189.357
 30
0.000000
  70
    32
  0
VERTEX
  8
1
  5
379
 10
112.176
 20
189.344
 30
0.000000
  70
    32
  0
VERTEX
  8
1
  5
37A
 10
112.165
 20
189.331
 30
0.000000
  70
    32
  0
VERTEX
  8
1
  5
37B
 10
112.154
 20
189.318
 30
0.000000
  70
    32
  0
VERTEX
  8
1
  5
37C
 10
112.144
 20
189.305
 30
0.000000
  70
    32
  0
VERTEX
  8
1
  5
37D
 10
112.133
 20
189.292
 30
0.000000
  70
    32
  0
VERTEX
  8
1
  5
37E
 10
112.122
 20
189.279
 30
0.000000
  70
    32
  0
VERTEX
  8
1
  5
37F
 10
112.112
 20
189.266
 30
0.000000
  70
    32
  0
VERTEX
  8
1
  5
380
 10
112.101
 20
189.253
 30
0.000000
  70
    32
  0
VERTEX
  8
1
  5
381
 10
112.090
 20
189.239
 30
0.000000
  70
    32
  0
VERTEX
  8
1
  5
382
 10
112.080
 20
189.226
 30
0.000000
  70
    32
  0
VERTEX
  8
1
  5
383
 10
112.069
 20
189.213
 30
0.000000
  70
    32
  0
VERTEX
  8
1
  5
384
 10
112.058
 20
189.200
 30
0.000000
  70
    32
  0
VERTEX
  8
1
  5
385
 10
112.048
 20
189.187
 30
0.000000
  70
    32
  0
VERTEX
  8
1
  5
386
 10
112.037
 20
189.173
 30
0.000000
  70
    32
  0
VERTEX
  8
1
  5
387
 10
112.027
 20
189.160
 30
0.000000
  70
    32
  0
VERTEX
  8
1
  5
388
 10
112.016
 20
189.147
 30
0.000000
  70
    32
  0
VERTEX
  8
1
  5
389
 10
112.006
 20
189.133
 30
0.000000
  70
    32
  0
VERTEX
  8
1
  5
38A
 10
111.995
 20
189.120
 30
0.000000
  70
    32
  0
VERTEX
  8
1
  5
38B
 10
111.984
 20
189.107
 30
0.000000
  70
    32
  0
VERTEX
  8
1
  5
38C
 10
111.974
 20
189.093
 30
0.000000
  70
    32
  0
VERTEX
  8
1
  5
38D
 10
111.963
 20
189.080
 30
0.000000
  70
    32
  0
VERTEX
  8
1
  5
38E
 10
111.953
 20
189.067
 30
0.000000
  70
    32
  0
VERTEX
  8
1
  5
38F
 10
111.942
 20
189.053
 30
0.000000
  70
    32
  0
VERTEX
  8
1
  5
390
 10
111.932
 20
189.040
 30
0.000000
  70
    32
  0
VERTEX
  8
1
  5
391
 10
111.921
 20
189.027
 30
0.000000
  70
    32
  0
VERTEX
  8
1
  5
392
 10
111.911
 20
189.013
 30
0.000000
  70
    32
  0
VERTEX
  8
1
  5
393
 10
111.900
 20
189.000
 30
0.000000
  70
    32
  0
SEQEND
  8
1
  5
394
  0
POLYLINE
  8
1
  5
395
  66
     1
 10
0.000000
 20
0.000000
 30
0.000000
  70
     8
  0
VERTEX
  8
1
  5
396
 10
80.6148
 20
194.965
 30
0.000000
  70
    32
  0
VERTEX
  8
1
  5
397
 10
80.6042
 20
194.945
 30
0.000000
  70
    32
  0
VERTEX
  8
1
  5
398
 10
80.5936
 20
194.925
 30
0.000000
  70
    32
  0
VERTEX
  8
1
  5
399
 10
80.5831
 20
194.905
 30
0.000000
  70
    32
  0
VERTEX
  8
1
  5
39A
 10
80.5725
 20
194.885
 30
0.000000
  70
    32
  0
VERTEX
  8
1
  5
39B
 10
80.5619
 20
194.865
 30
0.000000
  70
    32
  0
VERTEX
  8
1
  5
39C
 10
80.5513
 20
194.844
 30
0.000000
  70
    32
  0
VERTEX
  8
1
  5
39D
 10
80.5407
 20
194.824
 30
0.000000
  70
    32
  0
VERTEX
  8
1
  5
39E
 10
80.5302
 20
194.804
 30
0.000000
  70
    32
  0
VERTEX
  8
1
  5
39F
 10
80.5196
 20
194.784
 30
0.000000
  70
    32
  0
VERTEX
  8
1
  5
3A0
 10
80.5090
 20
194.764
 30
0.000000
  70
    32
  0
VERTEX
  8
1
  5
3A1
 10
80.4984
 20
194.744
 30
0.000000
  70
    32
  0
VERTEX
  8
1
  5
3A2
 10
80.4878
 20
194.723
 30
0.000000
  70
    32
  0
VERTEX
  8
1
  5
3A3
 10
80.4772
 20
194.703
 30
0.000000
  70
    32
  0
VERTEX
  8
1
  5
3A4
 10
80.4666
 20
194.683
 30
0.000000
  70
    32
  0
VERTEX
  8
1
  5
3A5
 10
80.4560
 20
194.663
 30
0.000000
  70
    32
  0
VERTEX
  8
1
  5
3A6
 10
80.4454
 20
194.643
 30
0.000000
  70
    32
  0
VERTEX
  8
1
  5
3A7
 10
80.4348
 20
194.622
 30
0.000000
  70
    32
  0
VERTEX
  8
1
  5
3A8
 10
80.4242
 20
194.602
 30
0.000000
  70
    32
  0
VERTEX
  8
1
  5
3A9
 10
80.4136
 20
194.582
 30
0.000000
  70
    32
  0
VERTEX
  8
1
  5
3AA
 10
80.4030
 20
194.561
 30
0.000000
  70
    32
  0
VERTEX
  8
1
  5
3AB
 10
80.3923
 20
194.541
 30
0.000000
  70
    32
  0
VERTEX
  8
1
  5
3AC
 10
80.3817
 20
194.521
 30
0.000000
  70
    32
  0
VERTEX
  8
1
  5
3AD
 10
80.3711
 20
194.501
 30
0.000000
  70
    32
  0
VERTEX
  8
1
  5
3AE
 10
80.3605
 20
194.480
 30
0.000000
  70
    32
  0
VERTEX
  8
1
  5
3AF
 10
80.3499
 20
194.460
 30
0.000000
  70
    32
  0
VERTEX
  8
1
  5
3B0
 10
80.3393
 20
194.440
 30
0.000000
  70
    32
  0
VERTEX
  8
1
  5
3B1
 10
80.3287
 20
194.419
 30
0.000000
  70
    32
  0
VERTEX
  8
1
  5
3B2
 10
80.3181
 20
194.399
 30
0.000000
  70
    32
  0
VERTEX
  8
1
  5
3B3
 10
80.3075
 20
194.379
 30
0.000000
  70
    32
  0
VERTEX
  8
1
  5
3B4
 10
80.2970
 20
194.358
 30
0.000000
  70
    32
  0
VERTEX
  8
1
  5
3B5
 10
80.2864
 20
194.338
 30
0.000000
  70
    32
  0
VERTEX
  8
1
  5
3B6
 10
80.2758
 20
194.318
 30
0.000000
  70
    32
  0
VERTEX
  8
1
  5
3B7
 10
80.2652
 20
194.297
 30
0.000000
  70
    32
  0
VERTEX
  8
1
  5
3B8
 10
80.2546
 20
194.277
 30
0.000000
  70
    32
  0
VERTEX
  8
1
  5
3B9
 10
80.2441
 20
194.256
 30
0.000000
  70
    32
  0
VERTEX
  8
1
  5
3BA
 10
80.2335
 20
194.236
 30
0.000000
  70
    32
  0
VERTEX
  8
1
  5
3BB
 10
80.2229
 20
194.215
 30
0.000000
  70
    32
  0
VERTEX
  8
1
  5
3BC
 10
80.2124
 20
194.195
 30
0.000000
  70
    32
  0
VERTEX
  8
1
  5
3BD
 10
80.2018
 20
194.175
 30
0.000000
  70
    32
  0
VERTEX
  8
1
  5
3BE
 10
80.1912
 20
194.154
 30
0.000000
  70
    32
  0
VERTEX
  8
1
  5
3BF
 10
80.1807
 20
194.134
 30
0.000000
  70
    32
  0
VERTEX
  8
1
  5
3C0
 10
80.1702
 20
194.113
 30
0.000000
  70
    32
  0
VERTEX
  8
1
  5
3C1
 10
80.1596
 20
194.093
 30
0.000000
  70
    32
  0
VERTEX
  8
1
  5
3C2
 10
80.1491
 20
194.072
 30
0.000000
  70
    32
  0
VERTEX
  8
1
  5
3C3
 10
80.1386
 20
194.052
 30
0.000000
  70
    32
  0
VERTEX
  8
1
  5
3C4
 10
80.1281
 20
194.031
 30
0.000000
  70
    32
  0
VERTEX
  8
1
  5
3C5
 10
80.1176
 20
194.011
 30
0.000000
  70
    32
  0
VERTEX
  8
1
  5
3C6
 10
80.1071
 20
193.990
 30
0.000000
  70
    32
  0
VERTEX
  8
1
  5
3C7
 10
80.0966
 20
193.969
 30
0.000000
  70
    32
  0
VERTEX
  8
1
  5
3C8
 10
80.0861
 20
193.949
 30
0.000000
  70
    32
  0
VERTEX
  8
1
  5
3C9
 10
80.0756
 20
193.928
 30
0.000000
  70
    32
  0
VERTEX
  8
1
  5
3CA
 10
80.0652
 20
193.908
 30
0.000000
  70
    32
  0
VERTEX
  8
1
  5
3CB
 10
80.0547
 20
193.887
 30
0.000000
  70
    32
  0
VERTEX
  8
1
  5
3CC
 10
80.0443
 20
193.867
 30
0.000000
  70
    32
  0
VERTEX
  8
1
  5
3CD
 10
80.0338
 20
193.846
 30
0.000000
  70
    32
  0
VERTEX
  8
1
  5
3CE
 10
80.0234
 20
193.825
 30
0.000000
  70
    32
  0
VERTEX
  8
1
  5
3CF
 10
80.0130
 20
193.805
 30
0.000000
  70
    32
  0
VERTEX
  8
1
  5
3D0
 10
80.0026
 20
193.784
 30
0.000000
  70
    32
  0
VERTEX
  8
1
  5
3D1
 10
79.9922
 20
193.763
 30
0.000000
  70
    32
  0
VERTEX
  8
1
  5
3D2
 10
79.9818
 20
193.743
 30
0.000000
  70
    32
  0
VERTEX
  8
1
  5
3D3
 10
79.9714
 20
193.722
 30
0.000000
  70
    32
  0
VERTEX
  8
1
  5
3D4
 10
79.9610
 20
193.701
 30
0.000000
  70
    32
  0
VERTEX
  8
1
  5
3D5
 10
79.9507
 20
193.681
 30
0.000000
  70
    32
  0
VERTEX
  8
1
  5
3D6
 10
79.9403
 20
193.660
 30
0.000000
  70
    32
  0
VERTEX
  8
1
  5
3D7
 10
79.9300
 20
193.639
 30
0.000000
  70
    32
  0
VERTEX
  8
1
  5
3D8
 10
79.9197
 20
193.618
 30
0.000000
  70
    32
  0
VERTEX
  8
1
  5
3D9
 10
79.9094
 20
193.598
 30
0.000000
  70
    32
  0
VERTEX
  8
1
  5
3DA
 10
79.8991
 20
193.577
 30
0.000000
  70
    32
  0
VERTEX
  8
1
  5
3DB
 10
79.8888
 20
193.556
 30
0.000000
  70
    32
  0
VERTEX
  8
1
  5
3DC
 10
79.8785
 20
193.535
 30
0.000000
  70
    32
  0
VERTEX
  8
1
  5
3DD
 10
79.8683
 20
193.514
 30
0.000000
  70
    32
  0
VERTEX
  8
1
  5
3DE
 10
79.8580
 20
193.494
 30
0.000000
  70
    32
  0
VERTEX
  8
1
  5
3DF
 10
79.8478
 20
193.473
 30
0.000000
  70
    32
  0
VERTEX
  8
1
  5
3E0
 10
79.8376
 20
193.452
 30
0.000000
  70
    32
  0
VERTEX
  8
1
  5
3E1
 10
79.8274
 20
193.431
 30
0.000000
  70
    32
  0
VERTEX
  8
1
  5
3E2
 10
79.8172
 20
193.410
 30
0.000000
  70
    32
  0
VERTEX
  8
1
  5
3E3
 10
79.8071
 20
193.389
 30
0.000000
  70
    32
  0
VERTEX
  8
1
  5
3E4
 10
79.7969
 20
193.368
 30
0.000000
  70
    32
  0
VERTEX
  8
1
  5
3E5
 10
79.7868
 20
193.348
 30
0.000000
  70
    32
  0
VERTEX
  8
1
  5
3E6
 10
79.7767
 20
193.327
 30
0.000000
  70
    32
  0
VERTEX
  8
1
  5
3E7
 10
79.7665
 20
193.306
 30
0.000000
  70
    32
  0
VERTEX
  8
1
  5
3E8
 10
79.7565
 20
193.285
 30
0.000000
  70
    32
  0
VERTEX
  8
1
  5
3E9
 10
79.7464
 20
193.264
 30
0.000000
  70
    32
  0
VERTEX
  8
1
  5
3EA
 10
79.7363
 20
193.243
 30
0.000000
  70
    32
  0
VERTEX
  8
1
  5
3EB
 10
79.7263
 20
193.222
 30
0.000000
  70
    32
  0
VERTEX
  8
1
  5
3EC
 10
79.7163
 20
193.201
 30
0.000000
  70
    32
  0
VERTEX
  8
1
  5
3ED
 10
79.7063
 20
193.180
 30
0.000000
  70
    32
  0
VERTEX
  8
1
  5
3EE
 10
79.6963
 20
193.159
 30
0.000000
  70
    32
  0
VERTEX
  8
1
  5
3EF
 10
79.6863
 20
193.138
 30
0.000000
  70
    32
  0
VERTEX
  8
1
  5
3F0
 10
79.6764
 20
193.117
 30
0.000000
  70
    32
  0
VERTEX
  8
1
  5
3F1
 10
79.6665
 20
193.096
 30
0.000000
  70
    32
  0
VERTEX
  8
1
  5
3F2
 10
79.6566
 20
193.075
 30
0.000000
  70
    32
  0
VERTEX
  8
1
  5
3F3
 10
79.6467
 20
193.054
 30
0.000000
  70
    32
  0
VERTEX
  8
1
  5
3F4
 10
79.6368
 20
193.033
 30
0.000000
  70
    32
  0
VERTEX
  8
1
  5
3F5
 10
79.6270
 20
193.012
 30
0.000000
  70
    32
  0
VERTEX
  8
1
  5
3F6
 10
79.6171
 20
192.991
 30
0.000000
  70
    32
  0
VERTEX
  8
1
  5
3F7
 10
79.6073
 20
192.969
 30
0.000000
  70
    32
  0
VERTEX
  8
1
  5
3F8
 10
79.5975
 20
192.948
 30
0.000000
  70
    32
  0
VERTEX
  8
1
  5
3F9
 10
79.5878
 20
192.927
 30
0.000000
  70
    32
  0
VERTEX
  8
1
  5
3FA
 10
79.5780
 20
192.906
 30
0.000000
  70
    32
  0
VERTEX
  8
1
  5
3FB
 10
79.5683
 20
192.885
 30
0.000000
  70
    32
  0
VERTEX
  8
1
  5
3FC
 10
79.5586
 20
192.864
 30
0.000000
  70
    32
  0
VERTEX
  8
1
  5
3FD
 10
79.5489
 20
192.842
 30
0.000000
  70
    32
  0
VERTEX
  8
1
  5
3FE
 10
79.5393
 20
192.821
 30
0.000000
  70
    32
  0
VERTEX
  8
1
  5
3FF
 10
79.5296
 20
192.800
 30
0.000000
  70
    32
  0
VERTEX
  8
1
  5
400
 10
79.5200
 20
192.779
 30
0.000000
  70
    32
  0
VERTEX
  8
1
  5
401
 10
79.5104
 20
192.758
 30
0.000000
  70
    32
  0
VERTEX
  8
1
  5
402
 10
79.5009
 20
192.736
 30
0.000000
  70
    32
  0
VERTEX
  8
1
  5
403
 10
79.4913
 20
192.715
 30
0.000000
  70
    32
  0
VERTEX
  8
1
  5
404
 10
79.4818
 20
192.694
 30
0.000000
  70
    32
  0
VERTEX
  8
1
  5
405
 10
79.4723
 20
192.672
 30
0.000000
  70
    32
  0
VERTEX
  8
1
  5
406
 10
79.4628
 20
192.651
 30
0.000000
  70
    32
  0
VERTEX
  8
1
  5
407
 10
79.4534
 20
192.630
 30
0.000000
  70
    32
  0
VERTEX
  8
1
  5
408
 10
79.4440
 20
192.608
 30
0.000000
  70
    32
  0
VERTEX
  8
1
  5
409
 10
79.4346
 20
192.587
 30
0.000000
  70
    32
  0
VERTEX
  8
1
  5
40A
 10
79.4252
 20
192.566
 30
0.000000
  70
    32
  0
VERTEX
  8
1
  5
40B
 10
79.4159
 20
192.544
 30
0.000000
  70
    32
  0
VERTEX
  8
1
  5
40C
 10
79.4066
 20
192.523
 30
0.000000
  70
    32
  0
VERTEX
  8
1
  5
40D
 10
79.3973
 20
192.502
 30
0.000000
  70
    32
  0
VERTEX
  8
1
  5
40E
 10
79.3880
 20
192.480
 30
0.000000
  70
    32
  0
VERTEX
  8
1
  5
40F
 10
79.3788
 20
192.459
 30
0.000000
  70
    32
  0
VERTEX
  8
1
  5
410
 10
79.3696
 20
192.437
 30
0.000000
  70
    32
  0
VERTEX
  8
1
  5
411
 10
79.3604
 20
192.416
 30
0.000000
  70
    32
  0
VERTEX
  8
1
  5
412
 10
79.3512
 20
192.394
 30
0.000000
  70
    32
  0
VERTEX
  8
1
  5
413
 10
79.3421
 20
192.373
 30
0.000000
  70
    32
  0
VERTEX
  8
1
  5
414
 10
79.3330
 20
192.351
 30
0.000000
  70
    32
  0
VERTEX
  8
1
  5
415
 10
79.3239
 20
192.330
 30
0.000000
  70
    32
  0
VERTEX
  8
1
  5
416
 10
79.3149
 20
192.308
 30
0.000000
  70
    32
  0
VERTEX
  8
1
  5
417
 10
79.3059
 20
192.287
 30
0.000000
  70
    32
  0
VERTEX
  8
1
  5
418
 10
79.2969
 20
192.265
 30
0.000000
  70
    32
  0
VERTEX
  8
1
  5
419
 10
79.2879
 20
192.244
 30
0.000000
  70
    32
  0
VERTEX
  8
1
  5
41A
 10
79.2790
 20
192.222
 30
0.000000
  70
    32
  0
VERTEX
  8
1
  5
41B
 10
79.2701
 20
192.200
 30
0.000000
  70
    32
  0
VERTEX
  8
1
  5
41C
 10
79.2612
 20
192.179
 30
0.000000
  70
    32
  0
VERTEX
  8
1
  5
41D
 10
79.2524
 20
192.157
 30
0.000000
  70
    32
  0
VERTEX
  8
1
  5
41E
 10
79.2436
 20
192.136
 30
0.000000
  70
    32
  0
VERTEX
  8
1
  5
41F
 10
79.2348
 20
192.114
 30
0.000000
  70
    32
  0
VERTEX
  8
1
  5
420
 10
79.2261
 20
192.092
 30
0.000000
  70
    32
  0
VERTEX
  8
1
  5
421
 10
79.2174
 20
192.071
 30
0.000000
  70
    32
  0
VERTEX
  8
1
  5
422
 10
79.2087
 20
192.049
 30
0.000000
  70
    32
  0
VERTEX
  8
1
  5
423
 10
79.2001
 20
192.027
 30
0.000000
  70
    32
  0
VERTEX
  8
1
  5
424
 10
79.1914
 20
192.005
 30
0.000000
  70
    32
  0
VERTEX
  8
1
  5
425
 10
79.1829
 20
191.984
 30
0.000000
  70
    32
  0
VERTEX
  8
1
  5
426
 10
79.1743
 20
191.962
 30
0.000000
  70
    32
  0
VERTEX
  8
1
  5
427
 10
79.1658
 20
191.940
 30
0.000000
  70
    32
  0
VERTEX
  8
1
  5
428
 10
79.1573
 20
191.918
 30
0.000000
  70
    32
  0
VERTEX
  8
1
  5
429
 10
79.1489
 20
191.896
 30
0.000000
  70
    32
  0
VERTEX
  8
1
  5
42A
 10
79.1405
 20
191.875
 30
0.000000
  70
    32
  0
VERTEX
  8
1
  5
42B
 10
79.1321
 20
191.853
 30
0.000000
  70
    32
  0
VERTEX
  8
1
  5
42C
 10
79.1238
 20
191.831
 30
0.000000
  70
    32
  0
VERTEX
  8
1
  5
42D
 10
79.1155
 20
191.809
 30
0.000000
  70
    32
  0
VERTEX
  8
1
  5
42E
 10
79.1072
 20
191.787
 30
0.000000
  70
    32
  0
VERTEX
  8
1
  5
42F
 10
79.0990
 20
191.765
 30
0.000000
  70
    32
  0
VERTEX
  8
1
  5
430
 10
79.0908
 20
191.743
 30
0.000000
  70
    32
  0
VERTEX
  8
1
  5
431
 10
79.0826
 20
191.721
 30
0.000000
  70
    32
  0
VERTEX
  8
1
  5
432
 10
79.0745
 20
191.699
 30
0.000000
  70
    32
  0
VERTEX
  8
1
  5
433
 10
79.0664
 20
191.677
 30
0.000000
  70
    32
  0
VERTEX
  8
1
  5
434
 10
79.0584
 20
191.655
 30
0.000000
  70
    32
  0
VERTEX
  8
1
  5
435
 10
79.0504
 20
191.633
 30
0.000000
  70
    32
  0
VERTEX
  8
1
  5
436
 10
79.0424
 20
191.611
 30
0.000000
  70
    32
  0
VERTEX
  8
1
  5
437
 10
79.0345
 20
191.589
 30
0.000000
  70
    32
  0
VERTEX
  8
1
  5
438
 10
79.0266
 20
191.567
 30
0.000000
  70
    32
  0
VERTEX
  8
1
  5
439
 10
79.0187
 20
191.545
 30
0.000000
  70
    32
  0
VERTEX
  8
1
  5
43A
 10
79.0109
 20
191.523
 30
0.000000
  70
    32
  0
VERTEX
  8
1
  5
43B
 10
79.0032
 20
191.501
 30
0.000000
  70
    32
  0
VERTEX
  8
1
  5
43C
 10
78.9954
 20
191.479
 30
0.000000
  70
    32
  0
VERTEX
  8
1
  5
43D
 10
78.9878
 20
191.457
 30
0.000000
  70
    32
  0
VERTEX
  8
1
  5
43E
 10
78.9801
 20
191.434
 30
0.000000
  70
    32
  0
VERTEX
  8
1
  5
43F
 10
78.9725
 20
191.412
 30
0.000000
  70
    32
  0
VERTEX
  8
1
  5
440
 10
78.9650
 20
191.390
 30
0.000000
  70
    32
  0
VERTEX
  8
1
  5
441
 10
78.9574
 20
191.368
 30
0.000000
  70
    32
  0
VERTEX
  8
1
  5
442
 10
78.9500
 20
191.346
 30
0.000000
  70
    32
  0
VERTEX
  8
1
  5
443
 10
78.9425
 20
191.323
 30
0.000000
  70
    32
  0
VERTEX
  8
1
  5
444
 10
78.9352
 20
191.301
 30
0.000000
  70
    32
  0
VERTEX
  8
1
  5
445
 10
78.9278
 20
191.279
 30
0.000000
  70
    32
  0
VERTEX
  8
1
  5
446
 10
78.9205
 20
191.256
 30
0.000000
  70
    32
  0
VERTEX
  8
1
  5
447
 10
78.9133
 20
191.234
 30
0.000000
  70
    32
  0
VERTEX
  8
1
  5
448
 10
78.9061
 20
191.212
 30
0.000000
  70
    32
  0
VERTEX
  8
1
  5
449
 10
78.8989
 20
191.189
 30
0.000000
  70
    32
  0
VERTEX
  8
1
  5
44A
 10
78.8918
 20
191.167
 30
0.000000
  70
    32
  0
VERTEX
  8
1
  5
44B
 10
78.8847
 20
191.145
 30
0.000000
  70
    32
  0
VERTEX
  8
1
  5
44C
 10
78.8777
 20
191.122
 30
0.000000
  70
    32
  0
VERTEX
  8
1
  5
44D
 10
78.8707
 20
191.100
 30
0.000000
  70
    32
  0
VERTEX
  8
1
  5
44E
 10
78.8638
 20
191.077
 30
0.000000
  70
    32
  0
VERTEX
  8
1
  5
44F
 10
78.8569
 20
191.055
 30
0.000000
  70
    32
  0
VERTEX
  8
1
  5
450
 10
78.8501
 20
191.033
 30
0.000000
  70
    32
  0
VERTEX
  8
1
  5
451
 10
78.8433
 20
191.010
 30
0.000000
  70
    32
  0
VERTEX
  8
1
  5
452
 10
78.8366
 20
190.988
 30
0.000000
  70
    32
  0
VERTEX
  8
1
  5
453
 10
78.8299
 20
190.965
 30
0.000000
  70
    32
  0
VERTEX
  8
1
  5
454
 10
78.8232
 20
190.942
 30
0.000000
  70
    32
  0
VERTEX
  8
1
  5
455
 10
78.8166
 20
190.920
 30
0.000000
  70
    32
  0
VERTEX
  8
1
  5
456
 10
78.8101
 20
190.897
 30
0.000000
  70
    32
  0
VERTEX
  8
1
  5
457
 10
78.8036
 20
190.875
 30
0.000000
  70
    32
  0
VERTEX
  8
1
  5
458
 10
78.7972
 20
190.852
 30
0.000000
  70
    32
  0
VERTEX
  8
1
  5
459
 10
78.7908
 20
190.830
 30
0.000000
  70
    32
  0
VERTEX
  8
1
  5
45A
 10
78.7844
 20
190.807
 30
0.000000
  70
    32
  0
VERTEX
  8
1
  5
45B
 10
78.7782
 20
190.784
 30
0.000000
  70
    32
  0
VERTEX
  8
1
  5
45C
 10
78.7719
 20
190.762
 30
0.000000
  70
    32
  0
VERTEX
  8
1
  5
45D
 10
78.7657
 20
190.739
 30
0.000000
  70
    32
  0
VERTEX
  8
1
  5
45E
 10
78.7596
 20
190.716
 30
0.000000
  70
    32
  0
VERTEX
  8
1
  5
45F
 10
78.7535
 20
190.693
 30
0.000000
  70
    32
  0
VERTEX
  8
1
  5
460
 10
78.7475
 20
190.671
 30
0.000000
  70
    32
  0
VERTEX
  8
1
  5
461
 10
78.7415
 20
190.648
 30
0.000000
  70
    32
  0
VERTEX
  8
1
  5
462
 10
78.7356
 20
190.625
 30
0.000000
  70
    32
  0
VERTEX
  8
1
  5
463
 10
78.7298
 20
190.602
 30
0.000000
  70
    32
  0
VERTEX
  8
1
  5
464
 10
78.7240
 20
190.579
 30
0.000000
  70
    32
  0
VERTEX
  8
1
  5
465
 10
78.7182
 20
190.557
 30
0.000000
  70
    32
  0
VERTEX
  8
1
  5
466
 10
78.7125
 20
190.534
 30
0.000000
  70
    32
  0
VERTEX
  8
1
  5
467
 10
78.7069
 20
190.511
 30
0.000000
  70
    32
  0
VERTEX
  8
1
  5
468
 10
78.7013
 20
190.488
 30
0.000000
  70
    32
  0
VERTEX
  8
1
  5
469
 10
78.6958
 20
190.465
 30
0.000000
  70
    32
  0
VERTEX
  8
1
  5
46A
 10
78.6903
 20
190.442
 30
0.000000
  70
    32
  0
VERTEX
  8
1
  5
46B
 10
78.6849
 20
190.419
 30
0.000000
  70
    32
  0
VERTEX
  8
1
  5
46C
 10
78.6795
 20
190.396
 30
0.000000
  70
    32
  0
VERTEX
  8
1
  5
46D
 10
78.6742
 20
190.373
 30
0.000000
  70
    32
  0
VERTEX
  8
1
  5
46E
 10
78.6690
 20
190.350
 30
0.000000
  70
    32
  0
VERTEX
  8
1
  5
46F
 10
78.6638
 20
190.327
 30
0.000000
  70
    32
  0
VERTEX
  8
1
  5
470
 10
78.6587
 20
190.304
 30
0.000000
  70
    32
  0
VERTEX
  8
1
  5
471
 10
78.6536
 20
190.281
 30
0.000000
  70
    32
  0
VERTEX
  8
1
  5
472
 10
78.6486
 20
190.258
 30
0.000000
  70
    32
  0
VERTEX
  8
1
  5
473
 10
78.6436
 20
190.235
 30
0.000000
  70
    32
  0
VERTEX
  8
1
  5
474
 10
78.6387
 20
190.212
 30
0.000000
  70
    32
  0
VERTEX
  8
1
  5
475
 10
78.6339
 20
190.189
 30
0.000000
  70
    32
  0
VERTEX
  8
1
  5
476
 10
78.6291
 20
190.165
 30
0.000000
  70
    32
  0
VERTEX
  8
1
  5
477
 10
78.6244
 20
190.142
 30
0.000000
  70
    32
  0
VERTEX
  8
1
  5
478
 10
78.6198
 20
190.119
 30
0.000000
  70
    32
  0
VERTEX
  8
1
  5
479
 10
78.6152
 20
190.096
 30
0.000000
  70
    32
  0
VERTEX
  8
1
  5
47A
 10
78.6107
 20
190.073
 30
0.000000
  70
    32
  0
VERTEX
  8
1
  5
47B
 10
78.6062
 20
190.049
 30
0.000000
  70
    32
  0
VERTEX
  8
1
  5
47C
 10
78.6018
 20
190.026
 30
0.000000
  70
    32
  0
VERTEX
  8
1
  5
47D
 10
78.5975
 20
190.003
 30
0.000000
  70
    32
  0
VERTEX
  8
1
  5
47E
 10
78.5932
 20
189.979
 30
0.000000
  70
    32
  0
VERTEX
  8
1
  5
47F
 10
78.5890
 20
189.956
 30
0.000000
  70
    32
  0
VERTEX
  8
1
  5
480
 10
78.5849
 20
189.933
 30
0.000000
  70
    32
  0
VERTEX
  8
1
  5
481
 10
78.5808
 20
189.909
 30
0.000000
  70
    32
  0
VERTEX
  8
1
  5
482
 10
78.5768
 20
189.886
 30
0.000000
  70
    32
  0
VERTEX
  8
1
  5
483
 10
78.5729
 20
189.863
 30
0.000000
  70
    32
  0
VERTEX
  8
1
  5
484
 10
78.5690
 20
189.839
 30
0.000000
  70
    32
  0
VERTEX
  8
1
  5
485
 10
78.5652
 20
189.816
 30
0.000000
  70
    32
  0
VERTEX
  8
1
  5
486
 10
78.5614
 20
189.792
 30
0.000000
  70
    32
  0
VERTEX
  8
1
  5
487
 10
78.5577
 20
189.769
 30
0.000000
  70
    32
  0
VERTEX
  8
1
  5
488
 10
78.5541
 20
189.745
 30
0.000000
  70
    32
  0
VERTEX
  8
1
  5
489
 10
78.5506
 20
189.722
 30
0.000000
  70
    32
  0
VERTEX
  8
1
  5
48A
 10
78.5471
 20
189.698
 30
0.000000
  70
    32
  0
VERTEX
  8
1
  5
48B
 10
78.5437
 20
189.675
 30
0.000000
  70
    32
  0
VERTEX
  8
1
  5
48C
 10
78.5403
 20
189.651
 30
0.000000
  70
    32
  0
VERTEX
  8
1
  5
48D
 10
78.5371
 20
189.628
 30
0.000000
  70
    32
  0
VERTEX
  8
1
  5
48E
 10
78.5338
 20
189.604
 30
0.000000
  70
    32
  0
VERTEX
  8
1
  5
48F
 10
78.5307
 20
189.580
 30
0.000000
  70
    32
  0
VERTEX
  8
1
  5
490
 10
78.5276
 20
189.557
 30
0.000000
  70
    32
  0
VERTEX
  8
1
  5
491
 10
78.5246
 20
189.533
 30
0.000000
  70
    32
  0
VERTEX
  8
1
  5
492
 10
78.5217
 20
189.509
 30
0.000000
  70
    32
  0
VERTEX
  8
1
  5
493
 10
78.5189
 20
189.486
 30
0.000000
  70
    32
  0
VERTEX
  8
1
  5
494
 10
78.5161
 20
189.462
 30
0.000000
  70
    32
  0
VERTEX
  8
1
  5
495
 10
78.5134
 20
189.438
 30
0.000000
  70
    32
  0
VERTEX
  8
1
  5
496
 10
78.5107
 20
189.414
 30
0.000000
  70
    32
  0
VERTEX
  8
1
  5
497
 10
78.5081
 20
189.390
 30
0.000000
  70
    32
  0
VERTEX
  8
1
  5
498
 10
78.5056
 20
189.367
 30
0.000000
  70
    32
  0
VERTEX
  8
1
  5
499
 10
78.5032
 20
189.343
 30
0.000000
  70
    32
  0
VERTEX
  8
1
  5
49A
 10
78.5009
 20
189.319
 30
0.000000
  70
    32
  0
VERTEX
  8
1
  5
49B
 10
78.4986
 20
189.295
 30
0.000000
  70
    32
  0
VERTEX
  8
1
  5
49C
 10
78.4964
 20
189.271
 30
0.000000
  70
    32
  0
VERTEX
  8
1
  5
49D
 10
78.4943
 20
189.247
 30
0.000000
  70
    32
  0
VERTEX
  8
1
  5
49E
 10
78.4922
 20
189.223
 30
0.000000
  70
    32
  0
VERTEX
  8
1
  5
49F
 10
78.4902
 20
189.200
 30
0.000000
  70
    32
  0
VERTEX
  8
1
  5
4A0
 10
78.4883
 20
189.176
 30
0.000000
  70
    32
  0
VERTEX
  8
1
  5
4A1
 10
78.4865
 20
189.152
 30
0.000000
  70
    32
  0
VERTEX
  8
1
  5
4A2
 10
78.4848
 20
189.128
 30
0.000000
  70
    32
  0
VERTEX
  8
1
  5
4A3
 10
78.4831
 20
189.104
 30
0.000000
  70
    32
  0
VERTEX
  8
1
  5
4A4
 10
78.4815
 20
189.080
 30
0.000000
  70
    32
  0
VERTEX
  8
1
  5
4A5
 10
78.4800
 20
189.056
 30
0.000000
  70
    32
  0
VERTEX
  8
1
  5
4A6
 10
78.4786
 20
189.032
 30
0.000000
  70
    32
  0
VERTEX
  8
1
  5
4A7
 10
78.4772
 20
189.008
 30
0.000000
  70
    32
  0
VERTEX
  8
1
  5
4A8
 10
78.4760
 20
188.984
 30
0.000000
  70
    32
  0
VERTEX
  8
1
  5
4A9
 10
78.4748
 20
188.959
 30
0.000000
  70
    32
  0
VERTEX
  8
1
  5
4AA
 10
78.4737
 20
188.935
 30
0.000000
  70
    32
  0
VERTEX
  8
1
  5
4AB
 10
78.4726
 20
188.911
 30
0.000000
  70
    32
  0
VERTEX
  8
1
  5
4AC
 10
78.4717
 20
188.887
 30
0.000000
  70
    32
  0
VERTEX
  8
1
  5
4AD
 10
78.4708
 20
188.863
 30
0.000000
  70
    32
  0
VERTEX
  8
1
  5
4AE
 10
78.4700
 20
188.839
 30
0.000000
  70
    32
  0
VERTEX
  8
1
  5
4AF
 10
78.4693
 20
188.814
 30
0.000000
  70
    32
  0
VERTEX
  8
1
  5
4B0
 10
78.4687
 20
188.790
 30
0.000000
  70
    32
  0
VERTEX
  8
1
  5
4B1
 10
78.4682
 20
188.766
 30
0.000000
  70
    32
  0
VERTEX
  8
1
  5
4B2
 10
78.4677
 20
188.741
 30
0.000000
  70
    32
  0
VERTEX
  8
1
  5
4B3
 10
78.4673
 20
188.717
 30
0.000000
  70
    32
  0
VERTEX
  8
1
  5
4B4
 10
78.4670
 20
188.693
 30
0.000000
  70
    32
  0
VERTEX
  8
1
  5
4B5
 10
78.4668
 20
188.668
 30
0.000000
  70
    32
  0
VERTEX
  8
1
  5
4B6
 10
78.4667
 20
188.644
 30
0.000000
  70
    32
  0
VERTEX
  8
1
  5
4B7
 10
78.4667
 20
188.619
 30
0.000000
  70
    32
  0
VERTEX
  8
1
  5
4B8
 10
78.4667
 20
188.595
 30
0.000000
  70
    32
  0
VERTEX
  8
1
  5
4B9
 10
78.4669
 20
188.570
 30
0.000000
  70
    32
  0
VERTEX
  8
1
  5
4BA
 10
78.4671
 20
188.546
 30
0.000000
  70
    32
  0
VERTEX
  8
1
  5
4BB
 10
78.4674
 20
188.521
 30
0.000000
  70
    32
  0
VERTEX
  8
1
  5
4BC
 10
78.4678
 20
188.497
 30
0.000000
  70
    32
  0
VERTEX
  8
1
  5
4BD
 10
78.4683
 20
188.472
 30
0.000000
  70
    32
  0
VERTEX
  8
1
  5
4BE
 10
78.4689
 20
188.447
 30
0.000000
  70
    32
  0
VERTEX
  8
1
  5
4BF
 10
78.4696
 20
188.423
 30
0.000000
  70
    32
  0
VERTEX
  8
1
  5
4C0
 10
78.4704
 20
188.398
 30
0.000000
  70
    32
  0
VERTEX
  8
1
  5
4C1
 10
78.4712
 20
188.374
 30
0.000000
  70
    32
  0
VERTEX
  8
1
  5
4C2
 10
78.4722
 20
188.349
 30
0.000000
  70
    32
  0
VERTEX
  8
1
  5
4C3
 10
78.4732
 20
188.324
 30
0.000000
  70
    32
  0
VERTEX
  8
1
  5
4C4
 10
78.4743
 20
188.300
 30
0.000000
  70
    32
  0
VERTEX
  8
1
  5
4C5
 10
78.4755
 20
188.275
 30
0.000000
  70
    32
  0
VERTEX
  8
1
  5
4C6
 10
78.4768
 20
188.250
 30
0.000000
  70
    32
  0
VERTEX
  8
1
  5
4C7
 10
78.4782
 20
188.226
 30
0.000000
  70
    32
  0
VERTEX
  8
1
  5
4C8
 10
78.4797
 20
188.201
 30
0.000000
  70
    32
  0
VERTEX
  8
1
  5
4C9
 10
78.4812
 20
188.176
 30
0.000000
  70
    32
  0
VERTEX
  8
1
  5
4CA
 10
78.4829
 20
188.152
 30
0.000000
  70
    32
  0
VERTEX
  8
1
  5
4CB
 10
78.4846
 20
188.127
 30
0.000000
  70
    32
  0
VERTEX
  8
1
  5
4CC
 10
78.4864
 20
188.102
 30
0.000000
  70
    32
  0
VERTEX
  8
1
  5
4CD
 10
78.4884
 20
188.078
 30
0.000000
  70
    32
  0
VERTEX
  8
1
  5
4CE
 10
78.4904
 20
188.053
 30
0.000000
  70
    32
  0
VERTEX
  8
1
  5
4CF
 10
78.4925
 20
188.029
 30
0.000000
  70
    32
  0
VERTEX
  8
1
  5
4D0
 10
78.4947
 20
188.004
 30
0.000000
  70
    32
  0
VERTEX
  8
1
  5
4D1
 10
78.4969
 20
187.980
 30
0.000000
  70
    32
  0
VERTEX
  8
1
  5
4D2
 10
78.4993
 20
187.955
 30
0.000000
  70
    32
  0
VERTEX
  8
1
  5
4D3
 10
78.5018
 20
187.931
 30
0.000000
  70
    32
  0
VERTEX
  8
1
  5
4D4
 10
78.5043
 20
187.906
 30
0.000000
  70
    32
  0
VERTEX
  8
1
  5
4D5
 10
78.5069
 20
187.882
 30
0.000000
  70
    32
  0
VERTEX
  8
1
  5
4D6
 10
78.5097
 20
187.858
 30
0.000000
  70
    32
  0
VERTEX
  8
1
  5
4D7
 10
78.5125
 20
187.833
 30
0.000000
  70
    32
  0
VERTEX
  8
1
  5
4D8
 10
78.5154
 20
187.809
 30
0.000000
  70
    32
  0
VERTEX
  8
1
  5
4D9
 10
78.5184
 20
187.785
 30
0.000000
  70
    32
  0
VERTEX
  8
1
  5
4DA
 10
78.5214
 20
187.761
 30
0.000000
  70
    32
  0
VERTEX
  8
1
  5
4DB
 10
78.5246
 20
187.736
 30
0.000000
  70
    32
  0
VERTEX
  8
1
  5
4DC
 10
78.5278
 20
187.712
 30
0.000000
  70
    32
  0
VERTEX
  8
1
  5
4DD
 10
78.5312
 20
187.688
 30
0.000000
  70
    32
  0
VERTEX
  8
1
  5
4DE
 10
78.5346
 20
187.664
 30
0.000000
  70
    32
  0
VERTEX
  8
1
  5
4DF
 10
78.5380
 20
187.639
 30
0.000000
  70
    32
  0
VERTEX
  8
1
  5
4E0
 10
78.5416
 20
187.615
 30
0.000000
  70
    32
  0
VERTEX
  8
1
  5
4E1
 10
78.5452
 20
187.591
 30
0.000000
  70
    32
  0
VERTEX
  8
1
  5
4E2
 10
78.5490
 20
187.567
 30
0.000000
  70
    32
  0
VERTEX
  8
1
  5
4E3
 10
78.5527
 20
187.543
 30
0.000000
  70
    32
  0
VERTEX
  8
1
  5
4E4
 10
78.5566
 20
187.519
 30
0.000000
  70
    32
  0
VERTEX
  8
1
  5
4E5
 10
78.5605
 20
187.495
 30
0.000000
  70
    32
  0
VERTEX
  8
1
  5
4E6
 10
78.5646
 20
187.471
 30
0.000000
  70
    32
  0
VERTEX
  8
1
  5
4E7
 10
78.5686
 20
187.447
 30
0.000000
  70
    32
  0
VERTEX
  8
1
  5
4E8
 10
78.5728
 20
187.423
 30
0.000000
  70
    32
  0
VERTEX
  8
1
  5
4E9
 10
78.5770
 20
187.399
 30
0.000000
  70
    32
  0
VERTEX
  8
1
  5
4EA
 10
78.5813
 20
187.375
 30
0.000000
  70
    32
  0
VERTEX
  8
1
  5
4EB
 10
78.5856
 20
187.351
 30
0.000000
  70
    32
  0
VERTEX
  8
1
  5
4EC
 10
78.5901
 20
187.327
 30
0.000000
  70
    32
  0
VERTEX
  8
1
  5
4ED
 10
78.5945
 20
187.303
 30
0.000000
  70
    32
  0
VERTEX
  8
1
  5
4EE
 10
78.5991
 20
187.279
 30
0.000000
  70
    32
  0
VERTEX
  8
1
  5
4EF
 10
78.6037
 20
187.255
 30
0.000000
  70
    32
  0
VERTEX
  8
1
  5
4F0
 10
78.6084
 20
187.232
 30
0.000000
  70
    32
  0
VERTEX
  8
1
  5
4F1
 10
78.6131
 20
187.208
 30
0.000000
  70
    32
  0
VERTEX
  8
1
  5
4F2
 10
78.6179
 20
187.184
 30
0.000000
  70
    32
  0
VERTEX
  8
1
  5
4F3
 10
78.6227
 20
187.160
 30
0.000000
  70
    32
  0
VERTEX
  8
1
  5
4F4
 10
78.6276
 20
187.137
 30
0.000000
  70
    32
  0
VERTEX
  8
1
  5
4F5
 10
78.6325
 20
187.113
 30
0.000000
  70
    32
  0
VERTEX
  8
1
  5
4F6
 10
78.6375
 20
187.089
 30
0.000000
  70
    32
  0
VERTEX
  8
1
  5
4F7
 10
78.6426
 20
187.066
 30
0.000000
  70
    32
  0
VERTEX
  8
1
  5
4F8
 10
78.6477
 20
187.042
 30
0.000000
  70
    32
  0
VERTEX
  8
1
  5
4F9
 10
78.6529
 20
187.019
 30
0.000000
  70
    32
  0
VERTEX
  8
1
  5
4FA
 10
78.6581
 20
186.995
 30
0.000000
  70
    32
  0
VERTEX
  8
1
  5
4FB
 10
78.6633
 20
186.972
 30
0.000000
  70
    32
  0
VERTEX
  8
1
  5
4FC
 10
78.6686
 20
186.948
 30
0.000000
  70
    32
  0
VERTEX
  8
1
  5
4FD
 10
78.6740
 20
186.925
 30
0.000000
  70
    32
  0
VERTEX
  8
1
  5
4FE
 10
78.6794
 20
186.902
 30
0.000000
  70
    32
  0
VERTEX
  8
1
  5
4FF
 10
78.6848
 20
186.878
 30
0.000000
  70
    32
  0
VERTEX
  8
1
  5
500
 10
78.6903
 20
186.855
 30
0.000000
  70
    32
  0
VERTEX
  8
1
  5
501
 10
78.6958
 20
186.832
 30
0.000000
  70
    32
  0
VERTEX
  8
1
  5
502
 10
78.7014
 20
186.809
 30
0.000000
  70
    32
  0
VERTEX
  8
1
  5
503
 10
78.7070
 20
186.785
 30
0.000000
  70
    32
  0
VERTEX
  8
1
  5
504
 10
78.7126
 20
186.762
 30
0.000000
  70
    32
  0
VERTEX
  8
1
  5
505
 10
78.7183
 20
186.739
 30
0.000000
  70
    32
  0
VERTEX
  8
1
  5
506
 10
78.7240
 20
186.716
 30
0.000000
  70
    32
  0
VERTEX
  8
1
  5
507
 10
78.7297
 20
186.693
 30
0.000000
  70
    32
  0
VERTEX
  8
1
  5
508
 10
78.7355
 20
186.670
 30
0.000000
  70
    32
  0
VERTEX
  8
1
  5
509
 10
78.7413
 20
186.647
 30
0.000000
  70
    32
  0
VERTEX
  8
1
  5
50A
 10
78.7472
 20
186.624
 30
0.000000
  70
    32
  0
VERTEX
  8
1
  5
50B
 10
78.7530
 20
186.601
 30
0.000000
  70
    32
  0
VERTEX
  8
1
  5
50C
 10
78.7589
 20
186.579
 30
0.000000
  70
    32
  0
VERTEX
  8
1
  5
50D
 10
78.7649
 20
186.556
 30
0.000000
  70
    32
  0
VERTEX
  8
1
  5
50E
 10
78.7708
 20
186.533
 30
0.000000
  70
    32
  0
VERTEX
  8
1
  5
50F
 10
78.7768
 20
186.510
 30
0.000000
  70
    32
  0
VERTEX
  8
1
  5
510
 10
78.7828
 20
186.488
 30
0.000000
  70
    32
  0
VERTEX
  8
1
  5
511
 10
78.7888
 20
186.465
 30
0.000000
  70
    32
  0
VERTEX
  8
1
  5
512
 10
78.7949
 20
186.442
 30
0.000000
  70
    32
  0
VERTEX
  8
1
  5
513
 10
78.8009
 20
186.420
 30
0.000000
  70
    32
  0
VERTEX
  8
1
  5
514
 10
78.8070
 20
186.397
 30
0.000000
  70
    32
  0
VERTEX
  8
1
  5
515
 10
78.8131
 20
186.375
 30
0.000000
  70
    32
  0
VERTEX
  8
1
  5
516
 10
78.8192
 20
186.353
 30
0.000000
  70
    32
  0
VERTEX
  8
1
  5
517
 10
78.8254
 20
186.330
 30
0.000000
  70
    32
  0
VERTEX
  8
1
  5
518
 10
78.8315
 20
186.308
 30
0.000000
  70
    32
  0
VERTEX
  8
1
  5
519
 10
78.8377
 20
186.286
 30
0.000000
  70
    32
  0
VERTEX
  8
1
  5
51A
 10
78.8439
 20
186.263
 30
0.000000
  70
    32
  0
VERTEX
  8
1
  5
51B
 10
78.8501
 20
186.241
 30
0.000000
  70
    32
  0
VERTEX
  8
1
  5
51C
 10
78.8563
 20
186.219
 30
0.000000
  70
    32
  0
VERTEX
  8
1
  5
51D
 10
78.8626
 20
186.197
 30
0.000000
  70
    32
  0
VERTEX
  8
1
  5
51E
 10
78.8688
 20
186.175
 30
0.000000
  70
    32
  0
VERTEX
  8
1
  5
51F
 10
78.8751
 20
186.152
 30
0.000000
  70
    32
  0
VERTEX
  8
1
  5
520
 10
78.8814
 20
186.130
 30
0.000000
  70
    32
  0
VERTEX
  8
1
  5
521
 10
78.8876
 20
186.108
 30
0.000000
  70
    32
  0
VERTEX
  8
1
  5
522
 10
78.8939
 20
186.086
 30
0.000000
  70
    32
  0
VERTEX
  8
1
  5
523
 10
78.9002
 20
186.064
 30
0.000000
  70
    32
  0
VERTEX
  8
1
  5
524
 10
78.9065
 20
186.042
 30
0.000000
  70
    32
  0
VERTEX
  8
1
  5
525
 10
78.9129
 20
186.021
 30
0.000000
  70
    32
  0
VERTEX
  8
1
  5
526
 10
78.9192
 20
185.999
 30
0.000000
  70
    32
  0
VERTEX
  8
1
  5
527
 10
78.9255
 20
185.977
 30
0.000000
  70
    32
  0
VERTEX
  8
1
  5
528
 10
78.9319
 20
185.955
 30
0.000000
  70
    32
  0
VERTEX
  8
1
  5
529
 10
78.9382
 20
185.933
 30
0.000000
  70
    32
  0
VERTEX
  8
1
  5
52A
 10
78.9445
 20
185.912
 30
0.000000
  70
    32
  0
VERTEX
  8
1
  5
52B
 10
78.9509
 20
185.890
 30
0.000000
  70
    32
  0
VERTEX
  8
1
  5
52C
 10
78.9572
 20
185.868
 30
0.000000
  70
    32
  0
VERTEX
  8
1
  5
52D
 10
78.9636
 20
185.847
 30
0.000000
  70
    32
  0
VERTEX
  8
1
  5
52E
 10
78.9699
 20
185.825
 30
0.000000
  70
    32
  0
VERTEX
  8
1
  5
52F
 10
78.9762
 20
185.803
 30
0.000000
  70
    32
  0
VERTEX
  8
1
  5
530
 10
78.9826
 20
185.782
 30
0.000000
  70
    32
  0
VERTEX
  8
1
  5
531
 10
78.9889
 20
185.760
 30
0.000000
  70
    32
  0
VERTEX
  8
1
  5
532
 10
78.9953
 20
185.739
 30
0.000000
  70
    32
  0
VERTEX
  8
1
  5
533
 10
79.0016
 20
185.718
 30
0.000000
  70
    32
  0
VERTEX
  8
1
  5
534
 10
79.0079
 20
185.696
 30
0.000000
  70
    32
  0
VERTEX
  8
1
  5
535
 10
79.0142
 20
185.675
 30
0.000000
  70
    32
  0
VERTEX
  8
1
  5
536
 10
79.0205
 20
185.654
 30
0.000000
  70
    32
  0
VERTEX
  8
1
  5
537
 10
79.0268
 20
185.632
 30
0.000000
  70
    32
  0
VERTEX
  8
1
  5
538
 10
79.0331
 20
185.611
 30
0.000000
  70
    32
  0
VERTEX
  8
1
  5
539
 10
79.0394
 20
185.590
 30
0.000000
  70
    32
  0
VERTEX
  8
1
  5
53A
 10
79.0457
 20
185.569
 30
0.000000
  70
    32
  0
VERTEX
  8
1
  5
53B
 10
79.0520
 20
185.548
 30
0.000000
  70
    32
  0
VERTEX
  8
1
  5
53C
 10
79.0582
 20
185.527
 30
0.000000
  70
    32
  0
VERTEX
  8
1
  5
53D
 10
79.0645
 20
185.505
 30
0.000000
  70
    32
  0
VERTEX
  8
1
  5
53E
 10
79.0707
 20
185.484
 30
0.000000
  70
    32
  0
VERTEX
  8
1
  5
53F
 10
79.0769
 20
185.463
 30
0.000000
  70
    32
  0
VERTEX
  8
1
  5
540
 10
79.0831
 20
185.443
 30
0.000000
  70
    32
  0
VERTEX
  8
1
  5
541
 10
79.0893
 20
185.422
 30
0.000000
  70
    32
  0
VERTEX
  8
1
  5
542
 10
79.0954
 20
185.401
 30
0.000000
  70
    32
  0
VERTEX
  8
1
  5
543
 10
79.1016
 20
185.380
 30
0.000000
  70
    32
  0
VERTEX
  8
1
  5
544
 10
79.1077
 20
185.359
 30
0.000000
  70
    32
  0
VERTEX
  8
1
  5
545
 10
79.1138
 20
185.338
 30
0.000000
  70
    32
  0
VERTEX
  8
1
  5
546
 10
79.1199
 20
185.318
 30
0.000000
  70
    32
  0
VERTEX
  8
1
  5
547
 10
79.1260
 20
185.297
 30
0.000000
  70
    32
  0
VERTEX
  8
1
  5
548
 10
79.1320
 20
185.276
 30
0.000000
  70
    32
  0
VERTEX
  8
1
  5
549
 10
79.1380
 20
185.256
 30
0.000000
  70
    32
  0
VERTEX
  8
1
  5
54A
 10
79.1440
 20
185.235
 30
0.000000
  70
    32
  0
VERTEX
  8
1
  5
54B
 10
79.1500
 20
185.215
 30
0.000000
  70
    32
  0
VERTEX
  8
1
  5
54C
 10
79.1560
 20
185.194
 30
0.000000
  70
    32
  0
VERTEX
  8
1
  5
54D
 10
79.1619
 20
185.174
 30
0.000000
  70
    32
  0
VERTEX
  8
1
  5
54E
 10
79.1678
 20
185.153
 30
0.000000
  70
    32
  0
VERTEX
  8
1
  5
54F
 10
79.1737
 20
185.133
 30
0.000000
  70
    32
  0
VERTEX
  8
1
  5
550
 10
79.1795
 20
185.112
 30
0.000000
  70
    32
  0
VERTEX
  8
1
  5
551
 10
79.1853
 20
185.092
 30
0.000000
  70
    32
  0
VERTEX
  8
1
  5
552
 10
79.1911
 20
185.072
 30
0.000000
  70
    32
  0
VERTEX
  8
1
  5
553
 10
79.1968
 20
185.052
 30
0.000000
  70
    32
  0
VERTEX
  8
1
  5
554
 10
79.2026
 20
185.031
 30
0.000000
  70
    32
  0
VERTEX
  8
1
  5
555
 10
79.2083
 20
185.011
 30
0.000000
  70
    32
  0
VERTEX
  8
1
  5
556
 10
79.2139
 20
184.991
 30
0.000000
  70
    32
  0
VERTEX
  8
1
  5
557
 10
79.2195
 20
184.971
 30
0.000000
  70
    32
  0
VERTEX
  8
1
  5
558
 10
79.2251
 20
184.951
 30
0.000000
  70
    32
  0
VERTEX
  8
1
  5
559
 10
79.2307
 20
184.931
 30
0.000000
  70
    32
  0
VERTEX
  8
1
  5
55A
 10
79.2362
 20
184.911
 30
0.000000
  70
    32
  0
VERTEX
  8
1
  5
55B
 10
79.2416
 20
184.891
 30
0.000000
  70
    32
  0
VERTEX
  8
1
  5
55C
 10
79.2471
 20
184.871
 30
0.000000
  70
    32
  0
VERTEX
  8
1
  5
55D
 10
79.2525
 20
184.851
 30
0.000000
  70
    32
  0
VERTEX
  8
1
  5
55E
 10
79.2578
 20
184.832
 30
0.000000
  70
    32
  0
VERTEX
  8
1
  5
55F
 10
79.2632
 20
184.812
 30
0.000000
  70
    32
  0
VERTEX
  8
1
  5
560
 10
79.2684
 20
184.792
 30
0.000000
  70
    32
  0
VERTEX
  8
1
  5
561
 10
79.2737
 20
184.773
 30
0.000000
  70
    32
  0
VERTEX
  8
1
  5
562
 10
79.2789
 20
184.753
 30
0.000000
  70
    32
  0
VERTEX
  8
1
  5
563
 10
79.2840
 20
184.733
 30
0.000000
  70
    32
  0
VERTEX
  8
1
  5
564
 10
79.2891
 20
184.714
 30
0.000000
  70
    32
  0
VERTEX
  8
1
  5
565
 10
79.2942
 20
184.694
 30
0.000000
  70
    32
  0
VERTEX
  8
1
  5
566
 10
79.2992
 20
184.675
 30
0.000000
  70
    32
  0
VERTEX
  8
1
  5
567
 10
79.3042
 20
184.655
 30
0.000000
  70
    32
  0
VERTEX
  8
1
  5
568
 10
79.3092
 20
184.636
 30
0.000000
  70
    32
  0
VERTEX
  8
1
  5
569
 10
79.3141
 20
184.617
 30
0.000000
  70
    32
  0
VERTEX
  8
1
  5
56A
 10
79.3189
 20
184.597
 30
0.000000
  70
    32
  0
VERTEX
  8
1
  5
56B
 10
79.3237
 20
184.578
 30
0.000000
  70
    32
  0
VERTEX
  8
1
  5
56C
 10
79.3285
 20
184.559
 30
0.000000
  70
    32
  0
VERTEX
  8
1
  5
56D
 10
79.3332
 20
184.540
 30
0.000000
  70
    32
  0
VERTEX
  8
1
  5
56E
 10
79.3378
 20
184.521
 30
0.000000
  70
    32
  0
VERTEX
  8
1
  5
56F
 10
79.3424
 20
184.502
 30
0.000000
  70
    32
  0
VERTEX
  8
1
  5
570
 10
79.3470
 20
184.482
 30
0.000000
  70
    32
  0
VERTEX
  8
1
  5
571
 10
79.3515
 20
184.464
 30
0.000000
  70
    32
  0
VERTEX
  8
1
  5
572
 10
79.3560
 20
184.445
 30
0.000000
  70
    32
  0
VERTEX
  8
1
  5
573
 10
79.3604
 20
184.426
 30
0.000000
  70
    32
  0
VERTEX
  8
1
  5
574
 10
79.3647
 20
184.407
 30
0.000000
  70
    32
  0
VERTEX
  8
1
  5
575
 10
79.3690
 20
184.388
 30
0.000000
  70
    32
  0
VERTEX
  8
1
  5
576
 10
79.3733
 20
184.369
 30
0.000000
  70
    32
  0
VERTEX
  8
1
  5
577
 10
79.3775
 20
184.351
 30
0.000000
  70
    32
  0
VERTEX
  8
1
  5
578
 10
79.3816
 20
184.332
 30
0.000000
  70
    32
  0
VERTEX
  8
1
  5
579
 10
79.3857
 20
184.313
 30
0.000000
  70
    32
  0
VERTEX
  8
1
  5
57A
 10
79.3898
 20
184.295
 30
0.000000
  70
    32
  0
VERTEX
  8
1
  5
57B
 10
79.3937
 20
184.276
 30
0.000000
  70
    32
  0
VERTEX
  8
1
  5
57C
 10
79.3977
 20
184.258
 30
0.000000
  70
    32
  0
VERTEX
  8
1
  5
57D
 10
79.4015
 20
184.239
 30
0.000000
  70
    32
  0
VERTEX
  8
1
  5
57E
 10
79.4053
 20
184.221
 30
0.000000
  70
    32
  0
VERTEX
  8
1
  5
57F
 10
79.4091
 20
184.203
 30
0.000000
  70
    32
  0
VERTEX
  8
1
  5
580
 10
79.4128
 20
184.185
 30
0.000000
  70
    32
  0
VERTEX
  8
1
  5
581
 10
79.4164
 20
184.166
 30
0.000000
  70
    32
  0
VERTEX
  8
1
  5
582
 10
79.4200
 20
184.148
 30
0.000000
  70
    32
  0
VERTEX
  8
1
  5
583
 10
79.4235
 20
184.130
 30
0.000000
  70
    32
  0
VERTEX
  8
1
  5
584
 10
79.4270
 20
184.112
 30
0.000000
  70
    32
  0
VERTEX
  8
1
  5
585
 10
79.4303
 20
184.094
 30
0.000000
  70
    32
  0
VERTEX
  8
1
  5
586
 10
79.4337
 20
184.076
 30
0.000000
  70
    32
  0
VERTEX
  8
1
  5
587
 10
79.4369
 20
184.058
 30
0.000000
  70
    32
  0
VERTEX
  8
1
  5
588
 10
79.4401
 20
184.040
 30
0.000000
  70
    32
  0
VERTEX
  8
1
  5
589
 10
79.4433
 20
184.023
 30
0.000000
  70
    32
  0
VERTEX
  8
1
  5
58A
 10
79.4464
 20
184.005
 30
0.000000
  70
    32
  0
VERTEX
  8
1
  5
58B
 10
79.4494
 20
183.987
 30
0.000000
  70
    32
  0
VERTEX
  8
1
  5
58C
 10
79.4523
 20
183.970
 30
0.000000
  70
    32
  0
VERTEX
  8
1
  5
58D
 10
79.4552
 20
183.952
 30
0.000000
  70
    32
  0
VERTEX
  8
1
  5
58E
 10
79.4580
 20
183.934
 30
0.000000
  70
    32
  0
VERTEX
  8
1
  5
58F
 10
79.4608
 20
183.917
 30
0.000000
  70
    32
  0
VERTEX
  8
1
  5
590
 10
79.4634
 20
183.900
 30
0.000000
  70
    32
  0
VERTEX
  8
1
  5
591
 10
79.4660
 20
183.882
 30
0.000000
  70
    32
  0
VERTEX
  8
1
  5
592
 10
79.4686
 20
183.865
 30
0.000000
  70
    32
  0
VERTEX
  8
1
  5
593
 10
79.4710
 20
183.848
 30
0.000000
  70
    32
  0
VERTEX
  8
1
  5
594
 10
79.4734
 20
183.830
 30
0.000000
  70
    32
  0
VERTEX
  8
1
  5
595
 10
79.4758
 20
183.813
 30
0.000000
  70
    32
  0
VERTEX
  8
1
  5
596
 10
79.4780
 20
183.796
 30
0.000000
  70
    32
  0
VERTEX
  8
1
  5
597
 10
79.4802
 20
183.779
 30
0.000000
  70
    32
  0
VERTEX
  8
1
  5
598
 10
79.4823
 20
183.762
 30
0.000000
  70
    32
  0
VERTEX
  8
1
  5
599
 10
79.4844
 20
183.746
 30
0.000000
  70
    32
  0
VERTEX
  8
1
  5
59A
 10
79.4864
 20
183.729
 30
0.000000
  70
    32
  0
VERTEX
  8
1
  5
59B
 10
79.4883
 20
183.712
 30
0.000000
  70
    32
  0
VERTEX
  8
1
  5
59C
 10
79.4901
 20
183.696
 30
0.000000
  70
    32
  0
VERTEX
  8
1
  5
59D
 10
79.4919
 20
183.679
 30
0.000000
  70
    32
  0
VERTEX
  8
1
  5
59E
 10
79.4936
 20
183.663
 30
0.000000
  70
    32
  0
VERTEX
  8
1
  5
59F
 10
79.4952
 20
183.646
 30
0.000000
  70
    32
  0
VERTEX
  8
1
  5
5A0
 10
79.4967
 20
183.630
 30
0.000000
  70
    32
  0
VERTEX
  8
1
  5
5A1
 10
79.4982
 20
183.614
 30
0.000000
  70
    32
  0
VERTEX
  8
1
  5
5A2
 10
79.4996
 20
183.598
 30
0.000000
  70
    32
  0
VERTEX
  8
1
  5
5A3
 10
79.5010
 20
183.582
 30
0.000000
  70
    32
  0
VERTEX
  8
1
  5
5A4
 10
79.5022
 20
183.565
 30
0.000000
  70
    32
  0
VERTEX
  8
1
  5
5A5
 10
79.5034
 20
183.550
 30
0.000000
  70
    32
  0
VERTEX
  8
1
  5
5A6
 10
79.5045
 20
183.534
 30
0.000000
  70
    32
  0
VERTEX
  8
1
  5
5A7
 10
79.5056
 20
183.518
 30
0.000000
  70
    32
  0
VERTEX
  8
1
  5
5A8
 10
79.5066
 20
183.502
 30
0.000000
  70
    32
  0
VERTEX
  8
1
  5
5A9
 10
79.5075
 20
183.486
 30
0.000000
  70
    32
  0
VERTEX
  8
1
  5
5AA
 10
79.5083
 20
183.471
 30
0.000000
  70
    32
  0
VERTEX
  8
1
  5
5AB
 10
79.5090
 20
183.455
 30
0.000000
  70
    32
  0
VERTEX
  8
1
  5
5AC
 10
79.5097
 20
183.439
 30
0.000000
  70
    32
  0
VERTEX
  8
1
  5
5AD
 10
79.5103
 20
183.424
 30
0.000000
  70
    32
  0
VERTEX
  8
1
  5
5AE
 10
79.5108
 20
183.409
 30
0.000000
  70
    32
  0
VERTEX
  8
1
  5
5AF
 10
79.5113
 20
183.393
 30
0.000000
  70
    32
  0
VERTEX
  8
1
  5
5B0
 10
79.5117
 20
183.378
 30
0.000000
  70
    32
  0
VERTEX
  8
1
  5
5B1
 10
79.5120
 20
183.362
 30
0.000000
  70
    32
  0
VERTEX
  8
1
  5
5B2
 10
79.5122
 20
183.347
 30
0.000000
  70
    32
  0
VERTEX
  8
1
  5
5B3
 10
79.5123
 20
183.332
 30
0.000000
  70
    32
  0
VERTEX
  8
1
  5
5B4
 10
79.5124
 20
183.317
 30
0.000000
  70
    32
  0
VERTEX
  8
1
  5
5B5
 10
79.5124
 20
183.302
 30
0.000000
  70
    32
  0
VERTEX
  8
1
  5
5B6
 10
79.5123
 20
183.286
 30
0.000000
  70
    32
  0
VERTEX
  8
1
  5
5B7
 10
79.5121
 20
183.271
 30
0.000000
  70
    32
  0
VERTEX
  8
1
  5
5B8
 10
79.5119
 20
183.256
 30
0.000000
  70
    32
  0
VERTEX
  8
1
  5
5B9
 10
79.5116
 20
183.241
 30
0.000000
  70
    32
  0
VERTEX
  8
1
  5
5BA
 10
79.5112
 20
183.226
 30
0.000000
  70
    32
  0
VERTEX
  8
1
  5
5BB
 10
79.5107
 20
183.211
 30
0.000000
  70
    32
  0
VERTEX
  8
1
  5
5BC
 10
79.5102
 20
183.196
 30
0.000000
  70
    32
  0
VERTEX
  8
1
  5
5BD
 10
79.5095
 20
183.181
 30
0.000000
  70
    32
  0
VERTEX
  8
1
  5
5BE
 10
79.5088
 20
183.166
 30
0.000000
  70
    32
  0
VERTEX
  8
1
  5
5BF
 10
79.5080
 20
183.152
 30
0.000000
  70
    32
  0
VERTEX
  8
1
  5
5C0
 10
79.5072
 20
183.137
 30
0.000000
  70
    32
  0
VERTEX
  8
1
  5
5C1
 10
79.5062
 20
183.122
 30
0.000000
  70
    32
  0
VERTEX
  8
1
  5
5C2
 10
79.5052
 20
183.107
 30
0.000000
  70
    32
  0
VERTEX
  8
1
  5
5C3
 10
79.5041
 20
183.092
 30
0.000000
  70
    32
  0
VERTEX
  8
1
  5
5C4
 10
79.5029
 20
183.077
 30
0.000000
  70
    32
  0
VERTEX
  8
1
  5
5C5
 10
79.5016
 20
183.063
 30
0.000000
  70
    32
  0
VERTEX
  8
1
  5
5C6
 10
79.5003
 20
183.048
 30
0.000000
  70
    32
  0
VERTEX
  8
1
  5
5C7
 10
79.4988
 20
183.033
 30
0.000000
  70
    32
  0
VERTEX
  8
1
  5
5C8
 10
79.4973
 20
183.018
 30
0.000000
  70
    32
  0
VERTEX
  8
1
  5
5C9
 10
79.4957
 20
183.004
 30
0.000000
  70
    32
  0
VERTEX
  8
1
  5
5CA
 10
79.4940
 20
182.989
 30
0.000000
  70
    32
  0
VERTEX
  8
1
  5
5CB
 10
79.4923
 20
182.974
 30
0.000000
  70
    32
  0
VERTEX
  8
1
  5
5CC
 10
79.4904
 20
182.959
 30
0.000000
  70
    32
  0
VERTEX
  8
1
  5
5CD
 10
79.4885
 20
182.945
 30
0.000000
  70
    32
  0
VERTEX
  8
1
  5
5CE
 10
79.4865
 20
182.930
 30
0.000000
  70
    32
  0
VERTEX
  8
1
  5
5CF
 10
79.4844
 20
182.915
 30
0.000000
  70
    32
  0
VERTEX
  8
1
  5
5D0
 10
79.4822
 20
182.900
 30
0.000000
  70
    32
  0
VERTEX
  8
1
  5
5D1
 10
79.4800
 20
182.885
 30
0.000000
  70
    32
  0
VERTEX
  8
1
  5
5D2
 10
79.4776
 20
182.871
 30
0.000000
  70
    32
  0
VERTEX
  8
1
  5
5D3
 10
79.4752
 20
182.856
 30
0.000000
  70
    32
  0
VERTEX
  8
1
  5
5D4
 10
79.4727
 20
182.841
 30
0.000000
  70
    32
  0
VERTEX
  8
1
  5
5D5
 10
79.4701
 20
182.826
 30
0.000000
  70
    32
  0
VERTEX
  8
1
  5
5D6
 10
79.4674
 20
182.811
 30
0.000000
  70
    32
  0
VERTEX
  8
1
  5
5D7
 10
79.4646
 20
182.796
 30
0.000000
  70
    32
  0
VERTEX
  8
1
  5
5D8
 10
79.4618
 20
182.782
 30
0.000000
  70
    32
  0
VERTEX
  8
1
  5
5D9
 10
79.4588
 20
182.767
 30
0.000000
  70
    32
  0
VERTEX
  8
1
  5
5DA
 10
79.4558
 20
182.752
 30
0.000000
  70
    32
  0
VERTEX
  8
1
  5
5DB
 10
79.4527
 20
182.737
 30
0.000000
  70
    32
  0
VERTEX
  8
1
  5
5DC
 10
79.4495
 20
182.722
 30
0.000000
  70
    32
  0
VERTEX
  8
1
  5
5DD
 10
79.4463
 20
182.707
 30
0.000000
  70
    32
  0
VERTEX
  8
1
  5
5DE
 10
79.4429
 20
182.692
 30
0.000000
  70
    32
  0
VERTEX
  8
1
  5
5DF
 10
79.4395
 20
182.677
 30
0.000000
  70
    32
  0
VERTEX
  8
1
  5
5E0
 10
79.4360
 20
182.662
 30
0.000000
  70
    32
  0
VERTEX
  8
1
  5
5E1
 10
79.4324
 20
182.647
 30
0.000000
  70
    32
  0
VERTEX
  8
1
  5
5E2
 10
79.4287
 20
182.632
 30
0.000000
  70
    32
  0
VERTEX
  8
1
  5
5E3
 10
79.4250
 20
182.617
 30
0.000000
  70
    32
  0
VERTEX
  8
1
  5
5E4
 10
79.4211
 20
182.602
 30
0.000000
  70
    32
  0
VERTEX
  8
1
  5
5E5
 10
79.4172
 20
182.586
 30
0.000000
  70
    32
  0
VERTEX
  8
1
  5
5E6
 10
79.4132
 20
182.571
 30
0.000000
  70
    32
  0
VERTEX
  8
1
  5
5E7
 10
79.4091
 20
182.556
 30
0.000000
  70
    32
  0
VERTEX
  8
1
  5
5E8
 10
79.4050
 20
182.541
 30
0.000000
  70
    32
  0
VERTEX
  8
1
  5
5E9
 10
79.4007
 20
182.526
 30
0.000000
  70
    32
  0
VERTEX
  8
1
  5
5EA
 10
79.3964
 20
182.510
 30
0.000000
  70
    32
  0
VERTEX
  8
1
  5
5EB
 10
79.3920
 20
182.495
 30
0.000000
  70
    32
  0
VERTEX
  8
1
  5
5EC
 10
79.3875
 20
182.480
 30
0.000000
  70
    32
  0
VERTEX
  8
1
  5
5ED
 10
79.3830
 20
182.465
 30
0.000000
  70
    32
  0
VERTEX
  8
1
  5
5EE
 10
79.3783
 20
182.449
 30
0.000000
  70
    32
  0
VERTEX
  8
1
  5
5EF
 10
79.3736
 20
182.434
 30
0.000000
  70
    32
  0
VERTEX
  8
1
  5
5F0
 10
79.3688
 20
182.419
 30
0.000000
  70
    32
  0
VERTEX
  8
1
  5
5F1
 10
79.3639
 20
182.403
 30
0.000000
  70
    32
  0
VERTEX
  8
1
  5
5F2
 10
79.3590
 20
182.388
 30
0.000000
  70
    32
  0
VERTEX
  8
1
  5
5F3
 10
79.3539
 20
182.372
 30
0.000000
  70
    32
  0
VERTEX
  8
1
  5
5F4
 10
79.3488
 20
182.357
 30
0.000000
  70
    32
  0
VERTEX
  8
1
  5
5F5
 10
79.3436
 20
182.342
 30
0.000000
  70
    32
  0
VERTEX
  8
1
  5
5F6
 10
79.3383
 20
182.326
 30
0.000000
  70
    32
  0
VERTEX
  8
1
  5
5F7
 10
79.3329
 20
182.311
 30
0.000000
  70
    32
  0
VERTEX
  8
1
  5
5F8
 10
79.3275
 20
182.295
 30
0.000000
  70
    32
  0
VERTEX
  8
1
  5
5F9
 10
79.3220
 20
182.279
 30
0.000000
  70
    32
  0
VERTEX
  8
1
  5
5FA
 10
79.3164
 20
182.264
 30
0.000000
  70
    32
  0
VERTEX
  8
1
  5
5FB
 10
79.3107
 20
182.248
 30
0.000000
  70
    32
  0
VERTEX
  8
1
  5
5FC
 10
79.3049
 20
182.233
 30
0.000000
  70
    32
  0
VERTEX
  8
1
  5
5FD
 10
79.2991
 20
182.217
 30
0.000000
  70
    32
  0
VERTEX
  8
1
  5
5FE
 10
79.2932
 20
182.201
 30
0.000000
  70
    32
  0
VERTEX
  8
1
  5
5FF
 10
79.2872
 20
182.185
 30
0.000000
  70
    32
  0
VERTEX
  8
1
  5
600
 10
79.2811
 20
182.170
 30
0.000000
  70
    32
  0
VERTEX
  8
1
  5
601
 10
79.2750
 20
182.154
 30
0.000000
  70
    32
  0
VERTEX
  8
1
  5
602
 10
79.2688
 20
182.138
 30
0.000000
  70
    32
  0
VERTEX
  8
1
  5
603
 10
79.2624
 20
182.122
 30
0.000000
  70
    32
  0
VERTEX
  8
1
  5
604
 10
79.2561
 20
182.107
 30
0.000000
  70
    32
  0
VERTEX
  8
1
  5
605
 10
79.2496
 20
182.091
 30
0.000000
  70
    32
  0
VERTEX
  8
1
  5
606
 10
79.2431
 20
182.075
 30
0.000000
  70
    32
  0
VERTEX
  8
1
  5
607
 10
79.2364
 20
182.059
 30
0.000000
  70
    32
  0
VERTEX
  8
1
  5
608
 10
79.2297
 20
182.043
 30
0.000000
  70
    32
  0
VERTEX
  8
1
  5
609
 10
79.2230
 20
182.027
 30
0.000000
  70
    32
  0
VERTEX
  8
1
  5
60A
 10
79.2161
 20
182.011
 30
0.000000
  70
    32
  0
VERTEX
  8
1
  5
60B
 10
79.2092
 20
181.995
 30
0.000000
  70
    32
  0
VERTEX
  8
1
  5
60C
 10
79.2022
 20
181.979
 30
0.000000
  70
    32
  0
VERTEX
  8
1
  5
60D
 10
79.1951
 20
181.963
 30
0.000000
  70
    32
  0
VERTEX
  8
1
  5
60E
 10
79.1879
 20
181.947
 30
0.000000
  70
    32
  0
VERTEX
  8
1
  5
60F
 10
79.1807
 20
181.931
 30
0.000000
  70
    32
  0
VERTEX
  8
1
  5
610
 10
79.1734
 20
181.914
 30
0.000000
  70
    32
  0
VERTEX
  8
1
  5
611
 10
79.1660
 20
181.898
 30
0.000000
  70
    32
  0
VERTEX
  8
1
  5
612
 10
79.1585
 20
181.882
 30
0.000000
  70
    32
  0
VERTEX
  8
1
  5
613
 10
79.1510
 20
181.866
 30
0.000000
  70
    32
  0
VERTEX
  8
1
  5
614
 10
79.1434
 20
181.849
 30
0.000000
  70
    32
  0
VERTEX
  8
1
  5
615
 10
79.1357
 20
181.833
 30
0.000000
  70
    32
  0
VERTEX
  8
1
  5
616
 10
79.1279
 20
181.817
 30
0.000000
  70
    32
  0
VERTEX
  8
1
  5
617
 10
79.1201
 20
181.800
 30
0.000000
  70
    32
  0
VERTEX
  8
1
  5
618
 10
79.1121
 20
181.784
 30
0.000000
  70
    32
  0
VERTEX
  8
1
  5
619
 10
79.1041
 20
181.768
 30
0.000000
  70
    32
  0
VERTEX
  8
1
  5
61A
 10
79.0961
 20
181.751
 30
0.000000
  70
    32
  0
VERTEX
  8
1
  5
61B
 10
79.0879
 20
181.735
 30
0.000000
  70
    32
  0
VERTEX
  8
1
  5
61C
 10
79.0797
 20
181.718
 30
0.000000
  70
    32
  0
VERTEX
  8
1
  5
61D
 10
79.0714
 20
181.702
 30
0.000000
  70
    32
  0
VERTEX
  8
1
  5
61E
 10
79.0631
 20
181.685
 30
0.000000
  70
    32
  0
VERTEX
  8
1
  5
61F
 10
79.0547
 20
181.669
 30
0.000000
  70
    32
  0
VERTEX
  8
1
  5
620
 10
79.0462
 20
181.652
 30
0.000000
  70
    32
  0
VERTEX
  8
1
  5
621
 10
79.0376
 20
181.636
 30
0.000000
  70
    32
  0
VERTEX
  8
1
  5
622
 10
79.0290
 20
181.619
 30
0.000000
  70
    32
  0
VERTEX
  8
1
  5
623
 10
79.0203
 20
181.602
 30
0.000000
  70
    32
  0
VERTEX
  8
1
  5
624
 10
79.0115
 20
181.586
 30
0.000000
  70
    32
  0
VERTEX
  8
1
  5
625
 10
79.0026
 20
181.569
 30
0.000000
  70
    32
  0
VERTEX
  8
1
  5
626
 10
78.9937
 20
181.552
 30
0.000000
  70
    32
  0
VERTEX
  8
1
  5
627
 10
78.9848
 20
181.536
 30
0.000000
  70
    32
  0
VERTEX
  8
1
  5
628
 10
78.9757
 20
181.519
 30
0.000000
  70
    32
  0
VERTEX
  8
1
  5
629
 10
78.9666
 20
181.502
 30
0.000000
  70
    32
  0
VERTEX
  8
1
  5
62A
 10
78.9574
 20
181.485
 30
0.000000
  70
    32
  0
VERTEX
  8
1
  5
62B
 10
78.9482
 20
181.468
 30
0.000000
  70
    32
  0
VERTEX
  8
1
  5
62C
 10
78.9389
 20
181.452
 30
0.000000
  70
    32
  0
VERTEX
  8
1
  5
62D
 10
78.9295
 20
181.435
 30
0.000000
  70
    32
  0
VERTEX
  8
1
  5
62E
 10
78.9201
 20
181.418
 30
0.000000
  70
    32
  0
VERTEX
  8
1
  5
62F
 10
78.9106
 20
181.401
 30
0.000000
  70
    32
  0
VERTEX
  8
1
  5
630
 10
78.9010
 20
181.384
 30
0.000000
  70
    32
  0
VERTEX
  8
1
  5
631
 10
78.8914
 20
181.367
 30
0.000000
  70
    32
  0
VERTEX
  8
1
  5
632
 10
78.8817
 20
181.350
 30
0.000000
  70
    32
  0
VERTEX
  8
1
  5
633
 10
78.8719
 20
181.333
 30
0.000000
  70
    32
  0
VERTEX
  8
1
  5
634
 10
78.8621
 20
181.316
 30
0.000000
  70
    32
  0
VERTEX
  8
1
  5
635
 10
78.8522
 20
181.299
 30
0.000000
  70
    32
  0
VERTEX
  8
1
  5
636
 10
78.8423
 20
181.282
 30
0.000000
  70
    32
  0
VERTEX
  8
1
  5
637
 10
78.8323
 20
181.265
 30
0.000000
  70
    32
  0
VERTEX
  8
1
  5
638
 10
78.8222
 20
181.248
 30
0.000000
  70
    32
  0
VERTEX
  8
1
  5
639
 10
78.8121
 20
181.231
 30
0.000000
  70
    32
  0
VERTEX
  8
1
  5
63A
 10
78.8020
 20
181.214
 30
0.000000
  70
    32
  0
VERTEX
  8
1
  5
63B
 10
78.7917
 20
181.197
 30
0.000000
  70
    32
  0
VERTEX
  8
1
  5
63C
 10
78.7814
 20
181.180
 30
0.000000
  70
    32
  0
VERTEX
  8
1
  5
63D
 10
78.7711
 20
181.163
 30
0.000000
  70
    32
  0
VERTEX
  8
1
  5
63E
 10
78.7607
 20
181.145
 30
0.000000
  70
    32
  0
VERTEX
  8
1
  5
63F
 10
78.7502
 20
181.128
 30
0.000000
  70
    32
  0
VERTEX
  8
1
  5
640
 10
78.7397
 20
181.111
 30
0.000000
  70
    32
  0
VERTEX
  8
1
  5
641
 10
78.7291
 20
181.094
 30
0.000000
  70
    32
  0
VERTEX
  8
1
  5
642
 10
78.7185
 20
181.076
 30
0.000000
  70
    32
  0
VERTEX
  8
1
  5
643
 10
78.7078
 20
181.059
 30
0.000000
  70
    32
  0
VERTEX
  8
1
  5
644
 10
78.6971
 20
181.042
 30
0.000000
  70
    32
  0
VERTEX
  8
1
  5
645
 10
78.6863
 20
181.025
 30
0.000000
  70
    32
  0
VERTEX
  8
1
  5
646
 10
78.6754
 20
181.007
 30
0.000000
  70
    32
  0
VERTEX
  8
1
  5
647
 10
78.6645
 20
180.990
 30
0.000000
  70
    32
  0
VERTEX
  8
1
  5
648
 10
78.6535
 20
180.973
 30
0.000000
  70
    32
  0
VERTEX
  8
1
  5
649
 10
78.6425
 20
180.955
 30
0.000000
  70
    32
  0
VERTEX
  8
1
  5
64A
 10
78.6315
 20
180.938
 30
0.000000
  70
    32
  0
VERTEX
  8
1
  5
64B
 10
78.6204
 20
180.920
 30
0.000000
  70
    32
  0
VERTEX
  8
1
  5
64C
 10
78.6092
 20
180.903
 30
0.000000
  70
    32
  0
VERTEX
  8
1
  5
64D
 10
78.5980
 20
180.886
 30
0.000000
  70
    32
  0
VERTEX
  8
1
  5
64E
 10
78.5867
 20
180.868
 30
0.000000
  70
    32
  0
VERTEX
  8
1
  5
64F
 10
78.5754
 20
180.851
 30
0.000000
  70
    32
  0
VERTEX
  8
1
  5
650
 10
78.5640
 20
180.833
 30
0.000000
  70
    32
  0
VERTEX
  8
1
  5
651
 10
78.5526
 20
180.816
 30
0.000000
  70
    32
  0
VERTEX
  8
1
  5
652
 10
78.5412
 20
180.798
 30
0.000000
  70
    32
  0
VERTEX
  8
1
  5
653
 10
78.5297
 20
180.781
 30
0.000000
  70
    32
  0
VERTEX
  8
1
  5
654
 10
78.5181
 20
180.763
 30
0.000000
  70
    32
  0
VERTEX
  8
1
  5
655
 10
78.5065
 20
180.745
 30
0.000000
  70
    32
  0
VERTEX
  8
1
  5
656
 10
78.4949
 20
180.728
 30
0.000000
  70
    32
  0
VERTEX
  8
1
  5
657
 10
78.4832
 20
180.710
 30
0.000000
  70
    32
  0
VERTEX
  8
1
  5
658
 10
78.4714
 20
180.693
 30
0.000000
  70
    32
  0
VERTEX
  8
1
  5
659
 10
78.4596
 20
180.675
 30
0.000000
  70
    32
  0
VERTEX
  8
1
  5
65A
 10
78.4478
 20
180.657
 30
0.000000
  70
    32
  0
VERTEX
  8
1
  5
65B
 10
78.4359
 20
180.640
 30
0.000000
  70
    32
  0
VERTEX
  8
1
  5
65C
 10
78.4240
 20
180.622
 30
0.000000
  70
    32
  0
VERTEX
  8
1
  5
65D
 10
78.4120
 20
180.604
 30
0.000000
  70
    32
  0
VERTEX
  8
1
  5
65E
 10
78.4000
 20
180.587
 30
0.000000
  70
    32
  0
VERTEX
  8
1
  5
65F
 10
78.3880
 20
180.569
 30
0.000000
  70
    32
  0
VERTEX
  8
1
  5
660
 10
78.3759
 20
180.551
 30
0.000000
  70
    32
  0
VERTEX
  8
1
  5
661
 10
78.3638
 20
180.533
 30
0.000000
  70
    32
  0
VERTEX
  8
1
  5
662
 10
78.3516
 20
180.516
 30
0.000000
  70
    32
  0
VERTEX
  8
1
  5
663
 10
78.3394
 20
180.498
 30
0.000000
  70
    32
  0
VERTEX
  8
1
  5
664
 10
78.3272
 20
180.480
 30
0.000000
  70
    32
  0
VERTEX
  8
1
  5
665
 10
78.3149
 20
180.462
 30
0.000000
  70
    32
  0
VERTEX
  8
1
  5
666
 10
78.3026
 20
180.444
 30
0.000000
  70
    32
  0
VERTEX
  8
1
  5
667
 10
78.2902
 20
180.426
 30
0.000000
  70
    32
  0
VERTEX
  8
1
  5
668
 10
78.2778
 20
180.408
 30
0.000000
  70
    32
  0
VERTEX
  8
1
  5
669
 10
78.2654
 20
180.391
 30
0.000000
  70
    32
  0
VERTEX
  8
1
  5
66A
 10
78.2529
 20
180.373
 30
0.000000
  70
    32
  0
VERTEX
  8
1
  5
66B
 10
78.2404
 20
180.355
 30
0.000000
  70
    32
  0
VERTEX
  8
1
  5
66C
 10
78.2279
 20
180.337
 30
0.000000
  70
    32
  0
VERTEX
  8
1
  5
66D
 10
78.2153
 20
180.319
 30
0.000000
  70
    32
  0
VERTEX
  8
1
  5
66E
 10
78.2027
 20
180.301
 30
0.000000
  70
    32
  0
VERTEX
  8
1
  5
66F
 10
78.1901
 20
180.283
 30
0.000000
  70
    32
  0
VERTEX
  8
1
  5
670
 10
78.1774
 20
180.265
 30
0.000000
  70
    32
  0
VERTEX
  8
1
  5
671
 10
78.1647
 20
180.247
 30
0.000000
  70
    32
  0
VERTEX
  8
1
  5
672
 10
78.1520
 20
180.229
 30
0.000000
  70
    32
  0
VERTEX
  8
1
  5
673
 10
78.1392
 20
180.211
 30
0.000000
  70
    32
  0
VERTEX
  8
1
  5
674
 10
78.1264
 20
180.193
 30
0.000000
  70
    32
  0
VERTEX
  8
1
  5
675
 10
78.1136
 20
180.175
 30
0.000000
  70
    32
  0
VERTEX
  8
1
  5
676
 10
78.1007
 20
180.156
 30
0.000000
  70
    32
  0
VERTEX
  8
1
  5
677
 10
78.0879
 20
180.138
 30
0.000000
  70
    32
  0
VERTEX
  8
1
  5
678
 10
78.0749
 20
180.120
 30
0.000000
  70
    32
  0
VERTEX
  8
1
  5
679
 10
78.0620
 20
180.102
 30
0.000000
  70
    32
  0
VERTEX
  8
1
  5
67A
 10
78.0490
 20
180.084
 30
0.000000
  70
    32
  0
VERTEX
  8
1
  5
67B
 10
78.0361
 20
180.066
 30
0.000000
  70
    32
  0
VERTEX
  8
1
  5
67C
 10
78.0230
 20
180.048
 30
0.000000
  70
    32
  0
VERTEX
  8
1
  5
67D
 10
78.0100
 20
180.029
 30
0.000000
  70
    32
  0
VERTEX
  8
1
  5
67E
 10
77.9969
 20
180.011
 30
0.000000
  70
    32
  0
VERTEX
  8
1
  5
67F
 10
77.9838
 20
179.993
 30
0.000000
  70
    32
  0
VERTEX
  8
1
  5
680
 10
77.9707
 20
179.975
 30
0.000000
  70
    32
  0
VERTEX
  8
1
  5
681
 10
77.9576
 20
179.956
 30
0.000000
  70
    32
  0
VERTEX
  8
1
  5
682
 10
77.9444
 20
179.938
 30
0.000000
  70
    32
  0
VERTEX
  8
1
  5
683
 10
77.9312
 20
179.920
 30
0.000000
  70
    32
  0
VERTEX
  8
1
  5
684
 10
77.9180
 20
179.901
 30
0.000000
  70
    32
  0
VERTEX
  8
1
  5
685
 10
77.9048
 20
179.883
 30
0.000000
  70
    32
  0
VERTEX
  8
1
  5
686
 10
77.8915
 20
179.865
 30
0.000000
  70
    32
  0
VERTEX
  8
1
  5
687
 10
77.8783
 20
179.846
 30
0.000000
  70
    32
  0
VERTEX
  8
1
  5
688
 10
77.8650
 20
179.828
 30
0.000000
  70
    32
  0
VERTEX
  8
1
  5
689
 10
77.8517
 20
179.809
 30
0.000000
  70
    32
  0
VERTEX
  8
1
  5
68A
 10
77.8383
 20
179.791
 30
0.000000
  70
    32
  0
VERTEX
  8
1
  5
68B
 10
77.8250
 20
179.773
 30
0.000000
  70
    32
  0
VERTEX
  8
1
  5
68C
 10
77.8116
 20
179.754
 30
0.000000
  70
    32
  0
VERTEX
  8
1
  5
68D
 10
77.7982
 20
179.736
 30
0.000000
  70
    32
  0
VERTEX
  8
1
  5
68E
 10
77.7849
 20
179.717
 30
0.000000
  70
    32
  0
VERTEX
  8
1
  5
68F
 10
77.7714
 20
179.699
 30
0.000000
  70
    32
  0
VERTEX
  8
1
  5
690
 10
77.7580
 20
179.680
 30
0.000000
  70
    32
  0
VERTEX
  8
1
  5
691
 10
77.7446
 20
179.662
 30
0.000000
  70
    32
  0
VERTEX
  8
1
  5
692
 10
77.7311
 20
179.643
 30
0.000000
  70
    32
  0
VERTEX
  8
1
  5
693
 10
77.7176
 20
179.625
 30
0.000000
  70
    32
  0
VERTEX
  8
1
  5
694
 10
77.7042
 20
179.606
 30
0.000000
  70
    32
  0
VERTEX
  8
1
  5
695
 10
77.6907
 20
179.587
 30
0.000000
  70
    32
  0
SEQEND
  8
1
  5
696
  0
POLYLINE
  8
1
  5
697
  66
     1
 10
0.000000
 20
0.000000
 30
0.000000
  70
     8
  0
VERTEX
  8
1
  5
698
 10
81.5000
 20
194.500
 30
0.000000
  70
    32
  0
VERTEX
  8
1
  5
699
 10
81.4576
 20
194.419
 30
0.000000
  70
    32
  0
VERTEX
  8
1
  5
69A
 10
81.4152
 20
194.339
 30
0.000000
  70
    32
  0
VERTEX
  8
1
  5
69B
 10
81.3729
 20
194.258
 30
0.000000
  70
    32
  0
VERTEX
  8
1
  5
69C
 10
81.3306
 20
194.177
 30
0.000000
  70
    32
  0
VERTEX
  8
1
  5
69D
 10
81.2884
 20
194.097
 30
0.000000
  70
    32
  0
VERTEX
  8
1
  5
69E
 10
81.2462
 20
194.016
 30
0.000000
  70
    32
  0
VERTEX
  8
1
  5
69F
 10
81.2042
 20
193.935
 30
0.000000
  70
    32
  0
VERTEX
  8
1
  5
6A0
 10
81.1623
 20
193.854
 30
0.000000
  70
    32
  0
VERTEX
  8
1
  5
6A1
 10
81.1205
 20
193.774
 30
0.000000
  70
    32
  0
VERTEX
  8
1
  5
6A2
 10
81.0788
 20
193.693
 30
0.000000
  70
    32
  0
VERTEX
  8
1
  5
6A3
 10
81.0373
 20
193.612
 30
0.000000
  70
    32
  0
VERTEX
  8
1
  5
6A4
 10
80.9960
 20
193.531
 30
0.000000
  70
    32
  0
VERTEX
  8
1
  5
6A5
 10
80.9549
 20
193.451
 30
0.000000
  70
    32
  0
VERTEX
  8
1
  5
6A6
 10
80.9140
 20
193.370
 30
0.000000
  70
    32
  0
VERTEX
  8
1
  5
6A7
 10
80.8733
 20
193.289
 30
0.000000
  70
    32
  0
VERTEX
  8
1
  5
6A8
 10
80.8329
 20
193.208
 30
0.000000
  70
    32
  0
VERTEX
  8
1
  5
6A9
 10
80.7927
 20
193.127
 30
0.000000
  70
    32
  0
VERTEX
  8
1
  5
6AA
 10
80.7528
 20
193.047
 30
0.000000
  70
    32
  0
VERTEX
  8
1
  5
6AB
 10
80.7133
 20
192.966
 30
0.000000
  70
    32
  0
VERTEX
  8
1
  5
6AC
 10
80.6740
 20
192.885
 30
0.000000
  70
    32
  0
VERTEX
  8
1
  5
6AD
 10
80.6350
 20
192.804
 30
0.000000
  70
    32
  0
VERTEX
  8
1
  5
6AE
 10
80.5964
 20
192.723
 30
0.000000
  70
    32
  0
VERTEX
  8
1
  5
6AF
 10
80.5582
 20
192.642
 30
0.000000
  70
    32
  0
VERTEX
  8
1
  5
6B0
 10
80.5203
 20
192.561
 30
0.000000
  70
    32
  0
VERTEX
  8
1
  5
6B1
 10
80.4828
 20
192.480
 30
0.000000
  70
    32
  0
VERTEX
  8
1
  5
6B2
 10
80.4458
 20
192.399
 30
0.000000
  70
    32
  0
VERTEX
  8
1
  5
6B3
 10
80.4091
 20
192.318
 30
0.000000
  70
    32
  0
VERTEX
  8
1
  5
6B4
 10
80.3729
 20
192.236
 30
0.000000
  70
    32
  0
VERTEX
  8
1
  5
6B5
 10
80.3372
 20
192.155
 30
0.000000
  70
    32
  0
VERTEX
  8
1
  5
6B6
 10
80.3019
 20
192.074
 30
0.000000
  70
    32
  0
VERTEX
  8
1
  5
6B7
 10
80.2671
 20
191.993
 30
0.000000
  70
    32
  0
VERTEX
  8
1
  5
6B8
 10
80.2329
 20
191.912
 30
0.000000
  70
    32
  0
VERTEX
  8
1
  5
6B9
 10
80.1991
 20
191.830
 30
0.000000
  70
    32
  0
VERTEX
  8
1
  5
6BA
 10
80.1659
 20
191.749
 30
0.000000
  70
    32
  0
VERTEX
  8
1
  5
6BB
 10
80.1333
 20
191.668
 30
0.000000
  70
    32
  0
VERTEX
  8
1
  5
6BC
 10
80.1012
 20
191.586
 30
0.000000
  70
    32
  0
VERTEX
  8
1
  5
6BD
 10
80.0697
 20
191.505
 30
0.000000
  70
    32
  0
VERTEX
  8
1
  5
6BE
 10
80.0389
 20
191.423
 30
0.000000
  70
    32
  0
VERTEX
  8
1
  5
6BF
 10
80.0086
 20
191.342
 30
0.000000
  70
    32
  0
VERTEX
  8
1
  5
6C0
 10
79.9790
 20
191.260
 30
0.000000
  70
    32
  0
VERTEX
  8
1
  5
6C1
 10
79.9500
 20
191.178
 30
0.000000
  70
    32
  0
VERTEX
  8
1
  5
6C2
 10
79.9218
 20
191.097
 30
0.000000
  70
    32
  0
VERTEX
  8
1
  5
6C3
 10
79.8942
 20
191.015
 30
0.000000
  70
    32
  0
VERTEX
  8
1
  5
6C4
 10
79.8673
 20
190.933
 30
0.000000
  70
    32
  0
VERTEX
  8
1
  5
6C5
 10
79.8411
 20
190.851
 30
0.000000
  70
    32
  0
VERTEX
  8
1
  5
6C6
 10
79.8157
 20
190.769
 30
0.000000
  70
    32
  0
VERTEX
  8
1
  5
6C7
 10
79.7910
 20
190.687
 30
0.000000
  70
    32
  0
VERTEX
  8
1
  5
6C8
 10
79.7671
 20
190.605
 30
0.000000
  70
    32
  0
VERTEX
  8
1
  5
6C9
 10
79.7439
 20
190.523
 30
0.000000
  70
    32
  0
VERTEX
  8
1
  5
6CA
 10
79.7216
 20
190.441
 30
0.000000
  70
    32
  0
VERTEX
  8
1
  5
6CB
 10
79.7001
 20
190.359
 30
0.000000
  70
    32
  0
VERTEX
  8
1
  5
6CC
 10
79.6794
 20
190.277
 30
0.000000
  70
    32
  0
VERTEX
  8
1
  5
6CD
 10
79.6596
 20
190.194
 30
0.000000
  70
    32
  0
VERTEX
  8
1
  5
6CE
 10
79.6407
 20
190.112
 30
0.000000
  70
    32
  0
VERTEX
  8
1
  5
6CF
 10
79.6226
 20
190.029
 30
0.000000
  70
    32
  0
VERTEX
  8
1
  5
6D0
 10
79.6054
 20
189.947
 30
0.000000
  70
    32
  0
VERTEX
  8
1
  5
6D1
 10
79.5892
 20
189.864
 30
0.000000
  70
    32
  0
VERTEX
  8
1
  5
6D2
 10
79.5739
 20
189.782
 30
0.000000
  70
    32
  0
VERTEX
  8
1
  5
6D3
 10
79.5595
 20
189.699
 30
0.000000
  70
    32
  0
VERTEX
  8
1
  5
6D4
 10
79.5461
 20
189.616
 30
0.000000
  70
    32
  0
VERTEX
  8
1
  5
6D5
 10
79.5337
 20
189.533
 30
0.000000
  70
    32
  0
VERTEX
  8
1
  5
6D6
 10
79.5223
 20
189.451
 30
0.000000
  70
    32
  0
VERTEX
  8
1
  5
6D7
 10
79.5119
 20
189.368
 30
0.000000
  70
    32
  0
VERTEX
  8
1
  5
6D8
 10
79.5025
 20
189.284
 30
0.000000
  70
    32
  0
VERTEX
  8
1
  5
6D9
 10
79.4942
 20
189.201
 30
0.000000
  70
    32
  0
VERTEX
  8
1
  5
6DA
 10
79.4869
 20
189.118
 30
0.000000
  70
    32
  0
VERTEX
  8
1
  5
6DB
 10
79.4808
 20
189.035
 30
0.000000
  70
    32
  0
VERTEX
  8
1
  5
6DC
 10
79.4757
 20
188.951
 30
0.000000
  70
    32
  0
VERTEX
  8
1
  5
6DD
 10
79.4717
 20
188.868
 30
0.000000
  70
    32
  0
VERTEX
  8
1
  5
6DE
 10
79.4689
 20
188.784
 30
0.000000
  70
    32
  0
VERTEX
  8
1
  5
6DF
 10
79.4672
 20
188.701
 30
0.000000
  70
    32
  0
VERTEX
  8
1
  5
6E0
 10
79.4667
 20
188.617
 30
0.000000
  70
    32
  0
VERTEX
  8
1
  5
6E1
 10
79.4673
 20
188.533
 30
0.000000
  70
    32
  0
VERTEX
  8
1
  5
6E2
 10
79.4692
 20
188.449
 30
0.000000
  70
    32
  0
VERTEX
  8
1
  5
6E3
 10
79.4723
 20
188.365
 30
0.000000
  70
    32
  0
VERTEX
  8
1
  5
6E4
 10
79.4765
 20
188.281
 30
0.000000
  70
    32
  0
VERTEX
  8
1
  5
6E5
 10
79.4821
 20
188.197
 30
0.000000
  70
    32
  0
VERTEX
  8
1
  5
6E6
 10
79.4889
 20
188.113
 30
0.000000
  70
    32
  0
VERTEX
  8
1
  5
6E7
 10
79.4970
 20
188.029
 30
0.000000
  70
    32
  0
VERTEX
  8
1
  5
6E8
 10
79.5063
 20
187.944
 30
0.000000
  70
    32
  0
VERTEX
  8
1
  5
6E9
 10
79.5170
 20
187.860
 30
0.000000
  70
    32
  0
VERTEX
  8
1
  5
6EA
 10
79.5288
 20
187.775
 30
0.000000
  70
    32
  0
VERTEX
  8
1
  5
6EB
 10
79.5418
 20
187.690
 30
0.000000
  70
    32
  0
VERTEX
  8
1
  5
6EC
 10
79.5559
 20
187.606
 30
0.000000
  70
    32
  0
VERTEX
  8
1
  5
6ED
 10
79.5711
 20
187.521
 30
0.000000
  70
    32
  0
VERTEX
  8
1
  5
6EE
 10
79.5873
 20
187.436
 30
0.000000
  70
    32
  0
VERTEX
  8
1
  5
6EF
 10
79.6044
 20
187.351
 30
0.000000
  70
    32
  0
VERTEX
  8
1
  5
6F0
 10
79.6224
 20
187.266
 30
0.000000
  70
    32
  0
VERTEX
  8
1
  5
6F1
 10
79.6412
 20
187.181
 30
0.000000
  70
    32
  0
VERTEX
  8
1
  5
6F2
 10
79.6609
 20
187.096
 30
0.000000
  70
    32
  0
VERTEX
  8
1
  5
6F3
 10
79.6813
 20
187.011
 30
0.000000
  70
    32
  0
VERTEX
  8
1
  5
6F4
 10
79.7024
 20
186.926
 30
0.000000
  70
    32
  0
VERTEX
  8
1
  5
6F5
 10
79.7241
 20
186.840
 30
0.000000
  70
    32
  0
VERTEX
  8
1
  5
6F6
 10
79.7464
 20
186.755
 30
0.000000
  70
    32
  0
VERTEX
  8
1
  5
6F7
 10
79.7692
 20
186.670
 30
0.000000
  70
    32
  0
VERTEX
  8
1
  5
6F8
 10
79.7925
 20
186.585
 30
0.000000
  70
    32
  0
VERTEX
  8
1
  5
6F9
 10
79.8162
 20
186.500
 30
0.000000
  70
    32
  0
VERTEX
  8
1
  5
6FA
 10
79.8403
 20
186.414
 30
0.000000
  70
    32
  0
VERTEX
  8
1
  5
6FB
 10
79.8647
 20
186.329
 30
0.000000
  70
    32
  0
VERTEX
  8
1
  5
6FC
 10
79.8894
 20
186.244
 30
0.000000
  70
    32
  0
VERTEX
  8
1
  5
6FD
 10
79.9143
 20
186.159
 30
0.000000
  70
    32
  0
VERTEX
  8
1
  5
6FE
 10
79.9393
 20
186.074
 30
0.000000
  70
    32
  0
VERTEX
  8
1
  5
6FF
 10
79.9645
 20
185.988
 30
0.000000
  70
    32
  0
VERTEX
  8
1
  5
700
 10
79.9897
 20
185.903
 30
0.000000
  70
    32
  0
VERTEX
  8
1
  5
701
 10
80.0149
 20
185.818
 30
0.000000
  70
    32
  0
VERTEX
  8
1
  5
702
 10
80.0401
 20
185.733
 30
0.000000
  70
    32
  0
VERTEX
  8
1
  5
703
 10
80.0652
 20
185.648
 30
0.000000
  70
    32
  0
VERTEX
  8
1
  5
704
 10
80.0901
 20
185.563
 30
0.000000
  70
    32
  0
VERTEX
  8
1
  5
705
 10
80.1148
 20
185.478
 30
0.000000
  70
    32
  0
VERTEX
  8
1
  5
706
 10
80.1392
 20
185.394
 30
0.000000
  70
    32
  0
VERTEX
  8
1
  5
707
 10
80.1633
 20
185.309
 30
0.000000
  70
    32
  0
VERTEX
  8
1
  5
708
 10
80.1871
 20
185.224
 30
0.000000
  70
    32
  0
VERTEX
  8
1
  5
709
 10
80.2105
 20
185.140
 30
0.000000
  70
    32
  0
VERTEX
  8
1
  5
70A
 10
80.2333
 20
185.055
 30
0.000000
  70
    32
  0
VERTEX
  8
1
  5
70B
 10
80.2557
 20
184.971
 30
0.000000
  70
    32
  0
VERTEX
  8
1
  5
70C
 10
80.2775
 20
184.886
 30
0.000000
  70
    32
  0
VERTEX
  8
1
  5
70D
 10
80.2986
 20
184.802
 30
0.000000
  70
    32
  0
VERTEX
  8
1
  5
70E
 10
80.3191
 20
184.718
 30
0.000000
  70
    32
  0
VERTEX
  8
1
  5
70F
 10
80.3389
 20
184.634
 30
0.000000
  70
    32
  0
VERTEX
  8
1
  5
710
 10
80.3578
 20
184.550
 30
0.000000
  70
    32
  0
VERTEX
  8
1
  5
711
 10
80.3759
 20
184.466
 30
0.000000
  70
    32
  0
VERTEX
  8
1
  5
712
 10
80.3932
 20
184.383
 30
0.000000
  70
    32
  0
VERTEX
  8
1
  5
713
 10
80.4094
 20
184.299
 30
0.000000
  70
    32
  0
VERTEX
  8
1
  5
714
 10
80.4247
 20
184.216
 30
0.000000
  70
    32
  0
VERTEX
  8
1
  5
715
 10
80.4390
 20
184.133
 30
0.000000
  70
    32
  0
VERTEX
  8
1
  5
716
 10
80.4521
 20
184.050
 30
0.000000
  70
    32
  0
VERTEX
  8
1
  5
717
 10
80.4641
 20
183.967
 30
0.000000
  70
    32
  0
VERTEX
  8
1
  5
718
 10
80.4749
 20
183.884
 30
0.000000
  70
    32
  0
VERTEX
  8
1
  5
719
 10
80.4844
 20
183.801
 30
0.000000
  70
    32
  0
VERTEX
  8
1
  5
71A
 10
80.4926
 20
183.719
 30
0.000000
  70
    32
  0
VERTEX
  8
1
  5
71B
 10
80.4995
 20
183.637
 30
0.000000
  70
    32
  0
VERTEX
  8
1
  5
71C
 10
80.5049
 20
183.555
 30
0.000000
  70
    32
  0
VERTEX
  8
1
  5
71D
 10
80.5089
 20
183.473
 30
0.000000
  70
    32
  0
VERTEX
  8
1
  5
71E
 10
80.5113
 20
183.391
 30
0.000000
  70
    32
  0
VERTEX
  8
1
  5
71F
 10
80.5122
 20
183.310
 30
0.000000
  70
    32
  0
VERTEX
  8
1
  5
720
 10
80.5114
 20
183.229
 30
0.000000
  70
    32
  0
VERTEX
  8
1
  5
721
 10
80.5090
 20
183.148
 30
0.000000
  70
    32
  0
VERTEX
  8
1
  5
722
 10
80.5048
 20
183.067
 30
0.000000
  70
    32
  0
VERTEX
  8
1
  5
723
 10
80.4988
 20
182.986
 30
0.000000
  70
    32
  0
VERTEX
  8
1
  5
724
 10
80.4911
 20
182.906
 30
0.000000
  70
    32
  0
VERTEX
  8
1
  5
725
 10
80.4815
 20
182.825
 30
0.000000
  70
    32
  0
VERTEX
  8
1
  5
726
 10
80.4702
 20
182.745
 30
0.000000
  70
    32
  0
VERTEX
  8
1
  5
727
 10
80.4572
 20
182.666
 30
0.000000
  70
    32
  0
VERTEX
  8
1
  5
728
 10
80.4425
 20
182.586
 30
0.000000
  70
    32
  0
VERTEX
  8
1
  5
729
 10
80.4261
 20
182.507
 30
0.000000
  70
    32
  0
VERTEX
  8
1
  5
72A
 10
80.4082
 20
182.428
 30
0.000000
  70
    32
  0
VERTEX
  8
1
  5
72B
 10
80.3886
 20
182.349
 30
0.000000
  70
    32
  0
VERTEX
  8
1
  5
72C
 10
80.3675
 20
182.270
 30
0.000000
  70
    32
  0
VERTEX
  8
1
  5
72D
 10
80.3450
 20
182.191
 30
0.000000
  70
    32
  0
VERTEX
  8
1
  5
72E
 10
80.3209
 20
182.113
 30
0.000000
  70
    32
  0
VERTEX
  8
1
  5
72F
 10
80.2954
 20
182.035
 30
0.000000
  70
    32
  0
VERTEX
  8
1
  5
730
 10
80.2685
 20
181.957
 30
0.000000
  70
    32
  0
VERTEX
  8
1
  5
731
 10
80.2402
 20
181.879
 30
0.000000
  70
    32
  0
VERTEX
  8
1
  5
732
 10
80.2107
 20
181.801
 30
0.000000
  70
    32
  0
VERTEX
  8
1
  5
733
 10
80.1798
 20
181.723
 30
0.000000
  70
    32
  0
VERTEX
  8
1
  5
734
 10
80.1476
 20
181.646
 30
0.000000
  70
    32
  0
VERTEX
  8
1
  5
735
 10
80.1142
 20
181.569
 30
0.000000
  70
    32
  0
VERTEX
  8
1
  5
736
 10
80.0797
 20
181.492
 30
0.000000
  70
    32
  0
VERTEX
  8
1
  5
737
 10
80.0439
 20
181.415
 30
0.000000
  70
    32
  0
VERTEX
  8
1
  5
738
 10
80.0071
 20
181.338
 30
0.000000
  70
    32
  0
VERTEX
  8
1
  5
739
 10
79.9692
 20
181.261
 30
0.000000
  70
    32
  0
VERTEX
  8
1
  5
73A
 10
79.9302
 20
181.184
 30
0.000000
  70
    32
  0
VERTEX
  8
1
  5
73B
 10
79.8902
 20
181.108
 30
0.000000
  70
    32
  0
VERTEX
  8
1
  5
73C
 10
79.8492
 20
181.032
 30
0.000000
  70
    32
  0
VERTEX
  8
1
  5
73D
 10
79.8073
 20
180.955
 30
0.000000
  70
    32
  0
VERTEX
  8
1
  5
73E
 10
79.7644
 20
180.879
 30
0.000000
  70
    32
  0
VERTEX
  8
1
  5
73F
 10
79.7207
 20
180.803
 30
0.000000
  70
    32
  0
VERTEX
  8
1
  5
740
 10
79.6762
 20
180.727
 30
0.000000
  70
    32
  0
VERTEX
  8
1
  5
741
 10
79.6308
 20
180.652
 30
0.000000
  70
    32
  0
VERTEX
  8
1
  5
742
 10
79.5847
 20
180.576
 30
0.000000
  70
    32
  0
VERTEX
  8
1
  5
743
 10
79.5378
 20
180.500
 30
0.000000
  70
    32
  0
VERTEX
  8
1
  5
744
 10
79.4903
 20
180.425
 30
0.000000
  70
    32
  0
VERTEX
  8
1
  5
745
 10
79.4420
 20
180.349
 30
0.000000
  70
    32
  0
VERTEX
  8
1
  5
746
 10
79.3932
 20
180.274
 30
0.000000
  70
    32
  0
VERTEX
  8
1
  5
747
 10
79.3437
 20
180.199
 30
0.000000
  70
    32
  0
VERTEX
  8
1
  5
748
 10
79.2937
 20
180.123
 30
0.000000
  70
    32
  0
VERTEX
  8
1
  5
749
 10
79.2432
 20
180.048
 30
0.000000
  70
    32
  0
VERTEX
  8
1
  5
74A
 10
79.1921
 20
179.973
 30
0.000000
  70
    32
  0
VERTEX
  8
1
  5
74B
 10
79.1406
 20
179.898
 30
0.000000
  70
    32
  0
VERTEX
  8
1
  5
74C
 10
79.0887
 20
179.823
 30
0.000000
  70
    32
  0
VERTEX
  8
1
  5
74D
 10
79.0364
 20
179.748
 30
0.000000
  70
    32
  0
VERTEX
  8
1
  5
74E
 10
78.9838
 20
179.673
 30
0.000000
  70
    32
  0
VERTEX
  8
1
  5
74F
 10
78.9308
 20
179.598
 30
0.000000
  70
    32
  0
VERTEX
  8
1
  5
750
 10
78.8776
 20
179.523
 30
0.000000
  70
    32
  0
VERTEX
  8
1
  5
751
 10
78.8241
 20
179.449
 30
0.000000
  70
    32
  0
VERTEX
  8
1
  5
752
 10
78.7704
 20
179.374
 30
0.000000
  70
    32
  0
VERTEX
  8
1
  5
753
 10
78.7165
 20
179.299
 30
0.000000
  70
    32
  0
VERTEX
  8
1
  5
754
 10
78.6625
 20
179.224
 30
0.000000
  70
    32
  0
VERTEX
  8
1
  5
755
 10
78.6084
 20
179.149
 30
0.000000
  70
    32
  0
VERTEX
  8
1
  5
756
 10
78.5542
 20
179.075
 30
0.000000
  70
    32
  0
VERTEX
  8
1
  5
757
 10
78.5000
 20
179.000
 30
0.000000
  70
    32
  0
SEQEND
  8
1
  5
758
  0
POLYLINE
  8
1
  5
759
  66
     1
 10
0.000000
 20
0.000000
 30
0.000000
  70
     8
  0
VERTEX
  8
1
  5
75A
 10
81.5000
 20
288.500
 30
0.000000
  70
    32
  0
VERTEX
  8
1
  5
75B
 10
81.4576
 20
288.419
 30
0.000000
  70
    32
  0
VERTEX
  8
1
  5
75C
 10
81.4152
 20
288.339
 30
0.000000
  70
    32
  0
VERTEX
  8
1
  5
75D
 10
81.3729
 20
288.258
 30
0.000000
  70
    32
  0
VERTEX
  8
1
  5
75E
 10
81.3306
 20
288.177
 30
0.000000
  70
    32
  0
VERTEX
  8
1
  5
75F
 10
81.2884
 20
288.097
 30
0.000000
  70
    32
  0
VERTEX
  8
1
  5
760
 10
81.2462
 20
288.016
 30
0.000000
  70
    32
  0
VERTEX
  8
1
  5
761
 10
81.2042
 20
287.935
 30
0.000000
  70
    32
  0
VERTEX
  8
1
  5
762
 10
81.1623
 20
287.854
 30
0.000000
  70
    32
  0
VERTEX
  8
1
  5
763
 10
81.1205
 20
287.774
 30
0.000000
  70
    32
  0
VERTEX
  8
1
  5
764
 10
81.0788
 20
287.693
 30
0.000000
  70
    32
  0
VERTEX
  8
1
  5
765
 10
81.0373
 20
287.612
 30
0.000000
  70
    32
  0
VERTEX
  8
1
  5
766
 10
80.9960
 20
287.531
 30
0.000000
  70
    32
  0
VERTEX
  8
1
  5
767
 10
80.9549
 20
287.451
 30
0.000000
  70
    32
  0
VERTEX
  8
1
  5
768
 10
80.9140
 20
287.370
 30
0.000000
  70
    32
  0
VERTEX
  8
1
  5
769
 10
80.8733
 20
287.289
 30
0.000000
  70
    32
  0
VERTEX
  8
1
  5
76A
 10
80.8329
 20
287.208
 30
0.000000
  70
    32
  0
VERTEX
  8
1
  5
76B
 10
80.7927
 20
287.127
 30
0.000000
  70
    32
  0
VERTEX
  8
1
  5
76C
 10
80.7528
 20
287.047
 30
0.000000
  70
    32
  0
VERTEX
  8
1
  5
76D
 10
80.7133
 20
286.966
 30
0.000000
  70
    32
  0
VERTEX
  8
1
  5
76E
 10
80.6740
 20
286.885
 30
0.000000
  70
    32
  0
VERTEX
  8
1
  5
76F
 10
80.6350
 20
286.804
 30
0.000000
  70
    32
  0
VERTEX
  8
1
  5
770
 10
80.5964
 20
286.723
 30
0.000000
  70
    32
  0
VERTEX
  8
1
  5
771
 10
80.5582
 20
286.642
 30
0.000000
  70
    32
  0
VERTEX
  8
1
  5
772
 10
80.5203
 20
286.561
 30
0.000000
  70
    32
  0
VERTEX
  8
1
  5
773
 10
80.4828
 20
286.480
 30
0.000000
  70
    32
  0
VERTEX
  8
1
  5
774
 10
80.4458
 20
286.399
 30
0.000000
  70
    32
  0
VERTEX
  8
1
  5
775
 10
80.4091
 20
286.318
 30
0.000000
  70
    32
  0
VERTEX
  8
1
  5
776
 10
80.3729
 20
286.236
 30
0.000000
  70
    32
  0
VERTEX
  8
1
  5
777
 10
80.3372
 20
286.155
 30
0.000000
  70
    32
  0
VERTEX
  8
1
  5
778
 10
80.3019
 20
286.074
 30
0.000000
  70
    32
  0
VERTEX
  8
1
  5
779
 10
80.2671
 20
285.993
 30
0.000000
  70
    32
  0
VERTEX
  8
1
  5
77A
 10
80.2329
 20
285.912
 30
0.000000
  70
    32
  0
VERTEX
  8
1
  5
77B
 10
80.1991
 20
285.830
 30
0.000000
  70
    32
  0
VERTEX
  8
1
  5
77C
 10
80.1659
 20
285.749
 30
0.000000
  70
    32
  0
VERTEX
  8
1
  5
77D
 10
80.1333
 20
285.668
 30
0.000000
  70
    32
  0
VERTEX
  8
1
  5
77E
 10
80.1012
 20
285.586
 30
0.000000
  70
    32
  0
VERTEX
  8
1
  5
77F
 10
80.0697
 20
285.505
 30
0.000000
  70
    32
  0
VERTEX
  8
1
  5
780
 10
80.0389
 20
285.423
 30
0.000000
  70
    32
  0
VERTEX
  8
1
  5
781
 10
80.0086
 20
285.342
 30
0.000000
  70
    32
  0
VERTEX
  8
1
  5
782
 10
79.9790
 20
285.260
 30
0.000000
  70
    32
  0
VERTEX
  8
1
  5
783
 10
79.9500
 20
285.178
 30
0.000000
  70
    32
  0
VERTEX
  8
1
  5
784
 10
79.9218
 20
285.097
 30
0.000000
  70
    32
  0
VERTEX
  8
1
  5
785
 10
79.8942
 20
285.015
 30
0.000000
  70
    32
  0
VERTEX
  8
1
  5
786
 10
79.8673
 20
284.933
 30
0.000000
  70
    32
  0
VERTEX
  8
1
  5
787
 10
79.8411
 20
284.851
 30
0.000000
  70
    32
  0
VERTEX
  8
1
  5
788
 10
79.8157
 20
284.769
 30
0.000000
  70
    32
  0
VERTEX
  8
1
  5
789
 10
79.7910
 20
284.687
 30
0.000000
  70
    32
  0
VERTEX
  8
1
  5
78A
 10
79.7671
 20
284.605
 30
0.000000
  70
    32
  0
VERTEX
  8
1
  5
78B
 10
79.7439
 20
284.523
 30
0.000000
  70
    32
  0
VERTEX
  8
1
  5
78C
 10
79.7216
 20
284.441
 30
0.000000
  70
    32
  0
VERTEX
  8
1
  5
78D
 10
79.7001
 20
284.359
 30
0.000000
  70
    32
  0
VERTEX
  8
1
  5
78E
 10
79.6794
 20
284.277
 30
0.000000
  70
    32
  0
VERTEX
  8
1
  5
78F
 10
79.6596
 20
284.194
 30
0.000000
  70
    32
  0
VERTEX
  8
1
  5
790
 10
79.6407
 20
284.112
 30
0.000000
  70
    32
  0
VERTEX
  8
1
  5
791
 10
79.6226
 20
284.029
 30
0.000000
  70
    32
  0
VERTEX
  8
1
  5
792
 10
79.6054
 20
283.947
 30
0.000000
  70
    32
  0
VERTEX
  8
1
  5
793
 10
79.5892
 20
283.864
 30
0.000000
  70
    32
  0
VERTEX
  8
1
  5
794
 10
79.5739
 20
283.782
 30
0.000000
  70
    32
  0
VERTEX
  8
1
  5
795
 10
79.5595
 20
283.699
 30
0.000000
  70
    32
  0
VERTEX
  8
1
  5
796
 10
79.5461
 20
283.616
 30
0.000000
  70
    32
  0
VERTEX
  8
1
  5
797
 10
79.5337
 20
283.533
 30
0.000000
  70
    32
  0
VERTEX
  8
1
  5
798
 10
79.5223
 20
283.451
 30
0.000000
  70
    32
  0
VERTEX
  8
1
  5
799
 10
79.5119
 20
283.368
 30
0.000000
  70
    32
  0
VERTEX
  8
1
  5
79A
 10
79.5025
 20
283.284
 30
0.000000
  70
    32
  0
VERTEX
  8
1
  5
79B
 10
79.4942
 20
283.201
 30
0.000000
  70
    32
  0
VERTEX
  8
1
  5
79C
 10
79.4869
 20
283.118
 30
0.000000
  70
    32
  0
VERTEX
  8
1
  5
79D
 10
79.4808
 20
283.035
 30
0.000000
  70
    32
  0
VERTEX
  8
1
  5
79E
 10
79.4757
 20
282.951
 30
0.000000
  70
    32
  0
VERTEX
  8
1
  5
79F
 10
79.4717
 20
282.868
 30
0.000000
  70
    32
  0
VERTEX
  8
1
  5
7A0
 10
79.4689
 20
282.784
 30
0.000000
  70
    32
  0
VERTEX
  8
1
  5
7A1
 10
79.4672
 20
282.701
 30
0.000000
  70
    32
  0
VERTEX
  8
1
  5
7A2
 10
79.4667
 20
282.617
 30
0.000000
  70
    32
  0
VERTEX
  8
1
  5
7A3
 10
79.4673
 20
282.533
 30
0.000000
  70
    32
  0
VERTEX
  8
1
  5
7A4
 10
79.4692
 20
282.449
 30
0.000000
  70
    32
  0
VERTEX
  8
1
  5
7A5
 10
79.4723
 20
282.365
 30
0.000000
  70
    32
  0
VERTEX
  8
1
  5
7A6
 10
79.4765
 20
282.281
 30
0.000000
  70
    32
  0
VERTEX
  8
1
  5
7A7
 10
79.4821
 20
282.197
 30
0.000000
  70
    32
  0
VERTEX
  8
1
  5
7A8
 10
79.4889
 20
282.113
 30
0.000000
  70
    32
  0
VERTEX
  8
1
  5
7A9
 10
79.4970
 20
282.029
 30
0.000000
  70
    32
  0
VERTEX
  8
1
  5
7AA
 10
79.5063
 20
281.944
 30
0.000000
  70
    32
  0
VERTEX
  8
1
  5
7AB
 10
79.5170
 20
281.860
 30
0.000000
  70
    32
  0
VERTEX
  8
1
  5
7AC
 10
79.5288
 20
281.775
 30
0.000000
  70
    32
  0
VERTEX
  8
1
  5
7AD
 10
79.5418
 20
281.690
 30
0.000000
  70
    32
  0
VERTEX
  8
1
  5
7AE
 10
79.5559
 20
281.606
 30
0.000000
  70
    32
  0
VERTEX
  8
1
  5
7AF
 10
79.5711
 20
281.521
 30
0.000000
  70
    32
  0
VERTEX
  8
1
  5
7B0
 10
79.5873
 20
281.436
 30
0.000000
  70
    32
  0
VERTEX
  8
1
  5
7B1
 10
79.6044
 20
281.351
 30
0.000000
  70
    32
  0
VERTEX
  8
1
  5
7B2
 10
79.6224
 20
281.266
 30
0.000000
  70
    32
  0
VERTEX
  8
1
  5
7B3
 10
79.6412
 20
281.181
 30
0.000000
  70
    32
  0
VERTEX
  8
1
  5
7B4
 10
79.6609
 20
281.096
 30
0.000000
  70
    32
  0
VERTEX
  8
1
  5
7B5
 10
79.6813
 20
281.011
 30
0.000000
  70
    32
  0
VERTEX
  8
1
  5
7B6
 10
79.7024
 20
280.926
 30
0.000000
  70
    32
  0
VERTEX
  8
1
  5
7B7
 10
79.7241
 20
280.840
 30
0.000000
  70
    32
  0
VERTEX
  8
1
  5
7B8
 10
79.7464
 20
280.755
 30
0.000000
  70
    32
  0
VERTEX
  8
1
  5
7B9
 10
79.7692
 20
280.670
 30
0.000000
  70
    32
  0
VERTEX
  8
1
  5
7BA
 10
79.7925
 20
280.585
 30
0.000000
  70
    32
  0
VERTEX
  8
1
  5
7BB
 10
79.8162
 20
280.500
 30
0.000000
  70
    32
  0
VERTEX
  8
1
  5
7BC
 10
79.8403
 20
280.414
 30
0.000000
  70
    32
  0
VERTEX
  8
1
  5
7BD
 10
79.8647
 20
280.329
 30
0.000000
  70
    32
  0
VERTEX
  8
1
  5
7BE
 10
79.8894
 20
280.244
 30
0.000000
  70
    32
  0
VERTEX
  8
1
  5
7BF
 10
79.9143
 20
280.159
 30
0.000000
  70
    32
  0
VERTEX
  8
1
  5
7C0
 10
79.9393
 20
280.074
 30
0.000000
  70
    32
  0
VERTEX
  8
1
  5
7C1
 10
79.9645
 20
279.988
 30
0.000000
  70
    32
  0
VERTEX
  8
1
  5
7C2
 10
79.9897
 20
279.903
 30
0.000000
  70
    32
  0
VERTEX
  8
1
  5
7C3
 10
80.0149
 20
279.818
 30
0.000000
  70
    32
  0
VERTEX
  8
1
  5
7C4
 10
80.0401
 20
279.733
 30
0.000000
  70
    32
  0
VERTEX
  8
1
  5
7C5
 10
80.0652
 20
279.648
 30
0.000000
  70
    32
  0
VERTEX
  8
1
  5
7C6
 10
80.0901
 20
279.563
 30
0.000000
  70
    32
  0
VERTEX
  8
1
  5
7C7
 10
80.1148
 20
279.478
 30
0.000000
  70
    32
  0
VERTEX
  8
1
  5
7C8
 10
80.1392
 20
279.394
 30
0.000000
  70
    32
  0
VERTEX
  8
1
  5
7C9
 10
80.1633
 20
279.309
 30
0.000000
  70
    32
  0
VERTEX
  8
1
  5
7CA
 10
80.1871
 20
279.224
 30
0.000000
  70
    32
  0
VERTEX
  8
1
  5
7CB
 10
80.2105
 20
279.140
 30
0.000000
  70
    32
  0
VERTEX
  8
1
  5
7CC
 10
80.2333
 20
279.055
 30
0.000000
  70
    32
  0
VERTEX
  8
1
  5
7CD
 10
80.2557
 20
278.971
 30
0.000000
  70
    32
  0
VERTEX
  8
1
  5
7CE
 10
80.2775
 20
278.886
 30
0.000000
  70
    32
  0
VERTEX
  8
1
  5
7CF
 10
80.2986
 20
278.802
 30
0.000000
  70
    32
  0
VERTEX
  8
1
  5
7D0
 10
80.3191
 20
278.718
 30
0.000000
  70
    32
  0
VERTEX
  8
1
  5
7D1
 10
80.3389
 20
278.634
 30
0.000000
  70
    32
  0
VERTEX
  8
1
  5
7D2
 10
80.3578
 20
278.550
 30
0.000000
  70
    32
  0
VERTEX
  8
1
  5
7D3
 10
80.3759
 20
278.466
 30
0.000000
  70
    32
  0
VERTEX
  8
1
  5
7D4
 10
80.3932
 20
278.383
 30
0.000000
  70
    32
  0
VERTEX
  8
1
  5
7D5
 10
80.4094
 20
278.299
 30
0.000000
  70
    32
  0
VERTEX
  8
1
  5
7D6
 10
80.4247
 20
278.216
 30
0.000000
  70
    32
  0
VERTEX
  8
1
  5
7D7
 10
80.4390
 20
278.133
 30
0.000000
  70
    32
  0
VERTEX
  8
1
  5
7D8
 10
80.4521
 20
278.050
 30
0.000000
  70
    32
  0
VERTEX
  8
1
  5
7D9
 10
80.4641
 20
277.967
 30
0.000000
  70
    32
  0
VERTEX
  8
1
  5
7DA
 10
80.4749
 20
277.884
 30
0.000000
  70
    32
  0
VERTEX
  8
1
  5
7DB
 10
80.4844
 20
277.801
 30
0.000000
  70
    32
  0
VERTEX
  8
1
  5
7DC
 10
80.4926
 20
277.719
 30
0.000000
  70
    32
  0
VERTEX
  8
1
  5
7DD
 10
80.4995
 20
277.637
 30
0.000000
  70
    32
  0
VERTEX
  8
1
  5
7DE
 10
80.5049
 20
277.555
 30
0.000000
  70
    32
  0
VERTEX
  8
1
  5
7DF
 10
80.5089
 20
277.473
 30
0.000000
  70
    32
  0
VERTEX
  8
1
  5
7E0
 10
80.5113
 20
277.391
 30
0.000000
  70
    32
  0
VERTEX
  8
1
  5
7E1
 10
80.5122
 20
277.310
 30
0.000000
  70
    32
  0
VERTEX
  8
1
  5
7E2
 10
80.5114
 20
277.229
 30
0.000000
  70
    32
  0
VERTEX
  8
1
  5
7E3
 10
80.5090
 20
277.148
 30
0.000000
  70
    32
  0
VERTEX
  8
1
  5
7E4
 10
80.5048
 20
277.067
 30
0.000000
  70
    32
  0
VERTEX
  8
1
  5
7E5
 10
80.4988
 20
276.986
 30
0.000000
  70
    32
  0
VERTEX
  8
1
  5
7E6
 10
80.4911
 20
276.906
 30
0.000000
  70
    32
  0
VERTEX
  8
1
  5
7E7
 10
80.4815
 20
276.825
 30
0.000000
  70
    32
  0
VERTEX
  8
1
  5
7E8
 10
80.4702
 20
276.745
 30
0.000000
  70
    32
  0
VERTEX
  8
1
  5
7E9
 10
80.4572
 20
276.666
 30
0.000000
  70
    32
  0
VERTEX
  8
1
  5
7EA
 10
80.4425
 20
276.586
 30
0.000000
  70
    32
  0
VERTEX
  8
1
  5
7EB
 10
80.4261
 20
276.507
 30
0.000000
  70
    32
  0
VERTEX
  8
1
  5
7EC
 10
80.4082
 20
276.428
 30
0.000000
  70
    32
  0
VERTEX
  8
1
  5
7ED
 10
80.3886
 20
276.349
 30
0.000000
  70
    32
  0
VERTEX
  8
1
  5
7EE
 10
80.3675
 20
276.270
 30
0.000000
  70
    32
  0
VERTEX
  8
1
  5
7EF
 10
80.3450
 20
276.191
 30
0.000000
  70
    32
  0
VERTEX
  8
1
  5
7F0
 10
80.3209
 20
276.113
 30
0.000000
  70
    32
  0
VERTEX
  8
1
  5
7F1
 10
80.2954
 20
276.035
 30
0.000000
  70
    32
  0
VERTEX
  8
1
  5
7F2
 10
80.2685
 20
275.957
 30
0.000000
  70
    32
  0
VERTEX
  8
1
  5
7F3
 10
80.2402
 20
275.879
 30
0.000000
  70
    32
  0
VERTEX
  8
1
  5
7F4
 10
80.2107
 20
275.801
 30
0.000000
  70
    32
  0
VERTEX
  8
1
  5
7F5
 10
80.1798
 20
275.723
 30
0.000000
  70
    32
  0
VERTEX
  8
1
  5
7F6
 10
80.1476
 20
275.646
 30
0.000000
  70
    32
  0
VERTEX
  8
1
  5
7F7
 10
80.1142
 20
275.569
 30
0.000000
  70
    32
  0
VERTEX
  8
1
  5
7F8
 10
80.0797
 20
275.492
 30
0.000000
  70
    32
  0
VERTEX
  8
1
  5
7F9
 10
80.0439
 20
275.415
 30
0.000000
  70
    32
  0
VERTEX
  8
1
  5
7FA
 10
80.0071
 20
275.338
 30
0.000000
  70
    32
  0
VERTEX
  8
1
  5
7FB
 10
79.9692
 20
275.261
 30
0.000000
  70
    32
  0
VERTEX
  8
1
  5
7FC
 10
79.9302
 20
275.184
 30
0.000000
  70
    32
  0
VERTEX
  8
1
  5
7FD
 10
79.8902
 20
275.108
 30
0.000000
  70
    32
  0
VERTEX
  8
1
  5
7FE
 10
79.8492
 20
275.032
 30
0.000000
  70
    32
  0
VERTEX
  8
1
  5
7FF
 10
79.8073
 20
274.955
 30
0.000000
  70
    32
  0
VERTEX
  8
1
  5
800
 10
79.7644
 20
274.879
 30
0.000000
  70
    32
  0
VERTEX
  8
1
  5
801
 10
79.7207
 20
274.803
 30
0.000000
  70
    32
  0
VERTEX
  8
1
  5
802
 10
79.6762
 20
274.727
 30
0.000000
  70
    32
  0
VERTEX
  8
1
  5
803
 10
79.6308
 20
274.652
 30
0.000000
  70
    32
  0
VERTEX
  8
1
  5
804
 10
79.5847
 20
274.576
 30
0.000000
  70
    32
  0
VERTEX
  8
1
  5
805
 10
79.5378
 20
274.500
 30
0.000000
  70
    32
  0
VERTEX
  8
1
  5
806
 10
79.4903
 20
274.425
 30
0.000000
  70
    32
  0
VERTEX
  8
1
  5
807
 10
79.4420
 20
274.349
 30
0.000000
  70
    32
  0
VERTEX
  8
1
  5
808
 10
79.3932
 20
274.274
 30
0.000000
  70
    32
  0
VERTEX
  8
1
  5
809
 10
79.3437
 20
274.199
 30
0.000000
  70
    32
  0
VERTEX
  8
1
  5
80A
 10
79.2937
 20
274.123
 30
0.000000
  70
    32
  0
VERTEX
  8
1
  5
80B
 10
79.2432
 20
274.048
 30
0.000000
  70
    32
  0
VERTEX
  8
1
  5
80C
 10
79.1921
 20
273.973
 30
0.000000
  70
    32
  0
VERTEX
  8
1
  5
80D
 10
79.1406
 20
273.898
 30
0.000000
  70
    32
  0
VERTEX
  8
1
  5
80E
 10
79.0887
 20
273.823
 30
0.000000
  70
    32
  0
VERTEX
  8
1
  5
80F
 10
79.0364
 20
273.748
 30
0.000000
  70
    32
  0
VERTEX
  8
1
  5
810
 10
78.9838
 20
273.673
 30
0.000000
  70
    32
  0
VERTEX
  8
1
  5
811
 10
78.9308
 20
273.598
 30
0.000000
  70
    32
  0
VERTEX
  8
1
  5
812
 10
78.8776
 20
273.523
 30
0.000000
  70
    32
  0
VERTEX
  8
1
  5
813
 10
78.8241
 20
273.449
 30
0.000000
  70
    32
  0
VERTEX
  8
1
  5
814
 10
78.7704
 20
273.374
 30
0.000000
  70
    32
  0
VERTEX
  8
1
  5
815
 10
78.7165
 20
273.299
 30
0.000000
  70
    32
  0
VERTEX
  8
1
  5
816
 10
78.6625
 20
273.224
 30
0.000000
  70
    32
  0
VERTEX
  8
1
  5
817
 10
78.6084
 20
273.149
 30
0.000000
  70
    32
  0
VERTEX
  8
1
  5
818
 10
78.5542
 20
273.075
 30
0.000000
  70
    32
  0
VERTEX
  8
1
  5
819
 10
78.5000
 20
273.000
 30
0.000000
  70
    32
  0
SEQEND
  8
1
  5
81A
  0
POLYLINE
  8
1
  5
81B
  66
     1
 10
0.000000
 20
0.000000
 30
0.000000
  70
     8
  0
VERTEX
  8
1
  5
81C
 10
80.6148
 20
288.965
 30
0.000000
  70
    32
  0
VERTEX
  8
1
  5
81D
 10
80.6042
 20
288.945
 30
0.000000
  70
    32
  0
VERTEX
  8
1
  5
81E
 10
80.5936
 20
288.925
 30
0.000000
  70
    32
  0
VERTEX
  8
1
  5
81F
 10
80.5831
 20
288.905
 30
0.000000
  70
    32
  0
VERTEX
  8
1
  5
820
 10
80.5725
 20
288.885
 30
0.000000
  70
    32
  0
VERTEX
  8
1
  5
821
 10
80.5619
 20
288.865
 30
0.000000
  70
    32
  0
VERTEX
  8
1
  5
822
 10
80.5513
 20
288.844
 30
0.000000
  70
    32
  0
VERTEX
  8
1
  5
823
 10
80.5407
 20
288.824
 30
0.000000
  70
    32
  0
VERTEX
  8
1
  5
824
 10
80.5302
 20
288.804
 30
0.000000
  70
    32
  0
VERTEX
  8
1
  5
825
 10
80.5196
 20
288.784
 30
0.000000
  70
    32
  0
VERTEX
  8
1
  5
826
 10
80.5090
 20
288.764
 30
0.000000
  70
    32
  0
VERTEX
  8
1
  5
827
 10
80.4984
 20
288.744
 30
0.000000
  70
    32
  0
VERTEX
  8
1
  5
828
 10
80.4878
 20
288.723
 30
0.000000
  70
    32
  0
VERTEX
  8
1
  5
829
 10
80.4772
 20
288.703
 30
0.000000
  70
    32
  0
VERTEX
  8
1
  5
82A
 10
80.4666
 20
288.683
 30
0.000000
  70
    32
  0
VERTEX
  8
1
  5
82B
 10
80.4560
 20
288.663
 30
0.000000
  70
    32
  0
VERTEX
  8
1
  5
82C
 10
80.4454
 20
288.643
 30
0.000000
  70
    32
  0
VERTEX
  8
1
  5
82D
 10
80.4348
 20
288.622
 30
0.000000
  70
    32
  0
VERTEX
  8
1
  5
82E
 10
80.4242
 20
288.602
 30
0.000000
  70
    32
  0
VERTEX
  8
1
  5
82F
 10
80.4136
 20
288.582
 30
0.000000
  70
    32
  0
VERTEX
  8
1
  5
830
 10
80.4030
 20
288.561
 30
0.000000
  70
    32
  0
VERTEX
  8
1
  5
831
 10
80.3923
 20
288.541
 30
0.000000
  70
    32
  0
VERTEX
  8
1
  5
832
 10
80.3817
 20
288.521
 30
0.000000
  70
    32
  0
VERTEX
  8
1
  5
833
 10
80.3711
 20
288.501
 30
0.000000
  70
    32
  0
VERTEX
  8
1
  5
834
 10
80.3605
 20
288.480
 30
0.000000
  70
    32
  0
VERTEX
  8
1
  5
835
 10
80.3499
 20
288.460
 30
0.000000
  70
    32
  0
VERTEX
  8
1
  5
836
 10
80.3393
 20
288.440
 30
0.000000
  70
    32
  0
VERTEX
  8
1
  5
837
 10
80.3287
 20
288.419
 30
0.000000
  70
    32
  0
VERTEX
  8
1
  5
838
 10
80.3181
 20
288.399
 30
0.000000
  70
    32
  0
VERTEX
  8
1
  5
839
 10
80.3075
 20
288.379
 30
0.000000
  70
    32
  0
VERTEX
  8
1
  5
83A
 10
80.2970
 20
288.358
 30
0.000000
  70
    32
  0
VERTEX
  8
1
  5
83B
 10
80.2864
 20
288.338
 30
0.000000
  70
    32
  0
VERTEX
  8
1
  5
83C
 10
80.2758
 20
288.318
 30
0.000000
  70
    32
  0
VERTEX
  8
1
  5
83D
 10
80.2652
 20
288.297
 30
0.000000
  70
    32
  0
VERTEX
  8
1
  5
83E
 10
80.2546
 20
288.277
 30
0.000000
  70
    32
  0
VERTEX
  8
1
  5
83F
 10
80.2441
 20
288.256
 30
0.000000
  70
    32
  0
VERTEX
  8
1
  5
840
 10
80.2335
 20
288.236
 30
0.000000
  70
    32
  0
VERTEX
  8
1
  5
841
 10
80.2229
 20
288.215
 30
0.000000
  70
    32
  0
VERTEX
  8
1
  5
842
 10
80.2124
 20
288.195
 30
0.000000
  70
    32
  0
VERTEX
  8
1
  5
843
 10
80.2018
 20
288.175
 30
0.000000
  70
    32
  0
VERTEX
  8
1
  5
844
 10
80.1912
 20
288.154
 30
0.000000
  70
    32
  0
VERTEX
  8
1
  5
845
 10
80.1807
 20
288.134
 30
0.000000
  70
    32
  0
VERTEX
  8
1
  5
846
 10
80.1702
 20
288.113
 30
0.000000
  70
    32
  0
VERTEX
  8
1
  5
847
 10
80.1596
 20
288.093
 30
0.000000
  70
    32
  0
VERTEX
  8
1
  5
848
 10
80.1491
 20
288.072
 30
0.000000
  70
    32
  0
VERTEX
  8
1
  5
849
 10
80.1386
 20
288.052
 30
0.000000
  70
    32
  0
VERTEX
  8
1
  5
84A
 10
80.1281
 20
288.031
 30
0.000000
  70
    32
  0
VERTEX
  8
1
  5
84B
 10
80.1176
 20
288.011
 30
0.000000
  70
    32
  0
VERTEX
  8
1
  5
84C
 10
80.1071
 20
287.990
 30
0.000000
  70
    32
  0
VERTEX
  8
1
  5
84D
 10
80.0966
 20
287.969
 30
0.000000
  70
    32
  0
VERTEX
  8
1
  5
84E
 10
80.0861
 20
287.949
 30
0.000000
  70
    32
  0
VERTEX
  8
1
  5
84F
 10
80.0756
 20
287.928
 30
0.000000
  70
    32
  0
VERTEX
  8
1
  5
850
 10
80.0652
 20
287.908
 30
0.000000
  70
    32
  0
VERTEX
  8
1
  5
851
 10
80.0547
 20
287.887
 30
0.000000
  70
    32
  0
VERTEX
  8
1
  5
852
 10
80.0443
 20
287.867
 30
0.000000
  70
    32
  0
VERTEX
  8
1
  5
853
 10
80.0338
 20
287.846
 30
0.000000
  70
    32
  0
VERTEX
  8
1
  5
854
 10
80.0234
 20
287.825
 30
0.000000
  70
    32
  0
VERTEX
  8
1
  5
855
 10
80.0130
 20
287.805
 30
0.000000
  70
    32
  0
VERTEX
  8
1
  5
856
 10
80.0026
 20
287.784
 30
0.000000
  70
    32
  0
VERTEX
  8
1
  5
857
 10
79.9922
 20
287.763
 30
0.000000
  70
    32
  0
VERTEX
  8
1
  5
858
 10
79.9818
 20
287.743
 30
0.000000
  70
    32
  0
VERTEX
  8
1
  5
859
 10
79.9714
 20
287.722
 30
0.000000
  70
    32
  0
VERTEX
  8
1
  5
85A
 10
79.9610
 20
287.701
 30
0.000000
  70
    32
  0
VERTEX
  8
1
  5
85B
 10
79.9507
 20
287.681
 30
0.000000
  70
    32
  0
VERTEX
  8
1
  5
85C
 10
79.9403
 20
287.660
 30
0.000000
  70
    32
  0
VERTEX
  8
1
  5
85D
 10
79.9300
 20
287.639
 30
0.000000
  70
    32
  0
VERTEX
  8
1
  5
85E
 10
79.9197
 20
287.618
 30
0.000000
  70
    32
  0
VERTEX
  8
1
  5
85F
 10
79.9094
 20
287.598
 30
0.000000
  70
    32
  0
VERTEX
  8
1
  5
860
 10
79.8991
 20
287.577
 30
0.000000
  70
    32
  0
VERTEX
  8
1
  5
861
 10
79.8888
 20
287.556
 30
0.000000
  70
    32
  0
VERTEX
  8
1
  5
862
 10
79.8785
 20
287.535
 30
0.000000
  70
    32
  0
VERTEX
  8
1
  5
863
 10
79.8683
 20
287.514
 30
0.000000
  70
    32
  0
VERTEX
  8
1
  5
864
 10
79.8580
 20
287.494
 30
0.000000
  70
    32
  0
VERTEX
  8
1
  5
865
 10
79.8478
 20
287.473
 30
0.000000
  70
    32
  0
VERTEX
  8
1
  5
866
 10
79.8376
 20
287.452
 30
0.000000
  70
    32
  0
VERTEX
  8
1
  5
867
 10
79.8274
 20
287.431
 30
0.000000
  70
    32
  0
VERTEX
  8
1
  5
868
 10
79.8172
 20
287.410
 30
0.000000
  70
    32
  0
VERTEX
  8
1
  5
869
 10
79.8071
 20
287.389
 30
0.000000
  70
    32
  0
VERTEX
  8
1
  5
86A
 10
79.7969
 20
287.368
 30
0.000000
  70
    32
  0
VERTEX
  8
1
  5
86B
 10
79.7868
 20
287.348
 30
0.000000
  70
    32
  0
VERTEX
  8
1
  5
86C
 10
79.7767
 20
287.327
 30
0.000000
  70
    32
  0
VERTEX
  8
1
  5
86D
 10
79.7665
 20
287.306
 30
0.000000
  70
    32
  0
VERTEX
  8
1
  5
86E
 10
79.7565
 20
287.285
 30
0.000000
  70
    32
  0
VERTEX
  8
1
  5
86F
 10
79.7464
 20
287.264
 30
0.000000
  70
    32
  0
VERTEX
  8
1
  5
870
 10
79.7363
 20
287.243
 30
0.000000
  70
    32
  0
VERTEX
  8
1
  5
871
 10
79.7263
 20
287.222
 30
0.000000
  70
    32
  0
VERTEX
  8
1
  5
872
 10
79.7163
 20
287.201
 30
0.000000
  70
    32
  0
VERTEX
  8
1
  5
873
 10
79.7063
 20
287.180
 30
0.000000
  70
    32
  0
VERTEX
  8
1
  5
874
 10
79.6963
 20
287.159
 30
0.000000
  70
    32
  0
VERTEX
  8
1
  5
875
 10
79.6863
 20
287.138
 30
0.000000
  70
    32
  0
VERTEX
  8
1
  5
876
 10
79.6764
 20
287.117
 30
0.000000
  70
    32
  0
VERTEX
  8
1
  5
877
 10
79.6665
 20
287.096
 30
0.000000
  70
    32
  0
VERTEX
  8
1
  5
878
 10
79.6566
 20
287.075
 30
0.000000
  70
    32
  0
VERTEX
  8
1
  5
879
 10
79.6467
 20
287.054
 30
0.000000
  70
    32
  0
VERTEX
  8
1
  5
87A
 10
79.6368
 20
287.033
 30
0.000000
  70
    32
  0
VERTEX
  8
1
  5
87B
 10
79.6270
 20
287.012
 30
0.000000
  70
    32
  0
VERTEX
  8
1
  5
87C
 10
79.6171
 20
286.991
 30
0.000000
  70
    32
  0
VERTEX
  8
1
  5
87D
 10
79.6073
 20
286.969
 30
0.000000
  70
    32
  0
VERTEX
  8
1
  5
87E
 10
79.5975
 20
286.948
 30
0.000000
  70
    32
  0
VERTEX
  8
1
  5
87F
 10
79.5878
 20
286.927
 30
0.000000
  70
    32
  0
VERTEX
  8
1
  5
880
 10
79.5780
 20
286.906
 30
0.000000
  70
    32
  0
VERTEX
  8
1
  5
881
 10
79.5683
 20
286.885
 30
0.000000
  70
    32
  0
VERTEX
  8
1
  5
882
 10
79.5586
 20
286.864
 30
0.000000
  70
    32
  0
VERTEX
  8
1
  5
883
 10
79.5489
 20
286.842
 30
0.000000
  70
    32
  0
VERTEX
  8
1
  5
884
 10
79.5393
 20
286.821
 30
0.000000
  70
    32
  0
VERTEX
  8
1
  5
885
 10
79.5296
 20
286.800
 30
0.000000
  70
    32
  0
VERTEX
  8
1
  5
886
 10
79.5200
 20
286.779
 30
0.000000
  70
    32
  0
VERTEX
  8
1
  5
887
 10
79.5104
 20
286.758
 30
0.000000
  70
    32
  0
VERTEX
  8
1
  5
888
 10
79.5009
 20
286.736
 30
0.000000
  70
    32
  0
VERTEX
  8
1
  5
889
 10
79.4913
 20
286.715
 30
0.000000
  70
    32
  0
VERTEX
  8
1
  5
88A
 10
79.4818
 20
286.694
 30
0.000000
  70
    32
  0
VERTEX
  8
1
  5
88B
 10
79.4723
 20
286.672
 30
0.000000
  70
    32
  0
VERTEX
  8
1
  5
88C
 10
79.4628
 20
286.651
 30
0.000000
  70
    32
  0
VERTEX
  8
1
  5
88D
 10
79.4534
 20
286.630
 30
0.000000
  70
    32
  0
VERTEX
  8
1
  5
88E
 10
79.4440
 20
286.608
 30
0.000000
  70
    32
  0
VERTEX
  8
1
  5
88F
 10
79.4346
 20
286.587
 30
0.000000
  70
    32
  0
VERTEX
  8
1
  5
890
 10
79.4252
 20
286.566
 30
0.000000
  70
    32
  0
VERTEX
  8
1
  5
891
 10
79.4159
 20
286.544
 30
0.000000
  70
    32
  0
VERTEX
  8
1
  5
892
 10
79.4066
 20
286.523
 30
0.000000
  70
    32
  0
VERTEX
  8
1
  5
893
 10
79.3973
 20
286.502
 30
0.000000
  70
    32
  0
VERTEX
  8
1
  5
894
 10
79.3880
 20
286.480
 30
0.000000
  70
    32
  0
VERTEX
  8
1
  5
895
 10
79.3788
 20
286.459
 30
0.000000
  70
    32
  0
VERTEX
  8
1
  5
896
 10
79.3696
 20
286.437
 30
0.000000
  70
    32
  0
VERTEX
  8
1
  5
897
 10
79.3604
 20
286.416
 30
0.000000
  70
    32
  0
VERTEX
  8
1
  5
898
 10
79.3512
 20
286.394
 30
0.000000
  70
    32
  0
VERTEX
  8
1
  5
899
 10
79.3421
 20
286.373
 30
0.000000
  70
    32
  0
VERTEX
  8
1
  5
89A
 10
79.3330
 20
286.351
 30
0.000000
  70
    32
  0
VERTEX
  8
1
  5
89B
 10
79.3239
 20
286.330
 30
0.000000
  70
    32
  0
VERTEX
  8
1
  5
89C
 10
79.3149
 20
286.308
 30
0.000000
  70
    32
  0
VERTEX
  8
1
  5
89D
 10
79.3059
 20
286.287
 30
0.000000
  70
    32
  0
VERTEX
  8
1
  5
89E
 10
79.2969
 20
286.265
 30
0.000000
  70
    32
  0
VERTEX
  8
1
  5
89F
 10
79.2879
 20
286.244
 30
0.000000
  70
    32
  0
VERTEX
  8
1
  5
8A0
 10
79.2790
 20
286.222
 30
0.000000
  70
    32
  0
VERTEX
  8
1
  5
8A1
 10
79.2701
 20
286.200
 30
0.000000
  70
    32
  0
VERTEX
  8
1
  5
8A2
 10
79.2612
 20
286.179
 30
0.000000
  70
    32
  0
VERTEX
  8
1
  5
8A3
 10
79.2524
 20
286.157
 30
0.000000
  70
    32
  0
VERTEX
  8
1
  5
8A4
 10
79.2436
 20
286.136
 30
0.000000
  70
    32
  0
VERTEX
  8
1
  5
8A5
 10
79.2348
 20
286.114
 30
0.000000
  70
    32
  0
VERTEX
  8
1
  5
8A6
 10
79.2261
 20
286.092
 30
0.000000
  70
    32
  0
VERTEX
  8
1
  5
8A7
 10
79.2174
 20
286.071
 30
0.000000
  70
    32
  0
VERTEX
  8
1
  5
8A8
 10
79.2087
 20
286.049
 30
0.000000
  70
    32
  0
VERTEX
  8
1
  5
8A9
 10
79.2001
 20
286.027
 30
0.000000
  70
    32
  0
VERTEX
  8
1
  5
8AA
 10
79.1914
 20
286.005
 30
0.000000
  70
    32
  0
VERTEX
  8
1
  5
8AB
 10
79.1829
 20
285.984
 30
0.000000
  70
    32
  0
VERTEX
  8
1
  5
8AC
 10
79.1743
 20
285.962
 30
0.000000
  70
    32
  0
VERTEX
  8
1
  5
8AD
 10
79.1658
 20
285.940
 30
0.000000
  70
    32
  0
VERTEX
  8
1
  5
8AE
 10
79.1573
 20
285.918
 30
0.000000
  70
    32
  0
VERTEX
  8
1
  5
8AF
 10
79.1489
 20
285.896
 30
0.000000
  70
    32
  0
VERTEX
  8
1
  5
8B0
 10
79.1405
 20
285.875
 30
0.000000
  70
    32
  0
VERTEX
  8
1
  5
8B1
 10
79.1321
 20
285.853
 30
0.000000
  70
    32
  0
VERTEX
  8
1
  5
8B2
 10
79.1238
 20
285.831
 30
0.000000
  70
    32
  0
VERTEX
  8
1
  5
8B3
 10
79.1155
 20
285.809
 30
0.000000
  70
    32
  0
VERTEX
  8
1
  5
8B4
 10
79.1072
 20
285.787
 30
0.000000
  70
    32
  0
VERTEX
  8
1
  5
8B5
 10
79.0990
 20
285.765
 30
0.000000
  70
    32
  0
VERTEX
  8
1
  5
8B6
 10
79.0908
 20
285.743
 30
0.000000
  70
    32
  0
VERTEX
  8
1
  5
8B7
 10
79.0826
 20
285.721
 30
0.000000
  70
    32
  0
VERTEX
  8
1
  5
8B8
 10
79.0745
 20
285.699
 30
0.000000
  70
    32
  0
VERTEX
  8
1
  5
8B9
 10
79.0664
 20
285.677
 30
0.000000
  70
    32
  0
VERTEX
  8
1
  5
8BA
 10
79.0584
 20
285.655
 30
0.000000
  70
    32
  0
VERTEX
  8
1
  5
8BB
 10
79.0504
 20
285.633
 30
0.000000
  70
    32
  0
VERTEX
  8
1
  5
8BC
 10
79.0424
 20
285.611
 30
0.000000
  70
    32
  0
VERTEX
  8
1
  5
8BD
 10
79.0345
 20
285.589
 30
0.000000
  70
    32
  0
VERTEX
  8
1
  5
8BE
 10
79.0266
 20
285.567
 30
0.000000
  70
    32
  0
VERTEX
  8
1
  5
8BF
 10
79.0187
 20
285.545
 30
0.000000
  70
    32
  0
VERTEX
  8
1
  5
8C0
 10
79.0109
 20
285.523
 30
0.000000
  70
    32
  0
VERTEX
  8
1
  5
8C1
 10
79.0032
 20
285.501
 30
0.000000
  70
    32
  0
VERTEX
  8
1
  5
8C2
 10
78.9954
 20
285.479
 30
0.000000
  70
    32
  0
VERTEX
  8
1
  5
8C3
 10
78.9878
 20
285.457
 30
0.000000
  70
    32
  0
VERTEX
  8
1
  5
8C4
 10
78.9801
 20
285.434
 30
0.000000
  70
    32
  0
VERTEX
  8
1
  5
8C5
 10
78.9725
 20
285.412
 30
0.000000
  70
    32
  0
VERTEX
  8
1
  5
8C6
 10
78.9650
 20
285.390
 30
0.000000
  70
    32
  0
VERTEX
  8
1
  5
8C7
 10
78.9574
 20
285.368
 30
0.000000
  70
    32
  0
VERTEX
  8
1
  5
8C8
 10
78.9500
 20
285.346
 30
0.000000
  70
    32
  0
VERTEX
  8
1
  5
8C9
 10
78.9425
 20
285.323
 30
0.000000
  70
    32
  0
VERTEX
  8
1
  5
8CA
 10
78.9352
 20
285.301
 30
0.000000
  70
    32
  0
VERTEX
  8
1
  5
8CB
 10
78.9278
 20
285.279
 30
0.000000
  70
    32
  0
VERTEX
  8
1
  5
8CC
 10
78.9205
 20
285.256
 30
0.000000
  70
    32
  0
VERTEX
  8
1
  5
8CD
 10
78.9133
 20
285.234
 30
0.000000
  70
    32
  0
VERTEX
  8
1
  5
8CE
 10
78.9061
 20
285.212
 30
0.000000
  70
    32
  0
VERTEX
  8
1
  5
8CF
 10
78.8989
 20
285.189
 30
0.000000
  70
    32
  0
VERTEX
  8
1
  5
8D0
 10
78.8918
 20
285.167
 30
0.000000
  70
    32
  0
VERTEX
  8
1
  5
8D1
 10
78.8847
 20
285.145
 30
0.000000
  70
    32
  0
VERTEX
  8
1
  5
8D2
 10
78.8777
 20
285.122
 30
0.000000
  70
    32
  0
VERTEX
  8
1
  5
8D3
 10
78.8707
 20
285.100
 30
0.000000
  70
    32
  0
VERTEX
  8
1
  5
8D4
 10
78.8638
 20
285.077
 30
0.000000
  70
    32
  0
VERTEX
  8
1
  5
8D5
 10
78.8569
 20
285.055
 30
0.000000
  70
    32
  0
VERTEX
  8
1
  5
8D6
 10
78.8501
 20
285.033
 30
0.000000
  70
    32
  0
VERTEX
  8
1
  5
8D7
 10
78.8433
 20
285.010
 30
0.000000
  70
    32
  0
VERTEX
  8
1
  5
8D8
 10
78.8366
 20
284.988
 30
0.000000
  70
    32
  0
VERTEX
  8
1
  5
8D9
 10
78.8299
 20
284.965
 30
0.000000
  70
    32
  0
VERTEX
  8
1
  5
8DA
 10
78.8232
 20
284.942
 30
0.000000
  70
    32
  0
VERTEX
  8
1
  5
8DB
 10
78.8166
 20
284.920
 30
0.000000
  70
    32
  0
VERTEX
  8
1
  5
8DC
 10
78.8101
 20
284.897
 30
0.000000
  70
    32
  0
VERTEX
  8
1
  5
8DD
 10
78.8036
 20
284.875
 30
0.000000
  70
    32
  0
VERTEX
  8
1
  5
8DE
 10
78.7972
 20
284.852
 30
0.000000
  70
    32
  0
VERTEX
  8
1
  5
8DF
 10
78.7908
 20
284.830
 30
0.000000
  70
    32
  0
VERTEX
  8
1
  5
8E0
 10
78.7844
 20
284.807
 30
0.000000
  70
    32
  0
VERTEX
  8
1
  5
8E1
 10
78.7782
 20
284.784
 30
0.000000
  70
    32
  0
VERTEX
  8
1
  5
8E2
 10
78.7719
 20
284.762
 30
0.000000
  70
    32
  0
VERTEX
  8
1
  5
8E3
 10
78.7657
 20
284.739
 30
0.000000
  70
    32
  0
VERTEX
  8
1
  5
8E4
 10
78.7596
 20
284.716
 30
0.000000
  70
    32
  0
VERTEX
  8
1
  5
8E5
 10
78.7535
 20
284.693
 30
0.000000
  70
    32
  0
VERTEX
  8
1
  5
8E6
 10
78.7475
 20
284.671
 30
0.000000
  70
    32
  0
VERTEX
  8
1
  5
8E7
 10
78.7415
 20
284.648
 30
0.000000
  70
    32
  0
VERTEX
  8
1
  5
8E8
 10
78.7356
 20
284.625
 30
0.000000
  70
    32
  0
VERTEX
  8
1
  5
8E9
 10
78.7298
 20
284.602
 30
0.000000
  70
    32
  0
VERTEX
  8
1
  5
8EA
 10
78.7240
 20
284.579
 30
0.000000
  70
    32
  0
VERTEX
  8
1
  5
8EB
 10
78.7182
 20
284.557
 30
0.000000
  70
    32
  0
VERTEX
  8
1
  5
8EC
 10
78.7125
 20
284.534
 30
0.000000
  70
    32
  0
VERTEX
  8
1
  5
8ED
 10
78.7069
 20
284.511
 30
0.000000
  70
    32
  0
VERTEX
  8
1
  5
8EE
 10
78.7013
 20
284.488
 30
0.000000
  70
    32
  0
VERTEX
  8
1
  5
8EF
 10
78.6958
 20
284.465
 30
0.000000
  70
    32
  0
VERTEX
  8
1
  5
8F0
 10
78.6903
 20
284.442
 30
0.000000
  70
    32
  0
VERTEX
  8
1
  5
8F1
 10
78.6849
 20
284.419
 30
0.000000
  70
    32
  0
VERTEX
  8
1
  5
8F2
 10
78.6795
 20
284.396
 30
0.000000
  70
    32
  0
VERTEX
  8
1
  5
8F3
 10
78.6742
 20
284.373
 30
0.000000
  70
    32
  0
VERTEX
  8
1
  5
8F4
 10
78.6690
 20
284.350
 30
0.000000
  70
    32
  0
VERTEX
  8
1
  5
8F5
 10
78.6638
 20
284.327
 30
0.000000
  70
    32
  0
VERTEX
  8
1
  5
8F6
 10
78.6587
 20
284.304
 30
0.000000
  70
    32
  0
VERTEX
  8
1
  5
8F7
 10
78.6536
 20
284.281
 30
0.000000
  70
    32
  0
VERTEX
  8
1
  5
8F8
 10
78.6486
 20
284.258
 30
0.000000
  70
    32
  0
VERTEX
  8
1
  5
8F9
 10
78.6436
 20
284.235
 30
0.000000
  70
    32
  0
VERTEX
  8
1
  5
8FA
 10
78.6387
 20
284.212
 30
0.000000
  70
    32
  0
VERTEX
  8
1
  5
8FB
 10
78.6339
 20
284.189
 30
0.000000
  70
    32
  0
VERTEX
  8
1
  5
8FC
 10
78.6291
 20
284.165
 30
0.000000
  70
    32
  0
VERTEX
  8
1
  5
8FD
 10
78.6244
 20
284.142
 30
0.000000
  70
    32
  0
VERTEX
  8
1
  5
8FE
 10
78.6198
 20
284.119
 30
0.000000
  70
    32
  0
VERTEX
  8
1
  5
8FF
 10
78.6152
 20
284.096
 30
0.000000
  70
    32
  0
VERTEX
  8
1
  5
900
 10
78.6107
 20
284.073
 30
0.000000
  70
    32
  0
VERTEX
  8
1
  5
901
 10
78.6062
 20
284.049
 30
0.000000
  70
    32
  0
VERTEX
  8
1
  5
902
 10
78.6018
 20
284.026
 30
0.000000
  70
    32
  0
VERTEX
  8
1
  5
903
 10
78.5975
 20
284.003
 30
0.000000
  70
    32
  0
VERTEX
  8
1
  5
904
 10
78.5932
 20
283.979
 30
0.000000
  70
    32
  0
VERTEX
  8
1
  5
905
 10
78.5890
 20
283.956
 30
0.000000
  70
    32
  0
VERTEX
  8
1
  5
906
 10
78.5849
 20
283.933
 30
0.000000
  70
    32
  0
VERTEX
  8
1
  5
907
 10
78.5808
 20
283.909
 30
0.000000
  70
    32
  0
VERTEX
  8
1
  5
908
 10
78.5768
 20
283.886
 30
0.000000
  70
    32
  0
VERTEX
  8
1
  5
909
 10
78.5729
 20
283.863
 30
0.000000
  70
    32
  0
VERTEX
  8
1
  5
90A
 10
78.5690
 20
283.839
 30
0.000000
  70
    32
  0
VERTEX
  8
1
  5
90B
 10
78.5652
 20
283.816
 30
0.000000
  70
    32
  0
VERTEX
  8
1
  5
90C
 10
78.5614
 20
283.792
 30
0.000000
  70
    32
  0
VERTEX
  8
1
  5
90D
 10
78.5577
 20
283.769
 30
0.000000
  70
    32
  0
VERTEX
  8
1
  5
90E
 10
78.5541
 20
283.745
 30
0.000000
  70
    32
  0
VERTEX
  8
1
  5
90F
 10
78.5506
 20
283.722
 30
0.000000
  70
    32
  0
VERTEX
  8
1
  5
910
 10
78.5471
 20
283.698
 30
0.000000
  70
    32
  0
VERTEX
  8
1
  5
911
 10
78.5437
 20
283.675
 30
0.000000
  70
    32
  0
VERTEX
  8
1
  5
912
 10
78.5403
 20
283.651
 30
0.000000
  70
    32
  0
VERTEX
  8
1
  5
913
 10
78.5371
 20
283.628
 30
0.000000
  70
    32
  0
VERTEX
  8
1
  5
914
 10
78.5338
 20
283.604
 30
0.000000
  70
    32
  0
VERTEX
  8
1
  5
915
 10
78.5307
 20
283.580
 30
0.000000
  70
    32
  0
VERTEX
  8
1
  5
916
 10
78.5276
 20
283.557
 30
0.000000
  70
    32
  0
VERTEX
  8
1
  5
917
 10
78.5246
 20
283.533
 30
0.000000
  70
    32
  0
VERTEX
  8
1
  5
918
 10
78.5217
 20
283.509
 30
0.000000
  70
    32
  0
VERTEX
  8
1
  5
919
 10
78.5189
 20
283.486
 30
0.000000
  70
    32
  0
VERTEX
  8
1
  5
91A
 10
78.5161
 20
283.462
 30
0.000000
  70
    32
  0
VERTEX
  8
1
  5
91B
 10
78.5134
 20
283.438
 30
0.000000
  70
    32
  0
VERTEX
  8
1
  5
91C
 10
78.5107
 20
283.414
 30
0.000000
  70
    32
  0
VERTEX
  8
1
  5
91D
 10
78.5081
 20
283.390
 30
0.000000
  70
    32
  0
VERTEX
  8
1
  5
91E
 10
78.5056
 20
283.367
 30
0.000000
  70
    32
  0
VERTEX
  8
1
  5
91F
 10
78.5032
 20
283.343
 30
0.000000
  70
    32
  0
VERTEX
  8
1
  5
920
 10
78.5009
 20
283.319
 30
0.000000
  70
    32
  0
VERTEX
  8
1
  5
921
 10
78.4986
 20
283.295
 30
0.000000
  70
    32
  0
VERTEX
  8
1
  5
922
 10
78.4964
 20
283.271
 30
0.000000
  70
    32
  0
VERTEX
  8
1
  5
923
 10
78.4943
 20
283.247
 30
0.000000
  70
    32
  0
VERTEX
  8
1
  5
924
 10
78.4922
 20
283.223
 30
0.000000
  70
    32
  0
VERTEX
  8
1
  5
925
 10
78.4902
 20
283.200
 30
0.000000
  70
    32
  0
VERTEX
  8
1
  5
926
 10
78.4883
 20
283.176
 30
0.000000
  70
    32
  0
VERTEX
  8
1
  5
927
 10
78.4865
 20
283.152
 30
0.000000
  70
    32
  0
VERTEX
  8
1
  5
928
 10
78.4848
 20
283.128
 30
0.000000
  70
    32
  0
VERTEX
  8
1
  5
929
 10
78.4831
 20
283.104
 30
0.000000
  70
    32
  0
VERTEX
  8
1
  5
92A
 10
78.4815
 20
283.080
 30
0.000000
  70
    32
  0
VERTEX
  8
1
  5
92B
 10
78.4800
 20
283.056
 30
0.000000
  70
    32
  0
VERTEX
  8
1
  5
92C
 10
78.4786
 20
283.032
 30
0.000000
  70
    32
  0
VERTEX
  8
1
  5
92D
 10
78.4772
 20
283.008
 30
0.000000
  70
    32
  0
VERTEX
  8
1
  5
92E
 10
78.4760
 20
282.984
 30
0.000000
  70
    32
  0
VERTEX
  8
1
  5
92F
 10
78.4748
 20
282.959
 30
0.000000
  70
    32
  0
VERTEX
  8
1
  5
930
 10
78.4737
 20
282.935
 30
0.000000
  70
    32
  0
VERTEX
  8
1
  5
931
 10
78.4726
 20
282.911
 30
0.000000
  70
    32
  0
VERTEX
  8
1
  5
932
 10
78.4717
 20
282.887
 30
0.000000
  70
    32
  0
VERTEX
  8
1
  5
933
 10
78.4708
 20
282.863
 30
0.000000
  70
    32
  0
VERTEX
  8
1
  5
934
 10
78.4700
 20
282.839
 30
0.000000
  70
    32
  0
VERTEX
  8
1
  5
935
 10
78.4693
 20
282.814
 30
0.000000
  70
    32
  0
VERTEX
  8
1
  5
936
 10
78.4687
 20
282.790
 30
0.000000
  70
    32
  0
VERTEX
  8
1
  5
937
 10
78.4682
 20
282.766
 30
0.000000
  70
    32
  0
VERTEX
  8
1
  5
938
 10
78.4677
 20
282.741
 30
0.000000
  70
    32
  0
VERTEX
  8
1
  5
939
 10
78.4673
 20
282.717
 30
0.000000
  70
    32
  0
VERTEX
  8
1
  5
93A
 10
78.4670
 20
282.693
 30
0.000000
  70
    32
  0
VERTEX
  8
1
  5
93B
 10
78.4668
 20
282.668
 30
0.000000
  70
    32
  0
VERTEX
  8
1
  5
93C
 10
78.4667
 20
282.644
 30
0.000000
  70
    32
  0
VERTEX
  8
1
  5
93D
 10
78.4667
 20
282.619
 30
0.000000
  70
    32
  0
VERTEX
  8
1
  5
93E
 10
78.4667
 20
282.595
 30
0.000000
  70
    32
  0
VERTEX
  8
1
  5
93F
 10
78.4669
 20
282.570
 30
0.000000
  70
    32
  0
VERTEX
  8
1
  5
940
 10
78.4671
 20
282.546
 30
0.000000
  70
    32
  0
VERTEX
  8
1
  5
941
 10
78.4674
 20
282.521
 30
0.000000
  70
    32
  0
VERTEX
  8
1
  5
942
 10
78.4678
 20
282.497
 30
0.000000
  70
    32
  0
VERTEX
  8
1
  5
943
 10
78.4683
 20
282.472
 30
0.000000
  70
    32
  0
VERTEX
  8
1
  5
944
 10
78.4689
 20
282.447
 30
0.000000
  70
    32
  0
VERTEX
  8
1
  5
945
 10
78.4696
 20
282.423
 30
0.000000
  70
    32
  0
VERTEX
  8
1
  5
946
 10
78.4704
 20
282.398
 30
0.000000
  70
    32
  0
VERTEX
  8
1
  5
947
 10
78.4712
 20
282.374
 30
0.000000
  70
    32
  0
VERTEX
  8
1
  5
948
 10
78.4722
 20
282.349
 30
0.000000
  70
    32
  0
VERTEX
  8
1
  5
949
 10
78.4732
 20
282.324
 30
0.000000
  70
    32
  0
VERTEX
  8
1
  5
94A
 10
78.4743
 20
282.300
 30
0.000000
  70
    32
  0
VERTEX
  8
1
  5
94B
 10
78.4755
 20
282.275
 30
0.000000
  70
    32
  0
VERTEX
  8
1
  5
94C
 10
78.4768
 20
282.250
 30
0.000000
  70
    32
  0
VERTEX
  8
1
  5
94D
 10
78.4782
 20
282.226
 30
0.000000
  70
    32
  0
VERTEX
  8
1
  5
94E
 10
78.4797
 20
282.201
 30
0.000000
  70
    32
  0
VERTEX
  8
1
  5
94F
 10
78.4812
 20
282.176
 30
0.000000
  70
    32
  0
VERTEX
  8
1
  5
950
 10
78.4829
 20
282.152
 30
0.000000
  70
    32
  0
VERTEX
  8
1
  5
951
 10
78.4846
 20
282.127
 30
0.000000
  70
    32
  0
VERTEX
  8
1
  5
952
 10
78.4864
 20
282.102
 30
0.000000
  70
    32
  0
VERTEX
  8
1
  5
953
 10
78.4884
 20
282.078
 30
0.000000
  70
    32
  0
VERTEX
  8
1
  5
954
 10
78.4904
 20
282.053
 30
0.000000
  70
    32
  0
VERTEX
  8
1
  5
955
 10
78.4925
 20
282.029
 30
0.000000
  70
    32
  0
VERTEX
  8
1
  5
956
 10
78.4947
 20
282.004
 30
0.000000
  70
    32
  0
VERTEX
  8
1
  5
957
 10
78.4969
 20
281.980
 30
0.000000
  70
    32
  0
VERTEX
  8
1
  5
958
 10
78.4993
 20
281.955
 30
0.000000
  70
    32
  0
VERTEX
  8
1
  5
959
 10
78.5018
 20
281.931
 30
0.000000
  70
    32
  0
VERTEX
  8
1
  5
95A
 10
78.5043
 20
281.906
 30
0.000000
  70
    32
  0
VERTEX
  8
1
  5
95B
 10
78.5069
 20
281.882
 30
0.000000
  70
    32
  0
VERTEX
  8
1
  5
95C
 10
78.5097
 20
281.858
 30
0.000000
  70
    32
  0
VERTEX
  8
1
  5
95D
 10
78.5125
 20
281.833
 30
0.000000
  70
    32
  0
VERTEX
  8
1
  5
95E
 10
78.5154
 20
281.809
 30
0.000000
  70
    32
  0
VERTEX
  8
1
  5
95F
 10
78.5184
 20
281.785
 30
0.000000
  70
    32
  0
VERTEX
  8
1
  5
960
 10
78.5214
 20
281.761
 30
0.000000
  70
    32
  0
VERTEX
  8
1
  5
961
 10
78.5246
 20
281.736
 30
0.000000
  70
    32
  0
VERTEX
  8
1
  5
962
 10
78.5278
 20
281.712
 30
0.000000
  70
    32
  0
VERTEX
  8
1
  5
963
 10
78.5312
 20
281.688
 30
0.000000
  70
    32
  0
VERTEX
  8
1
  5
964
 10
78.5346
 20
281.664
 30
0.000000
  70
    32
  0
VERTEX
  8
1
  5
965
 10
78.5380
 20
281.639
 30
0.000000
  70
    32
  0
VERTEX
  8
1
  5
966
 10
78.5416
 20
281.615
 30
0.000000
  70
    32
  0
VERTEX
  8
1
  5
967
 10
78.5452
 20
281.591
 30
0.000000
  70
    32
  0
VERTEX
  8
1
  5
968
 10
78.5490
 20
281.567
 30
0.000000
  70
    32
  0
VERTEX
  8
1
  5
969
 10
78.5527
 20
281.543
 30
0.000000
  70
    32
  0
VERTEX
  8
1
  5
96A
 10
78.5566
 20
281.519
 30
0.000000
  70
    32
  0
VERTEX
  8
1
  5
96B
 10
78.5605
 20
281.495
 30
0.000000
  70
    32
  0
VERTEX
  8
1
  5
96C
 10
78.5646
 20
281.471
 30
0.000000
  70
    32
  0
VERTEX
  8
1
  5
96D
 10
78.5686
 20
281.447
 30
0.000000
  70
    32
  0
VERTEX
  8
1
  5
96E
 10
78.5728
 20
281.423
 30
0.000000
  70
    32
  0
VERTEX
  8
1
  5
96F
 10
78.5770
 20
281.399
 30
0.000000
  70
    32
  0
VERTEX
  8
1
  5
970
 10
78.5813
 20
281.375
 30
0.000000
  70
    32
  0
VERTEX
  8
1
  5
971
 10
78.5856
 20
281.351
 30
0.000000
  70
    32
  0
VERTEX
  8
1
  5
972
 10
78.5901
 20
281.327
 30
0.000000
  70
    32
  0
VERTEX
  8
1
  5
973
 10
78.5945
 20
281.303
 30
0.000000
  70
    32
  0
VERTEX
  8
1
  5
974
 10
78.5991
 20
281.279
 30
0.000000
  70
    32
  0
VERTEX
  8
1
  5
975
 10
78.6037
 20
281.255
 30
0.000000
  70
    32
  0
VERTEX
  8
1
  5
976
 10
78.6084
 20
281.232
 30
0.000000
  70
    32
  0
VERTEX
  8
1
  5
977
 10
78.6131
 20
281.208
 30
0.000000
  70
    32
  0
VERTEX
  8
1
  5
978
 10
78.6179
 20
281.184
 30
0.000000
  70
    32
  0
VERTEX
  8
1
  5
979
 10
78.6227
 20
281.160
 30
0.000000
  70
    32
  0
VERTEX
  8
1
  5
97A
 10
78.6276
 20
281.137
 30
0.000000
  70
    32
  0
VERTEX
  8
1
  5
97B
 10
78.6325
 20
281.113
 30
0.000000
  70
    32
  0
VERTEX
  8
1
  5
97C
 10
78.6375
 20
281.089
 30
0.000000
  70
    32
  0
VERTEX
  8
1
  5
97D
 10
78.6426
 20
281.066
 30
0.000000
  70
    32
  0
VERTEX
  8
1
  5
97E
 10
78.6477
 20
281.042
 30
0.000000
  70
    32
  0
VERTEX
  8
1
  5
97F
 10
78.6529
 20
281.019
 30
0.000000
  70
    32
  0
VERTEX
  8
1
  5
980
 10
78.6581
 20
280.995
 30
0.000000
  70
    32
  0
VERTEX
  8
1
  5
981
 10
78.6633
 20
280.972
 30
0.000000
  70
    32
  0
VERTEX
  8
1
  5
982
 10
78.6686
 20
280.948
 30
0.000000
  70
    32
  0
VERTEX
  8
1
  5
983
 10
78.6740
 20
280.925
 30
0.000000
  70
    32
  0
VERTEX
  8
1
  5
984
 10
78.6794
 20
280.902
 30
0.000000
  70
    32
  0
VERTEX
  8
1
  5
985
 10
78.6848
 20
280.878
 30
0.000000
  70
    32
  0
VERTEX
  8
1
  5
986
 10
78.6903
 20
280.855
 30
0.000000
  70
    32
  0
VERTEX
  8
1
  5
987
 10
78.6958
 20
280.832
 30
0.000000
  70
    32
  0
VERTEX
  8
1
  5
988
 10
78.7014
 20
280.809
 30
0.000000
  70
    32
  0
VERTEX
  8
1
  5
989
 10
78.7070
 20
280.785
 30
0.000000
  70
    32
  0
VERTEX
  8
1
  5
98A
 10
78.7126
 20
280.762
 30
0.000000
  70
    32
  0
VERTEX
  8
1
  5
98B
 10
78.7183
 20
280.739
 30
0.000000
  70
    32
  0
VERTEX
  8
1
  5
98C
 10
78.7240
 20
280.716
 30
0.000000
  70
    32
  0
VERTEX
  8
1
  5
98D
 10
78.7297
 20
280.693
 30
0.000000
  70
    32
  0
VERTEX
  8
1
  5
98E
 10
78.7355
 20
280.670
 30
0.000000
  70
    32
  0
VERTEX
  8
1
  5
98F
 10
78.7413
 20
280.647
 30
0.000000
  70
    32
  0
VERTEX
  8
1
  5
990
 10
78.7472
 20
280.624
 30
0.000000
  70
    32
  0
VERTEX
  8
1
  5
991
 10
78.7530
 20
280.601
 30
0.000000
  70
    32
  0
VERTEX
  8
1
  5
992
 10
78.7589
 20
280.579
 30
0.000000
  70
    32
  0
VERTEX
  8
1
  5
993
 10
78.7649
 20
280.556
 30
0.000000
  70
    32
  0
VERTEX
  8
1
  5
994
 10
78.7708
 20
280.533
 30
0.000000
  70
    32
  0
VERTEX
  8
1
  5
995
 10
78.7768
 20
280.510
 30
0.000000
  70
    32
  0
VERTEX
  8
1
  5
996
 10
78.7828
 20
280.488
 30
0.000000
  70
    32
  0
VERTEX
  8
1
  5
997
 10
78.7888
 20
280.465
 30
0.000000
  70
    32
  0
VERTEX
  8
1
  5
998
 10
78.7949
 20
280.442
 30
0.000000
  70
    32
  0
VERTEX
  8
1
  5
999
 10
78.8009
 20
280.420
 30
0.000000
  70
    32
  0
VERTEX
  8
1
  5
99A
 10
78.8070
 20
280.397
 30
0.000000
  70
    32
  0
VERTEX
  8
1
  5
99B
 10
78.8131
 20
280.375
 30
0.000000
  70
    32
  0
VERTEX
  8
1
  5
99C
 10
78.8192
 20
280.353
 30
0.000000
  70
    32
  0
VERTEX
  8
1
  5
99D
 10
78.8254
 20
280.330
 30
0.000000
  70
    32
  0
VERTEX
  8
1
  5
99E
 10
78.8315
 20
280.308
 30
0.000000
  70
    32
  0
VERTEX
  8
1
  5
99F
 10
78.8377
 20
280.286
 30
0.000000
  70
    32
  0
VERTEX
  8
1
  5
9A0
 10
78.8439
 20
280.263
 30
0.000000
  70
    32
  0
VERTEX
  8
1
  5
9A1
 10
78.8501
 20
280.241
 30
0.000000
  70
    32
  0
VERTEX
  8
1
  5
9A2
 10
78.8563
 20
280.219
 30
0.000000
  70
    32
  0
VERTEX
  8
1
  5
9A3
 10
78.8626
 20
280.197
 30
0.000000
  70
    32
  0
VERTEX
  8
1
  5
9A4
 10
78.8688
 20
280.175
 30
0.000000
  70
    32
  0
VERTEX
  8
1
  5
9A5
 10
78.8751
 20
280.152
 30
0.000000
  70
    32
  0
VERTEX
  8
1
  5
9A6
 10
78.8814
 20
280.130
 30
0.000000
  70
    32
  0
VERTEX
  8
1
  5
9A7
 10
78.8876
 20
280.108
 30
0.000000
  70
    32
  0
VERTEX
  8
1
  5
9A8
 10
78.8939
 20
280.086
 30
0.000000
  70
    32
  0
VERTEX
  8
1
  5
9A9
 10
78.9002
 20
280.064
 30
0.000000
  70
    32
  0
VERTEX
  8
1
  5
9AA
 10
78.9065
 20
280.042
 30
0.000000
  70
    32
  0
VERTEX
  8
1
  5
9AB
 10
78.9129
 20
280.021
 30
0.000000
  70
    32
  0
VERTEX
  8
1
  5
9AC
 10
78.9192
 20
279.999
 30
0.000000
  70
    32
  0
VERTEX
  8
1
  5
9AD
 10
78.9255
 20
279.977
 30
0.000000
  70
    32
  0
VERTEX
  8
1
  5
9AE
 10
78.9319
 20
279.955
 30
0.000000
  70
    32
  0
VERTEX
  8
1
  5
9AF
 10
78.9382
 20
279.933
 30
0.000000
  70
    32
  0
VERTEX
  8
1
  5
9B0
 10
78.9445
 20
279.912
 30
0.000000
  70
    32
  0
VERTEX
  8
1
  5
9B1
 10
78.9509
 20
279.890
 30
0.000000
  70
    32
  0
VERTEX
  8
1
  5
9B2
 10
78.9572
 20
279.868
 30
0.000000
  70
    32
  0
VERTEX
  8
1
  5
9B3
 10
78.9636
 20
279.847
 30
0.000000
  70
    32
  0
VERTEX
  8
1
  5
9B4
 10
78.9699
 20
279.825
 30
0.000000
  70
    32
  0
VERTEX
  8
1
  5
9B5
 10
78.9762
 20
279.803
 30
0.000000
  70
    32
  0
VERTEX
  8
1
  5
9B6
 10
78.9826
 20
279.782
 30
0.000000
  70
    32
  0
VERTEX
  8
1
  5
9B7
 10
78.9889
 20
279.760
 30
0.000000
  70
    32
  0
VERTEX
  8
1
  5
9B8
 10
78.9953
 20
279.739
 30
0.000000
  70
    32
  0
VERTEX
  8
1
  5
9B9
 10
79.0016
 20
279.718
 30
0.000000
  70
    32
  0
VERTEX
  8
1
  5
9BA
 10
79.0079
 20
279.696
 30
0.000000
  70
    32
  0
VERTEX
  8
1
  5
9BB
 10
79.0142
 20
279.675
 30
0.000000
  70
    32
  0
VERTEX
  8
1
  5
9BC
 10
79.0205
 20
279.654
 30
0.000000
  70
    32
  0
VERTEX
  8
1
  5
9BD
 10
79.0268
 20
279.632
 30
0.000000
  70
    32
  0
VERTEX
  8
1
  5
9BE
 10
79.0331
 20
279.611
 30
0.000000
  70
    32
  0
VERTEX
  8
1
  5
9BF
 10
79.0394
 20
279.590
 30
0.000000
  70
    32
  0
VERTEX
  8
1
  5
9C0
 10
79.0457
 20
279.569
 30
0.000000
  70
    32
  0
VERTEX
  8
1
  5
9C1
 10
79.0520
 20
279.548
 30
0.000000
  70
    32
  0
VERTEX
  8
1
  5
9C2
 10
79.0582
 20
279.527
 30
0.000000
  70
    32
  0
VERTEX
  8
1
  5
9C3
 10
79.0645
 20
279.505
 30
0.000000
  70
    32
  0
VERTEX
  8
1
  5
9C4
 10
79.0707
 20
279.484
 30
0.000000
  70
    32
  0
VERTEX
  8
1
  5
9C5
 10
79.0769
 20
279.463
 30
0.000000
  70
    32
  0
VERTEX
  8
1
  5
9C6
 10
79.0831
 20
279.443
 30
0.000000
  70
    32
  0
VERTEX
  8
1
  5
9C7
 10
79.0893
 20
279.422
 30
0.000000
  70
    32
  0
VERTEX
  8
1
  5
9C8
 10
79.0954
 20
279.401
 30
0.000000
  70
    32
  0
VERTEX
  8
1
  5
9C9
 10
79.1016
 20
279.380
 30
0.000000
  70
    32
  0
VERTEX
  8
1
  5
9CA
 10
79.1077
 20
279.359
 30
0.000000
  70
    32
  0
VERTEX
  8
1
  5
9CB
 10
79.1138
 20
279.338
 30
0.000000
  70
    32
  0
VERTEX
  8
1
  5
9CC
 10
79.1199
 20
279.318
 30
0.000000
  70
    32
  0
VERTEX
  8
1
  5
9CD
 10
79.1260
 20
279.297
 30
0.000000
  70
    32
  0
VERTEX
  8
1
  5
9CE
 10
79.1320
 20
279.276
 30
0.000000
  70
    32
  0
VERTEX
  8
1
  5
9CF
 10
79.1380
 20
279.256
 30
0.000000
  70
    32
  0
VERTEX
  8
1
  5
9D0
 10
79.1440
 20
279.235
 30
0.000000
  70
    32
  0
VERTEX
  8
1
  5
9D1
 10
79.1500
 20
279.215
 30
0.000000
  70
    32
  0
VERTEX
  8
1
  5
9D2
 10
79.1560
 20
279.194
 30
0.000000
  70
    32
  0
VERTEX
  8
1
  5
9D3
 10
79.1619
 20
279.174
 30
0.000000
  70
    32
  0
VERTEX
  8
1
  5
9D4
 10
79.1678
 20
279.153
 30
0.000000
  70
    32
  0
VERTEX
  8
1
  5
9D5
 10
79.1737
 20
279.133
 30
0.000000
  70
    32
  0
VERTEX
  8
1
  5
9D6
 10
79.1795
 20
279.112
 30
0.000000
  70
    32
  0
VERTEX
  8
1
  5
9D7
 10
79.1853
 20
279.092
 30
0.000000
  70
    32
  0
VERTEX
  8
1
  5
9D8
 10
79.1911
 20
279.072
 30
0.000000
  70
    32
  0
VERTEX
  8
1
  5
9D9
 10
79.1968
 20
279.052
 30
0.000000
  70
    32
  0
VERTEX
  8
1
  5
9DA
 10
79.2026
 20
279.031
 30
0.000000
  70
    32
  0
VERTEX
  8
1
  5
9DB
 10
79.2083
 20
279.011
 30
0.000000
  70
    32
  0
VERTEX
  8
1
  5
9DC
 10
79.2139
 20
278.991
 30
0.000000
  70
    32
  0
VERTEX
  8
1
  5
9DD
 10
79.2195
 20
278.971
 30
0.000000
  70
    32
  0
VERTEX
  8
1
  5
9DE
 10
79.2251
 20
278.951
 30
0.000000
  70
    32
  0
VERTEX
  8
1
  5
9DF
 10
79.2307
 20
278.931
 30
0.000000
  70
    32
  0
VERTEX
  8
1
  5
9E0
 10
79.2362
 20
278.911
 30
0.000000
  70
    32
  0
VERTEX
  8
1
  5
9E1
 10
79.2416
 20
278.891
 30
0.000000
  70
    32
  0
VERTEX
  8
1
  5
9E2
 10
79.2471
 20
278.871
 30
0.000000
  70
    32
  0
VERTEX
  8
1
  5
9E3
 10
79.2525
 20
278.851
 30
0.000000
  70
    32
  0
VERTEX
  8
1
  5
9E4
 10
79.2578
 20
278.832
 30
0.000000
  70
    32
  0
VERTEX
  8
1
  5
9E5
 10
79.2632
 20
278.812
 30
0.000000
  70
    32
  0
VERTEX
  8
1
  5
9E6
 10
79.2684
 20
278.792
 30
0.000000
  70
    32
  0
VERTEX
  8
1
  5
9E7
 10
79.2737
 20
278.773
 30
0.000000
  70
    32
  0
VERTEX
  8
1
  5
9E8
 10
79.2789
 20
278.753
 30
0.000000
  70
    32
  0
VERTEX
  8
1
  5
9E9
 10
79.2840
 20
278.733
 30
0.000000
  70
    32
  0
VERTEX
  8
1
  5
9EA
 10
79.2891
 20
278.714
 30
0.000000
  70
    32
  0
VERTEX
  8
1
  5
9EB
 10
79.2942
 20
278.694
 30
0.000000
  70
    32
  0
VERTEX
  8
1
  5
9EC
 10
79.2992
 20
278.675
 30
0.000000
  70
    32
  0
VERTEX
  8
1
  5
9ED
 10
79.3042
 20
278.655
 30
0.000000
  70
    32
  0
VERTEX
  8
1
  5
9EE
 10
79.3092
 20
278.636
 30
0.000000
  70
    32
  0
VERTEX
  8
1
  5
9EF
 10
79.3141
 20
278.617
 30
0.000000
  70
    32
  0
VERTEX
  8
1
  5
9F0
 10
79.3189
 20
278.597
 30
0.000000
  70
    32
  0
VERTEX
  8
1
  5
9F1
 10
79.3237
 20
278.578
 30
0.000000
  70
    32
  0
VERTEX
  8
1
  5
9F2
 10
79.3285
 20
278.559
 30
0.000000
  70
    32
  0
VERTEX
  8
1
  5
9F3
 10
79.3332
 20
278.540
 30
0.000000
  70
    32
  0
VERTEX
  8
1
  5
9F4
 10
79.3378
 20
278.521
 30
0.000000
  70
    32
  0
VERTEX
  8
1
  5
9F5
 10
79.3424
 20
278.502
 30
0.000000
  70
    32
  0
VERTEX
  8
1
  5
9F6
 10
79.3470
 20
278.482
 30
0.000000
  70
    32
  0
VERTEX
  8
1
  5
9F7
 10
79.3515
 20
278.464
 30
0.000000
  70
    32
  0
VERTEX
  8
1
  5
9F8
 10
79.3560
 20
278.445
 30
0.000000
  70
    32
  0
VERTEX
  8
1
  5
9F9
 10
79.3604
 20
278.426
 30
0.000000
  70
    32
  0
VERTEX
  8
1
  5
9FA
 10
79.3647
 20
278.407
 30
0.000000
  70
    32
  0
VERTEX
  8
1
  5
9FB
 10
79.3690
 20
278.388
 30
0.000000
  70
    32
  0
VERTEX
  8
1
  5
9FC
 10
79.3733
 20
278.369
 30
0.000000
  70
    32
  0
VERTEX
  8
1
  5
9FD
 10
79.3775
 20
278.351
 30
0.000000
  70
    32
  0
VERTEX
  8
1
  5
9FE
 10
79.3816
 20
278.332
 30
0.000000
  70
    32
  0
VERTEX
  8
1
  5
9FF
 10
79.3857
 20
278.313
 30
0.000000
  70
    32
  0
VERTEX
  8
1
  5
A00
 10
79.3898
 20
278.295
 30
0.000000
  70
    32
  0
VERTEX
  8
1
  5
A01
 10
79.3937
 20
278.276
 30
0.000000
  70
    32
  0
VERTEX
  8
1
  5
A02
 10
79.3977
 20
278.258
 30
0.000000
  70
    32
  0
VERTEX
  8
1
  5
A03
 10
79.4015
 20
278.239
 30
0.000000
  70
    32
  0
VERTEX
  8
1
  5
A04
 10
79.4053
 20
278.221
 30
0.000000
  70
    32
  0
VERTEX
  8
1
  5
A05
 10
79.4091
 20
278.203
 30
0.000000
  70
    32
  0
VERTEX
  8
1
  5
A06
 10
79.4128
 20
278.185
 30
0.000000
  70
    32
  0
VERTEX
  8
1
  5
A07
 10
79.4164
 20
278.166
 30
0.000000
  70
    32
  0
VERTEX
  8
1
  5
A08
 10
79.4200
 20
278.148
 30
0.000000
  70
    32
  0
VERTEX
  8
1
  5
A09
 10
79.4235
 20
278.130
 30
0.000000
  70
    32
  0
VERTEX
  8
1
  5
A0A
 10
79.4270
 20
278.112
 30
0.000000
  70
    32
  0
VERTEX
  8
1
  5
A0B
 10
79.4303
 20
278.094
 30
0.000000
  70
    32
  0
VERTEX
  8
1
  5
A0C
 10
79.4337
 20
278.076
 30
0.000000
  70
    32
  0
VERTEX
  8
1
  5
A0D
 10
79.4369
 20
278.058
 30
0.000000
  70
    32
  0
VERTEX
  8
1
  5
A0E
 10
79.4401
 20
278.040
 30
0.000000
  70
    32
  0
VERTEX
  8
1
  5
A0F
 10
79.4433
 20
278.023
 30
0.000000
  70
    32
  0
VERTEX
  8
1
  5
A10
 10
79.4464
 20
278.005
 30
0.000000
  70
    32
  0
VERTEX
  8
1
  5
A11
 10
79.4494
 20
277.987
 30
0.000000
  70
    32
  0
VERTEX
  8
1
  5
A12
 10
79.4523
 20
277.970
 30
0.000000
  70
    32
  0
VERTEX
  8
1
  5
A13
 10
79.4552
 20
277.952
 30
0.000000
  70
    32
  0
VERTEX
  8
1
  5
A14
 10
79.4580
 20
277.934
 30
0.000000
  70
    32
  0
VERTEX
  8
1
  5
A15
 10
79.4608
 20
277.917
 30
0.000000
  70
    32
  0
VERTEX
  8
1
  5
A16
 10
79.4634
 20
277.900
 30
0.000000
  70
    32
  0
VERTEX
  8
1
  5
A17
 10
79.4660
 20
277.882
 30
0.000000
  70
    32
  0
VERTEX
  8
1
  5
A18
 10
79.4686
 20
277.865
 30
0.000000
  70
    32
  0
VERTEX
  8
1
  5
A19
 10
79.4710
 20
277.848
 30
0.000000
  70
    32
  0
VERTEX
  8
1
  5
A1A
 10
79.4734
 20
277.830
 30
0.000000
  70
    32
  0
VERTEX
  8
1
  5
A1B
 10
79.4758
 20
277.813
 30
0.000000
  70
    32
  0
VERTEX
  8
1
  5
A1C
 10
79.4780
 20
277.796
 30
0.000000
  70
    32
  0
VERTEX
  8
1
  5
A1D
 10
79.4802
 20
277.779
 30
0.000000
  70
    32
  0
VERTEX
  8
1
  5
A1E
 10
79.4823
 20
277.762
 30
0.000000
  70
    32
  0
VERTEX
  8
1
  5
A1F
 10
79.4844
 20
277.746
 30
0.000000
  70
    32
  0
VERTEX
  8
1
  5
A20
 10
79.4864
 20
277.729
 30
0.000000
  70
    32
  0
VERTEX
  8
1
  5
A21
 10
79.4883
 20
277.712
 30
0.000000
  70
    32
  0
VERTEX
  8
1
  5
A22
 10
79.4901
 20
277.696
 30
0.000000
  70
    32
  0
VERTEX
  8
1
  5
A23
 10
79.4919
 20
277.679
 30
0.000000
  70
    32
  0
VERTEX
  8
1
  5
A24
 10
79.4936
 20
277.663
 30
0.000000
  70
    32
  0
VERTEX
  8
1
  5
A25
 10
79.4952
 20
277.646
 30
0.000000
  70
    32
  0
VERTEX
  8
1
  5
A26
 10
79.4967
 20
277.630
 30
0.000000
  70
    32
  0
VERTEX
  8
1
  5
A27
 10
79.4982
 20
277.614
 30
0.000000
  70
    32
  0
VERTEX
  8
1
  5
A28
 10
79.4996
 20
277.598
 30
0.000000
  70
    32
  0
VERTEX
  8
1
  5
A29
 10
79.5010
 20
277.582
 30
0.000000
  70
    32
  0
VERTEX
  8
1
  5
A2A
 10
79.5022
 20
277.565
 30
0.000000
  70
    32
  0
VERTEX
  8
1
  5
A2B
 10
79.5034
 20
277.550
 30
0.000000
  70
    32
  0
VERTEX
  8
1
  5
A2C
 10
79.5045
 20
277.534
 30
0.000000
  70
    32
  0
VERTEX
  8
1
  5
A2D
 10
79.5056
 20
277.518
 30
0.000000
  70
    32
  0
VERTEX
  8
1
  5
A2E
 10
79.5066
 20
277.502
 30
0.000000
  70
    32
  0
VERTEX
  8
1
  5
A2F
 10
79.5075
 20
277.486
 30
0.000000
  70
    32
  0
VERTEX
  8
1
  5
A30
 10
79.5083
 20
277.471
 30
0.000000
  70
    32
  0
VERTEX
  8
1
  5
A31
 10
79.5090
 20
277.455
 30
0.000000
  70
    32
  0
VERTEX
  8
1
  5
A32
 10
79.5097
 20
277.439
 30
0.000000
  70
    32
  0
VERTEX
  8
1
  5
A33
 10
79.5103
 20
277.424
 30
0.000000
  70
    32
  0
VERTEX
  8
1
  5
A34
 10
79.5108
 20
277.409
 30
0.000000
  70
    32
  0
VERTEX
  8
1
  5
A35
 10
79.5113
 20
277.393
 30
0.000000
  70
    32
  0
VERTEX
  8
1
  5
A36
 10
79.5117
 20
277.378
 30
0.000000
  70
    32
  0
VERTEX
  8
1
  5
A37
 10
79.5120
 20
277.362
 30
0.000000
  70
    32
  0
VERTEX
  8
1
  5
A38
 10
79.5122
 20
277.347
 30
0.000000
  70
    32
  0
VERTEX
  8
1
  5
A39
 10
79.5123
 20
277.332
 30
0.000000
  70
    32
  0
VERTEX
  8
1
  5
A3A
 10
79.5124
 20
277.317
 30
0.000000
  70
    32
  0
VERTEX
  8
1
  5
A3B
 10
79.5124
 20
277.302
 30
0.000000
  70
    32
  0
VERTEX
  8
1
  5
A3C
 10
79.5123
 20
277.286
 30
0.000000
  70
    32
  0
VERTEX
  8
1
  5
A3D
 10
79.5121
 20
277.271
 30
0.000000
  70
    32
  0
VERTEX
  8
1
  5
A3E
 10
79.5119
 20
277.256
 30
0.000000
  70
    32
  0
VERTEX
  8
1
  5
A3F
 10
79.5116
 20
277.241
 30
0.000000
  70
    32
  0
VERTEX
  8
1
  5
A40
 10
79.5112
 20
277.226
 30
0.000000
  70
    32
  0
VERTEX
  8
1
  5
A41
 10
79.5107
 20
277.211
 30
0.000000
  70
    32
  0
VERTEX
  8
1
  5
A42
 10
79.5102
 20
277.196
 30
0.000000
  70
    32
  0
VERTEX
  8
1
  5
A43
 10
79.5095
 20
277.181
 30
0.000000
  70
    32
  0
VERTEX
  8
1
  5
A44
 10
79.5088
 20
277.166
 30
0.000000
  70
    32
  0
VERTEX
  8
1
  5
A45
 10
79.5080
 20
277.152
 30
0.000000
  70
    32
  0
VERTEX
  8
1
  5
A46
 10
79.5072
 20
277.137
 30
0.000000
  70
    32
  0
VERTEX
  8
1
  5
A47
 10
79.5062
 20
277.122
 30
0.000000
  70
    32
  0
VERTEX
  8
1
  5
A48
 10
79.5052
 20
277.107
 30
0.000000
  70
    32
  0
VERTEX
  8
1
  5
A49
 10
79.5041
 20
277.092
 30
0.000000
  70
    32
  0
VERTEX
  8
1
  5
A4A
 10
79.5029
 20
277.077
 30
0.000000
  70
    32
  0
VERTEX
  8
1
  5
A4B
 10
79.5016
 20
277.063
 30
0.000000
  70
    32
  0
VERTEX
  8
1
  5
A4C
 10
79.5003
 20
277.048
 30
0.000000
  70
    32
  0
VERTEX
  8
1
  5
A4D
 10
79.4988
 20
277.033
 30
0.000000
  70
    32
  0
VERTEX
  8
1
  5
A4E
 10
79.4973
 20
277.018
 30
0.000000
  70
    32
  0
VERTEX
  8
1
  5
A4F
 10
79.4957
 20
277.004
 30
0.000000
  70
    32
  0
VERTEX
  8
1
  5
A50
 10
79.4940
 20
276.989
 30
0.000000
  70
    32
  0
VERTEX
  8
1
  5
A51
 10
79.4923
 20
276.974
 30
0.000000
  70
    32
  0
VERTEX
  8
1
  5
A52
 10
79.4904
 20
276.959
 30
0.000000
  70
    32
  0
VERTEX
  8
1
  5
A53
 10
79.4885
 20
276.945
 30
0.000000
  70
    32
  0
VERTEX
  8
1
  5
A54
 10
79.4865
 20
276.930
 30
0.000000
  70
    32
  0
VERTEX
  8
1
  5
A55
 10
79.4844
 20
276.915
 30
0.000000
  70
    32
  0
VERTEX
  8
1
  5
A56
 10
79.4822
 20
276.900
 30
0.000000
  70
    32
  0
VERTEX
  8
1
  5
A57
 10
79.4800
 20
276.885
 30
0.000000
  70
    32
  0
VERTEX
  8
1
  5
A58
 10
79.4776
 20
276.871
 30
0.000000
  70
    32
  0
VERTEX
  8
1
  5
A59
 10
79.4752
 20
276.856
 30
0.000000
  70
    32
  0
VERTEX
  8
1
  5
A5A
 10
79.4727
 20
276.841
 30
0.000000
  70
    32
  0
VERTEX
  8
1
  5
A5B
 10
79.4701
 20
276.826
 30
0.000000
  70
    32
  0
VERTEX
  8
1
  5
A5C
 10
79.4674
 20
276.811
 30
0.000000
  70
    32
  0
VERTEX
  8
1
  5
A5D
 10
79.4646
 20
276.796
 30
0.000000
  70
    32
  0
VERTEX
  8
1
  5
A5E
 10
79.4618
 20
276.782
 30
0.000000
  70
    32
  0
VERTEX
  8
1
  5
A5F
 10
79.4588
 20
276.767
 30
0.000000
  70
    32
  0
VERTEX
  8
1
  5
A60
 10
79.4558
 20
276.752
 30
0.000000
  70
    32
  0
VERTEX
  8
1
  5
A61
 10
79.4527
 20
276.737
 30
0.000000
  70
    32
  0
VERTEX
  8
1
  5
A62
 10
79.4495
 20
276.722
 30
0.000000
  70
    32
  0
VERTEX
  8
1
  5
A63
 10
79.4463
 20
276.707
 30
0.000000
  70
    32
  0
VERTEX
  8
1
  5
A64
 10
79.4429
 20
276.692
 30
0.000000
  70
    32
  0
VERTEX
  8
1
  5
A65
 10
79.4395
 20
276.677
 30
0.000000
  70
    32
  0
VERTEX
  8
1
  5
A66
 10
79.4360
 20
276.662
 30
0.000000
  70
    32
  0
VERTEX
  8
1
  5
A67
 10
79.4324
 20
276.647
 30
0.000000
  70
    32
  0
VERTEX
  8
1
  5
A68
 10
79.4287
 20
276.632
 30
0.000000
  70
    32
  0
VERTEX
  8
1
  5
A69
 10
79.4250
 20
276.617
 30
0.000000
  70
    32
  0
VERTEX
  8
1
  5
A6A
 10
79.4211
 20
276.602
 30
0.000000
  70
    32
  0
VERTEX
  8
1
  5
A6B
 10
79.4172
 20
276.586
 30
0.000000
  70
    32
  0
VERTEX
  8
1
  5
A6C
 10
79.4132
 20
276.571
 30
0.000000
  70
    32
  0
VERTEX
  8
1
  5
A6D
 10
79.4091
 20
276.556
 30
0.000000
  70
    32
  0
VERTEX
  8
1
  5
A6E
 10
79.4050
 20
276.541
 30
0.000000
  70
    32
  0
VERTEX
  8
1
  5
A6F
 10
79.4007
 20
276.526
 30
0.000000
  70
    32
  0
VERTEX
  8
1
  5
A70
 10
79.3964
 20
276.510
 30
0.000000
  70
    32
  0
VERTEX
  8
1
  5
A71
 10
79.3920
 20
276.495
 30
0.000000
  70
    32
  0
VERTEX
  8
1
  5
A72
 10
79.3875
 20
276.480
 30
0.000000
  70
    32
  0
VERTEX
  8
1
  5
A73
 10
79.3830
 20
276.465
 30
0.000000
  70
    32
  0
VERTEX
  8
1
  5
A74
 10
79.3783
 20
276.449
 30
0.000000
  70
    32
  0
VERTEX
  8
1
  5
A75
 10
79.3736
 20
276.434
 30
0.000000
  70
    32
  0
VERTEX
  8
1
  5
A76
 10
79.3688
 20
276.419
 30
0.000000
  70
    32
  0
VERTEX
  8
1
  5
A77
 10
79.3639
 20
276.403
 30
0.000000
  70
    32
  0
VERTEX
  8
1
  5
A78
 10
79.3590
 20
276.388
 30
0.000000
  70
    32
  0
VERTEX
  8
1
  5
A79
 10
79.3539
 20
276.372
 30
0.000000
  70
    32
  0
VERTEX
  8
1
  5
A7A
 10
79.3488
 20
276.357
 30
0.000000
  70
    32
  0
VERTEX
  8
1
  5
A7B
 10
79.3436
 20
276.342
 30
0.000000
  70
    32
  0
VERTEX
  8
1
  5
A7C
 10
79.3383
 20
276.326
 30
0.000000
  70
    32
  0
VERTEX
  8
1
  5
A7D
 10
79.3329
 20
276.311
 30
0.000000
  70
    32
  0
VERTEX
  8
1
  5
A7E
 10
79.3275
 20
276.295
 30
0.000000
  70
    32
  0
VERTEX
  8
1
  5
A7F
 10
79.3220
 20
276.279
 30
0.000000
  70
    32
  0
VERTEX
  8
1
  5
A80
 10
79.3164
 20
276.264
 30
0.000000
  70
    32
  0
VERTEX
  8
1
  5
A81
 10
79.3107
 20
276.248
 30
0.000000
  70
    32
  0
VERTEX
  8
1
  5
A82
 10
79.3049
 20
276.233
 30
0.000000
  70
    32
  0
VERTEX
  8
1
  5
A83
 10
79.2991
 20
276.217
 30
0.000000
  70
    32
  0
VERTEX
  8
1
  5
A84
 10
79.2932
 20
276.201
 30
0.000000
  70
    32
  0
VERTEX
  8
1
  5
A85
 10
79.2872
 20
276.185
 30
0.000000
  70
    32
  0
VERTEX
  8
1
  5
A86
 10
79.2811
 20
276.170
 30
0.000000
  70
    32
  0
VERTEX
  8
1
  5
A87
 10
79.2750
 20
276.154
 30
0.000000
  70
    32
  0
VERTEX
  8
1
  5
A88
 10
79.2688
 20
276.138
 30
0.000000
  70
    32
  0
VERTEX
  8
1
  5
A89
 10
79.2624
 20
276.122
 30
0.000000
  70
    32
  0
VERTEX
  8
1
  5
A8A
 10
79.2561
 20
276.107
 30
0.000000
  70
    32
  0
VERTEX
  8
1
  5
A8B
 10
79.2496
 20
276.091
 30
0.000000
  70
    32
  0
VERTEX
  8
1
  5
A8C
 10
79.2431
 20
276.075
 30
0.000000
  70
    32
  0
VERTEX
  8
1
  5
A8D
 10
79.2364
 20
276.059
 30
0.000000
  70
    32
  0
VERTEX
  8
1
  5
A8E
 10
79.2297
 20
276.043
 30
0.000000
  70
    32
  0
VERTEX
  8
1
  5
A8F
 10
79.2230
 20
276.027
 30
0.000000
  70
    32
  0
VERTEX
  8
1
  5
A90
 10
79.2161
 20
276.011
 30
0.000000
  70
    32
  0
VERTEX
  8
1
  5
A91
 10
79.2092
 20
275.995
 30
0.000000
  70
    32
  0
VERTEX
  8
1
  5
A92
 10
79.2022
 20
275.979
 30
0.000000
  70
    32
  0
VERTEX
  8
1
  5
A93
 10
79.1951
 20
275.963
 30
0.000000
  70
    32
  0
VERTEX
  8
1
  5
A94
 10
79.1879
 20
275.947
 30
0.000000
  70
    32
  0
VERTEX
  8
1
  5
A95
 10
79.1807
 20
275.931
 30
0.000000
  70
    32
  0
VERTEX
  8
1
  5
A96
 10
79.1734
 20
275.914
 30
0.000000
  70
    32
  0
VERTEX
  8
1
  5
A97
 10
79.1660
 20
275.898
 30
0.000000
  70
    32
  0
VERTEX
  8
1
  5
A98
 10
79.1585
 20
275.882
 30
0.000000
  70
    32
  0
VERTEX
  8
1
  5
A99
 10
79.1510
 20
275.866
 30
0.000000
  70
    32
  0
VERTEX
  8
1
  5
A9A
 10
79.1434
 20
275.849
 30
0.000000
  70
    32
  0
VERTEX
  8
1
  5
A9B
 10
79.1357
 20
275.833
 30
0.000000
  70
    32
  0
VERTEX
  8
1
  5
A9C
 10
79.1279
 20
275.817
 30
0.000000
  70
    32
  0
VERTEX
  8
1
  5
A9D
 10
79.1201
 20
275.800
 30
0.000000
  70
    32
  0
VERTEX
  8
1
  5
A9E
 10
79.1121
 20
275.784
 30
0.000000
  70
    32
  0
VERTEX
  8
1
  5
A9F
 10
79.1041
 20
275.768
 30
0.000000
  70
    32
  0
VERTEX
  8
1
  5
AA0
 10
79.0961
 20
275.751
 30
0.000000
  70
    32
  0
VERTEX
  8
1
  5
AA1
 10
79.0879
 20
275.735
 30
0.000000
  70
    32
  0
VERTEX
  8
1
  5
AA2
 10
79.0797
 20
275.718
 30
0.000000
  70
    32
  0
VERTEX
  8
1
  5
AA3
 10
79.0714
 20
275.702
 30
0.000000
  70
    32
  0
VERTEX
  8
1
  5
AA4
 10
79.0631
 20
275.685
 30
0.000000
  70
    32
  0
VERTEX
  8
1
  5
AA5
 10
79.0547
 20
275.669
 30
0.000000
  70
    32
  0
VERTEX
  8
1
  5
AA6
 10
79.0462
 20
275.652
 30
0.000000
  70
    32
  0
VERTEX
  8
1
  5
AA7
 10
79.0376
 20
275.636
 30
0.000000
  70
    32
  0
VERTEX
  8
1
  5
AA8
 10
79.0290
 20
275.619
 30
0.000000
  70
    32
  0
VERTEX
  8
1
  5
AA9
 10
79.0203
 20
275.602
 30
0.000000
  70
    32
  0
VERTEX
  8
1
  5
AAA
 10
79.0115
 20
275.586
 30
0.000000
  70
    32
  0
VERTEX
  8
1
  5
AAB
 10
79.0026
 20
275.569
 30
0.000000
  70
    32
  0
VERTEX
  8
1
  5
AAC
 10
78.9937
 20
275.552
 30
0.000000
  70
    32
  0
VERTEX
  8
1
  5
AAD
 10
78.9848
 20
275.536
 30
0.000000
  70
    32
  0
VERTEX
  8
1
  5
AAE
 10
78.9757
 20
275.519
 30
0.000000
  70
    32
  0
VERTEX
  8
1
  5
AAF
 10
78.9666
 20
275.502
 30
0.000000
  70
    32
  0
VERTEX
  8
1
  5
AB0
 10
78.9574
 20
275.485
 30
0.000000
  70
    32
  0
VERTEX
  8
1
  5
AB1
 10
78.9482
 20
275.468
 30
0.000000
  70
    32
  0
VERTEX
  8
1
  5
AB2
 10
78.9389
 20
275.452
 30
0.000000
  70
    32
  0
VERTEX
  8
1
  5
AB3
 10
78.9295
 20
275.435
 30
0.000000
  70
    32
  0
VERTEX
  8
1
  5
AB4
 10
78.9201
 20
275.418
 30
0.000000
  70
    32
  0
VERTEX
  8
1
  5
AB5
 10
78.9106
 20
275.401
 30
0.000000
  70
    32
  0
VERTEX
  8
1
  5
AB6
 10
78.9010
 20
275.384
 30
0.000000
  70
    32
  0
VERTEX
  8
1
  5
AB7
 10
78.8914
 20
275.367
 30
0.000000
  70
    32
  0
VERTEX
  8
1
  5
AB8
 10
78.8817
 20
275.350
 30
0.000000
  70
    32
  0
VERTEX
  8
1
  5
AB9
 10
78.8719
 20
275.333
 30
0.000000
  70
    32
  0
VERTEX
  8
1
  5
ABA
 10
78.8621
 20
275.316
 30
0.000000
  70
    32
  0
VERTEX
  8
1
  5
ABB
 10
78.8522
 20
275.299
 30
0.000000
  70
    32
  0
VERTEX
  8
1
  5
ABC
 10
78.8423
 20
275.282
 30
0.000000
  70
    32
  0
VERTEX
  8
1
  5
ABD
 10
78.8323
 20
275.265
 30
0.000000
  70
    32
  0
VERTEX
  8
1
  5
ABE
 10
78.8222
 20
275.248
 30
0.000000
  70
    32
  0
VERTEX
  8
1
  5
ABF
 10
78.8121
 20
275.231
 30
0.000000
  70
    32
  0
VERTEX
  8
1
  5
AC0
 10
78.8020
 20
275.214
 30
0.000000
  70
    32
  0
VERTEX
  8
1
  5
AC1
 10
78.7917
 20
275.197
 30
0.000000
  70
    32
  0
VERTEX
  8
1
  5
AC2
 10
78.7814
 20
275.180
 30
0.000000
  70
    32
  0
VERTEX
  8
1
  5
AC3
 10
78.7711
 20
275.163
 30
0.000000
  70
    32
  0
VERTEX
  8
1
  5
AC4
 10
78.7607
 20
275.145
 30
0.000000
  70
    32
  0
VERTEX
  8
1
  5
AC5
 10
78.7502
 20
275.128
 30
0.000000
  70
    32
  0
VERTEX
  8
1
  5
AC6
 10
78.7397
 20
275.111
 30
0.000000
  70
    32
  0
VERTEX
  8
1
  5
AC7
 10
78.7291
 20
275.094
 30
0.000000
  70
    32
  0
VERTEX
  8
1
  5
AC8
 10
78.7185
 20
275.076
 30
0.000000
  70
    32
  0
VERTEX
  8
1
  5
AC9
 10
78.7078
 20
275.059
 30
0.000000
  70
    32
  0
VERTEX
  8
1
  5
ACA
 10
78.6971
 20
275.042
 30
0.000000
  70
    32
  0
VERTEX
  8
1
  5
ACB
 10
78.6863
 20
275.025
 30
0.000000
  70
    32
  0
VERTEX
  8
1
  5
ACC
 10
78.6754
 20
275.007
 30
0.000000
  70
    32
  0
VERTEX
  8
1
  5
ACD
 10
78.6645
 20
274.990
 30
0.000000
  70
    32
  0
VERTEX
  8
1
  5
ACE
 10
78.6535
 20
274.973
 30
0.000000
  70
    32
  0
VERTEX
  8
1
  5
ACF
 10
78.6425
 20
274.955
 30
0.000000
  70
    32
  0
VERTEX
  8
1
  5
AD0
 10
78.6315
 20
274.938
 30
0.000000
  70
    32
  0
VERTEX
  8
1
  5
AD1
 10
78.6204
 20
274.920
 30
0.000000
  70
    32
  0
VERTEX
  8
1
  5
AD2
 10
78.6092
 20
274.903
 30
0.000000
  70
    32
  0
VERTEX
  8
1
  5
AD3
 10
78.5980
 20
274.886
 30
0.000000
  70
    32
  0
VERTEX
  8
1
  5
AD4
 10
78.5867
 20
274.868
 30
0.000000
  70
    32
  0
VERTEX
  8
1
  5
AD5
 10
78.5754
 20
274.851
 30
0.000000
  70
    32
  0
VERTEX
  8
1
  5
AD6
 10
78.5640
 20
274.833
 30
0.000000
  70
    32
  0
VERTEX
  8
1
  5
AD7
 10
78.5526
 20
274.816
 30
0.000000
  70
    32
  0
VERTEX
  8
1
  5
AD8
 10
78.5412
 20
274.798
 30
0.000000
  70
    32
  0
VERTEX
  8
1
  5
AD9
 10
78.5297
 20
274.781
 30
0.000000
  70
    32
  0
VERTEX
  8
1
  5
ADA
 10
78.5181
 20
274.763
 30
0.000000
  70
    32
  0
VERTEX
  8
1
  5
ADB
 10
78.5065
 20
274.745
 30
0.000000
  70
    32
  0
VERTEX
  8
1
  5
ADC
 10
78.4949
 20
274.728
 30
0.000000
  70
    32
  0
VERTEX
  8
1
  5
ADD
 10
78.4832
 20
274.710
 30
0.000000
  70
    32
  0
VERTEX
  8
1
  5
ADE
 10
78.4714
 20
274.693
 30
0.000000
  70
    32
  0
VERTEX
  8
1
  5
ADF
 10
78.4596
 20
274.675
 30
0.000000
  70
    32
  0
VERTEX
  8
1
  5
AE0
 10
78.4478
 20
274.657
 30
0.000000
  70
    32
  0
VERTEX
  8
1
  5
AE1
 10
78.4359
 20
274.640
 30
0.000000
  70
    32
  0
VERTEX
  8
1
  5
AE2
 10
78.4240
 20
274.622
 30
0.000000
  70
    32
  0
VERTEX
  8
1
  5
AE3
 10
78.4120
 20
274.604
 30
0.000000
  70
    32
  0
VERTEX
  8
1
  5
AE4
 10
78.4000
 20
274.587
 30
0.000000
  70
    32
  0
VERTEX
  8
1
  5
AE5
 10
78.3880
 20
274.569
 30
0.000000
  70
    32
  0
VERTEX
  8
1
  5
AE6
 10
78.3759
 20
274.551
 30
0.000000
  70
    32
  0
VERTEX
  8
1
  5
AE7
 10
78.3638
 20
274.533
 30
0.000000
  70
    32
  0
VERTEX
  8
1
  5
AE8
 10
78.3516
 20
274.516
 30
0.000000
  70
    32
  0
VERTEX
  8
1
  5
AE9
 10
78.3394
 20
274.498
 30
0.000000
  70
    32
  0
VERTEX
  8
1
  5
AEA
 10
78.3272
 20
274.480
 30
0.000000
  70
    32
  0
VERTEX
  8
1
  5
AEB
 10
78.3149
 20
274.462
 30
0.000000
  70
    32
  0
VERTEX
  8
1
  5
AEC
 10
78.3026
 20
274.444
 30
0.000000
  70
    32
  0
VERTEX
  8
1
  5
AED
 10
78.2902
 20
274.426
 30
0.000000
  70
    32
  0
VERTEX
  8
1
  5
AEE
 10
78.2778
 20
274.408
 30
0.000000
  70
    32
  0
VERTEX
  8
1
  5
AEF
 10
78.2654
 20
274.391
 30
0.000000
  70
    32
  0
VERTEX
  8
1
  5
AF0
 10
78.2529
 20
274.373
 30
0.000000
  70
    32
  0
VERTEX
  8
1
  5
AF1
 10
78.2404
 20
274.355
 30
0.000000
  70
    32
  0
VERTEX
  8
1
  5
AF2
 10
78.2279
 20
274.337
 30
0.000000
  70
    32
  0
VERTEX
  8
1
  5
AF3
 10
78.2153
 20
274.319
 30
0.000000
  70
    32
  0
VERTEX
  8
1
  5
AF4
 10
78.2027
 20
274.301
 30
0.000000
  70
    32
  0
VERTEX
  8
1
  5
AF5
 10
78.1901
 20
274.283
 30
0.000000
  70
    32
  0
VERTEX
  8
1
  5
AF6
 10
78.1774
 20
274.265
 30
0.000000
  70
    32
  0
VERTEX
  8
1
  5
AF7
 10
78.1647
 20
274.247
 30
0.000000
  70
    32
  0
VERTEX
  8
1
  5
AF8
 10
78.1520
 20
274.229
 30
0.000000
  70
    32
  0
VERTEX
  8
1
  5
AF9
 10
78.1392
 20
274.211
 30
0.000000
  70
    32
  0
VERTEX
  8
1
  5
AFA
 10
78.1264
 20
274.193
 30
0.000000
  70
    32
  0
VERTEX
  8
1
  5
AFB
 10
78.1136
 20
274.175
 30
0.000000
  70
    32
  0
VERTEX
  8
1
  5
AFC
 10
78.1007
 20
274.156
 30
0.000000
  70
    32
  0
VERTEX
  8
1
  5
AFD
 10
78.0879
 20
274.138
 30
0.000000
  70
    32
  0
VERTEX
  8
1
  5
AFE
 10
78.0749
 20
274.120
 30
0.000000
  70
    32
  0
VERTEX
  8
1
  5
AFF
 10
78.0620
 20
274.102
 30
0.000000
  70
    32
  0
VERTEX
  8
1
  5
B00
 10
78.0490
 20
274.084
 30
0.000000
  70
    32
  0
VERTEX
  8
1
  5
B01
 10
78.0361
 20
274.066
 30
0.000000
  70
    32
  0
VERTEX
  8
1
  5
B02
 10
78.0230
 20
274.048
 30
0.000000
  70
    32
  0
VERTEX
  8
1
  5
B03
 10
78.0100
 20
274.029
 30
0.000000
  70
    32
  0
VERTEX
  8
1
  5
B04
 10
77.9969
 20
274.011
 30
0.000000
  70
    32
  0
VERTEX
  8
1
  5
B05
 10
77.9838
 20
273.993
 30
0.000000
  70
    32
  0
VERTEX
  8
1
  5
B06
 10
77.9707
 20
273.975
 30
0.000000
  70
    32
  0
VERTEX
  8
1
  5
B07
 10
77.9576
 20
273.956
 30
0.000000
  70
    32
  0
VERTEX
  8
1
  5
B08
 10
77.9444
 20
273.938
 30
0.000000
  70
    32
  0
VERTEX
  8
1
  5
B09
 10
77.9312
 20
273.920
 30
0.000000
  70
    32
  0
VERTEX
  8
1
  5
B0A
 10
77.9180
 20
273.901
 30
0.000000
  70
    32
  0
VERTEX
  8
1
  5
B0B
 10
77.9048
 20
273.883
 30
0.000000
  70
    32
  0
VERTEX
  8
1
  5
B0C
 10
77.8915
 20
273.865
 30
0.000000
  70
    32
  0
VERTEX
  8
1
  5
B0D
 10
77.8783
 20
273.846
 30
0.000000
  70
    32
  0
VERTEX
  8
1
  5
B0E
 10
77.8650
 20
273.828
 30
0.000000
  70
    32
  0
VERTEX
  8
1
  5
B0F
 10
77.8517
 20
273.809
 30
0.000000
  70
    32
  0
VERTEX
  8
1
  5
B10
 10
77.8383
 20
273.791
 30
0.000000
  70
    32
  0
VERTEX
  8
1
  5
B11
 10
77.8250
 20
273.773
 30
0.000000
  70
    32
  0
VERTEX
  8
1
  5
B12
 10
77.8116
 20
273.754
 30
0.000000
  70
    32
  0
VERTEX
  8
1
  5
B13
 10
77.7982
 20
273.736
 30
0.000000
  70
    32
  0
VERTEX
  8
1
  5
B14
 10
77.7849
 20
273.717
 30
0.000000
  70
    32
  0
VERTEX
  8
1
  5
B15
 10
77.7714
 20
273.699
 30
0.000000
  70
    32
  0
VERTEX
  8
1
  5
B16
 10
77.7580
 20
273.680
 30
0.000000
  70
    32
  0
VERTEX
  8
1
  5
B17
 10
77.7446
 20
273.662
 30
0.000000
  70
    32
  0
VERTEX
  8
1
  5
B18
 10
77.7311
 20
273.643
 30
0.000000
  70
    32
  0
VERTEX
  8
1
  5
B19
 10
77.7176
 20
273.625
 30
0.000000
  70
    32
  0
VERTEX
  8
1
  5
B1A
 10
77.7042
 20
273.606
 30
0.000000
  70
    32
  0
VERTEX
  8
1
  5
B1B
 10
77.6907
 20
273.587
 30
0.000000
  70
    32
  0
SEQEND
  8
1
  5
B1C
  0
LINE
  5
30
  8
1
 10
365.00000000018622
 20
219.49999999999989
 30
0.0
 11
290.00000000018622
 21
219.5
 31
0.0
  0
LINE
  5
31
  8
1
 10
365.00000000018622
 20
204.49999999999989
 30
0.0
 11
290.00000000018622
 21
204.5
 31
0.0
  0
LINE
  5
32
  8
1
 10
290.00000000018622
 20
246.0
 30
0.0
 11
365.00000000018622
 21
246.0
 31
0.0
  0
LINE
  5
33
  8
1
 10
365.00000000018622
 20
316.0
 30
0.0
 11
290.00000000018622
 21
316.0
 31
0.0
  0
LINE
  5
34
  8
CENTER
 10
75.0
 20
281.0
 30
0.0
 11
376.49480159556941
 21
281.0
 31
0.0
1001
ACAD
1000
ASC_BOUNDS
1002
{
1070
    19
1002
}
  0
LINE
  5
37
  8
1
  6
HIDDEN
 10
290.0
 20
309.0
 30
0.0
 11
354.70000000018621
 21
309.0
 31
0.0
  0
LINE
  5
39
  8
1
  6
HIDDEN
 10
290.0
 20
253.0
 30
0.0
 11
354.70000000018621
 21
253.0
 31
0.0
  0
LINE
  5
3A
  8
1
 10
290.0
 20
147.0
 30
0.0
 11
355.0
 21
147.0
 31
0.0
  0
LINE
  5
3B
  8
1
 10
290.0
 20
202.99999999999989
 30
0.0
 11
355.0
 21
203.0
 31
0.0
  0
LINE
  5
3C
  8
CENTER
 10
135.09086032895439
 20
175.0
 30
0.0
 11
364.18505341926129
 21
175.0
 31
0.0
  0
CIRCLE
  5
3D
  8
1
 62
     8
 10
297.00000000018622
 20
309.0
 30
0.0
 40
4.0
  0
ARC
  5
3E
  8
1
 62
     8
 10
202.9999999995344
 20
309.0
 30
0.0
 40
4.0
 50
0.0
 51
180.0
  0
ARC
  5
3F
  8
1
 62
     8
 10
141.9999999995342
 20
309.00000000013949
 30
0.0
 40
4.0
 50
359.9999999980011
 51
318.59037790081652
  0
LINE
  5
40
  8
1
 10
134.99999999953431
 20
292.0
 30
0.0
 11
134.9999999995344
 21
316.0
 31
0.0
  0
LINE
  5
41
  8
1
 10
209.9999999995344
 20
246.00000000013961
 30
0.0
 11
209.999999999534
 21
316.0
 31
0.0
  0
LINE
  5
42
  8
1
 10
290.00000000018622
 20
316.0
 30
0.0
 11
290.00000000018622
 21
246.0
 31
0.0
  0
LINE
  5
43
  8
1
 10
193.0
 20
318.00000000000011
 30
0.0
 11
193.0
 21
309.0
 31
0.0
  0
LINE
  5
44
  8
1
 10
167.0
 20
318.0
 30
0.0
 11
167.0
 21
309.0
 31
0.0
  0
LINE
  5
45
  8
1
 10
288.79999999999978
 20
310.50138317317868
 30
0.0
 11
288.79999999999978
 21
318.00000878785778
 31
0.0
  0
LINE
  5
46
  8
1
 10
288.63396534078862
 20
311.05320000000012
 30
0.0
 11
284.33396534078878
 21
317.5518256146791
 31
0.0
  0
LINE
  5
47
  8
1
 10
283.49999999999989
 20
317.9379588526765
 30
0.0
 11
283.49999999999989
 21
243.99999121214211
 31
0.0
  0
LINE
  5
48
  8
1
 10
281.0
 20
313.80000878785791
 30
0.0
 11
281.0
 21
248.1999912122352
 31
0.0
  0
LINE
  5
49
  8
1
 10
278.5
 20
317.9379588526765
 30
0.0
 11
278.5
 21
243.99999121214211
 31
0.0
  0
LINE
  5
4A
  8
1
 10
276.0
 20
313.80000878785791
 30
0.0
 11
276.0
 21
248.1999912122352
 31
0.0
  0
LINE
  5
4B
  8
1
 10
273.49999999999989
 20
317.9379588526765
 30
0.0
 11
273.49999999999989
 21
243.99999121214211
 31
0.0
  0
LINE
  5
4C
  8
1
 10
271.0
 20
313.80000878785791
 30
0.0
 11
271.0
 21
248.1999912122352
 31
0.0
  0
LINE
  5
4D
  8
1
 10
268.5
 20
318.03795885267652
 30
0.0
 11
268.5
 21
243.99999121214211
 31
0.0
  0
LINE
  5
4E
  8
1
 10
226.5
 20
317.9379588526765
 30
0.0
 11
226.5
 21
243.99999121214211
 31
0.0
  0
LINE
  5
4F
  8
1
 10
229.0
 20
313.80000878785791
 30
0.0
 11
229.0
 21
248.1999912122352
 31
0.0
  0
LINE
  5
50
  8
1
 10
231.49999999999989
 20
318.00000878785778
 30
0.0
 11
231.49999999999989
 21
243.99999121214211
 31
0.0
  0
LINE
  5
51
  8
1
 10
211.36603465921129
 20
311.05320000000012
 30
0.0
 11
215.66603465921111
 21
317.5518256146791
 31
0.0
  0
LINE
  5
52
  8
1
 10
224.0
 20
313.80000878785791
 30
0.0
 11
224.0
 21
248.1999912122352
 31
0.0
  0
LINE
  5
53
  8
1
 10
221.49999999999989
 20
317.9379588526765
 30
0.0
 11
221.49999999999989
 21
243.99999121214211
 31
0.0
  0
LINE
  5
54
  8
1
 10
219.0
 20
313.80000878785791
 30
0.0
 11
219.0
 21
248.1999912122352
 31
0.0
  0
LINE
  5
55
  8
1
 10
216.5
 20
317.9379588526765
 30
0.0
 11
216.5
 21
243.99999121214211
 31
0.0
  0
LINE
  5
56
  8
1
 10
211.2000000000001
 20
310.50138317317868
 30
0.0
 11
211.2000000000001
 21
318.00000878785778
 31
0.0
  0
LINE
  5
57
  8
CENTER
 10
75.772727272727238
 20
187.0
 30
0.0
 11
150.65513931299091
 21
187.0
 31
0.0
  0
LINE
  5
58
  8
1
 10
116.9999999999999
 20
174.5
 30
0.0
 11
117.9999999999999
 21
173.5
 31
0.0
  0
LINE
  5
59
  8
1
 10
116.9999999999999
 20
199.5
 30
0.0
 11
117.9999999999999
 21
200.49999999999989
 31
0.0
  0
LINE
  5
5A
  8
1
 10
117.0
 20
268.5
 30
0.0
 11
118.0
 21
267.5
 31
0.0
  0
LINE
  5
5B
  8
1
 10
117.0
 20
293.5
 30
0.0
 11
118.0
 21
294.49999999999989
 31
0.0
  0
LINE
  5
5C
  8
1
 10
111.90000000000001
 20
277.5
 30
0.0
 11
117.0
 21
277.49999999999989
 31
0.0
1001
ACAD
1000
ASC_BOUNDS
1002
{
1070
    19
1002
}
  0
LINE
  5
5D
  8
1
 10
111.90000000000001
 20
284.4999999999996
 30
0.0
 11
117.0
 21
284.4999999999996
 31
0.0
1001
ACAD
1000
ASC_BOUNDS
1002
{
1070
    19
1002
}
  0
LINE
  5
5E
  8
1
 10
95.400000000000105
 20
177.0
 30
0.0
 11
94.900000000000105
 21
177.5
 31
0.0
  0
LINE
  5
5F
  8
1
 10
111.89999999999991
 20
177.5
 30
0.0
 11
111.39999999999991
 21
177.0
 31
0.0
  0
LINE
  5
60
  8
1
 10
95.400000000000105
 20
177.0
 30
0.0
 11
111.39999999999991
 21
177.0
 31
0.0
  0
LINE
  5
61
  8
1
 10
113.90000000000001
 20
179.0
 30
0.0
 11
116.9999999999999
 21
179.0
 31
0.0
  0
LINE
  5
62
  8
1
 10
113.90000000000001
 20
195.0
 30
0.0
 11
116.9999999999999
 21
194.99999999999989
 31
0.0
  0
LINE
  5
63
  8
1
 10
111.89999999999991
 20
187.0
 30
0.0
 11
113.90000000000001
 21
186.99999999999989
 31
0.0
  0
LINE
  5
64
  8
1
 10
95.400000000000105
 20
197.0
 30
0.0
 11
102.89999999999991
 21
196.99999999999989
 31
0.0
  0
LINE
  5
65
  8
1
 10
95.400000000000105
 20
197.0
 30
0.0
 11
94.900000000000105
 21
196.5
 31
0.0
  0
ARC
  5
66
  8
1
 10
112.90000000000001
 20
179.0
 30
0.0
 40
1.0
 50
0.0
 51
180.0
  0
LINE
  5
67
  8
1
 10
116.9999999999999
 20
199.5
 30
0.0
 11
116.9999999999999
 21
182.09999999999991
 31
0.0
  0
LINE
  5
68
  8
1
 10
116.9999999999999
 20
182.09999999999991
 30
0.0
 11
116.9999999999999
 21
174.5
 31
0.0
  0
LINE
  5
69
  8
1
 10
113.90000000000001
 20
179.0
 30
0.0
 11
113.90000000000001
 21
182.09999999999999
 31
0.0
  0
LINE
  5
6A
  8
1
 10
113.90000000000001
 20
182.09999999999999
 30
0.0
 11
113.90000000000001
 21
195.0
 31
0.0
  0
LINE
  5
6B
  8
1
 10
111.89999999999991
 20
177.5
 30
0.0
 11
111.89999999999991
 21
187.0
 31
0.0
  0
LINE
  5
6C
  8
1
 10
94.900000000000105
 20
191.89999999999989
 30
0.0
 11
94.900000000000105
 21
177.5
 31
0.0
  0
LINE
  5
6D
  8
1
 10
94.900000000000105
 20
191.89999999999989
 30
0.0
 11
94.900000000000105
 21
196.5
 31
0.0
  0
LINE
  5
6E
  8
1
 10
102.89999999999991
 20
197.0
 30
0.0
 11
102.89999999999991
 21
187.0
 31
0.0
  0
LINE
  5
6F
  8
1
 10
111.89999999999991
 20
188.99999999999989
 30
0.0
 11
103.89999999999991
 21
188.99999999999989
 31
0.0
  0
LINE
  5
70
  8
1
 10
103.89999999999991
 20
195.09999999999999
 30
0.0
 11
103.89999999999991
 21
188.99999999999989
 31
0.0
  0
LINE
  5
71
  8
1
 10
111.89999999999991
 20
195.09999999999999
 30
0.0
 11
103.89999999999991
 21
195.09999999999999
 31
0.0
  0
LINE
  5
72
  8
1
 10
111.89999999999991
 20
188.99999999999989
 30
0.0
 11
111.89999999999991
 21
195.09999999999999
 31
0.0
  0
LINE
  5
73
  8
1
 10
102.89999999999991
 20
187.0
 30
0.0
 11
113.90000000000001
 21
187.0
 31
0.0
  0
LINE
  5
74
  8
1
 10
109.39999999999991
 20
188.99999999999989
 30
0.0
 11
109.39999999999991
 21
187.0
 31
0.0
  0
LINE
  5
75
  8
1
 10
106.39999999999991
 20
188.99999999999989
 30
0.0
 11
106.39999999999991
 21
187.0
 31
0.0
  0
LINE
  5
76
  8
1
 10
80.507710997216961
 20
183.49999999999989
 30
0.0
 11
94.900000000000119
 21
183.49999999999989
 31
0.0
1001
ACAD
1000
ASC_BOUNDS
1002
{
1070
    19
1002
}
  0
LINE
  5
77
  8
1
 10
79.737534118868723
 20
190.5
 30
0.0
 11
94.900000000000105
 21
190.49999999999969
 31
0.0
1001
ACAD
1000
ASC_BOUNDS
1002
{
1070
    19
1002
}
  0
LINE
  5
78
  8
1
 10
117.0
 20
276.09999999999991
 30
0.0
 11
117.0
 21
268.5
 31
0.0
  0
LINE
  5
79
  8
1
 10
117.0
 20
293.5
 30
0.0
 11
117.0
 21
276.09999999999991
 31
0.0
  0
ARC
  5
7A
  8
1
 10
112.90000000000001
 20
273.0
 30
0.0
 40
1.0
 50
0.0
 51
180.0
  0
ARC
  5
7B
  8
1
 10
112.90000000000001
 20
289.0
 30
0.0
 40
1.0
 50
180.0
 51
0.0
  0
LINE
  5
7C
  8
1
 10
102.90000000000001
 20
292.0
 30
0.0
 11
102.90000000000001
 21
284.5
 31
0.0
  0
LINE
  5
7D
  8
1
 10
111.90000000000001
 20
273.0
 30
0.0
 11
111.90000000000011
 21
270.5
 31
0.0
  0
LINE
  5
7E
  8
1
 10
111.90000000000001
 20
291.5
 30
0.0
 11
111.90000000000001
 21
289.0
 31
0.0
  0
LINE
  5
7F
  8
1
 10
113.90000000000001
 20
289.0
 30
0.0
 11
113.90000000000001
 21
284.4999999999996
 31
0.0
  0
LINE
  5
80
  8
1
 10
102.90000000000001
 20
277.49999999999989
 30
0.0
 11
103.90000000000001
 21
277.49999999999989
 31
0.0
  0
LINE
  5
81
  8
1
 10
102.90000000000001
 20
284.5
 30
0.0
 11
103.90000000000001
 21
284.5
 31
0.0
  0
LINE
  5
82
  8
1
 10
111.90000000000001
 20
291.5
 30
0.0
 11
111.40000000000001
 21
292.0
 31
0.0
  0
LINE
  5
83
  8
1
 10
111.90000000000011
 20
270.5
 30
0.0
 11
111.40000000000011
 21
270.0
 31
0.0
  0
LINE
  5
84
  8
1
 10
113.90000000000001
 20
273.0
 30
0.0
 11
117.0
 21
273.0
 31
0.0
  0
LINE
  5
85
  8
1
 10
113.90000000000001
 20
289.0
 30
0.0
 11
117.0
 21
289.0
 31
0.0
  0
LINE
  5
86
  8
1
 10
113.90000000000001
 20
277.5
 30
0.0
 11
113.90000000000001
 21
273.0
 31
0.0
  0
LINE
  5
87
  8
1
 10
102.90000000000001
 20
277.49999999999989
 30
0.0
 11
102.90000000000001
 21
270.0
 31
0.0
  0
LINE
  5
88
  8
1
 10
94.900000000000034
 20
270.5
 30
0.0
 11
94.900000000000034
 21
277.49999999999989
 31
0.0
  0
LINE
  5
89
  8
1
 10
95.400000000000034
 20
277.49999999999989
 30
0.0
 11
94.900000000000034
 21
276.99999999999989
 31
0.0
  0
LINE
  5
8A
  8
1
 10
95.400000000000034
 20
284.5
 30
0.0
 11
94.900000000000034
 21
285.0
 31
0.0
  0
LINE
  5
8B
  8
1
 10
95.400000000000148
 20
292.0
 30
0.0
 11
94.900000000000134
 21
291.5
 31
0.0
  0
LINE
  5
8C
  8
1
 10
94.900000000000034
 20
270.5
 30
0.0
 11
95.400000000000034
 21
270.0
 31
0.0
  0
LINE
  5
8D
  8
1
 10
94.900000000000091
 20
284.5
 30
0.0
 11
94.900000000000134
 21
291.5
 31
0.0
  0
LINE
  5
8E
  8
1
 10
95.400000000000148
 20
292.0
 30
0.0
 11
111.40000000000001
 21
292.0
 31
0.0
  0
LINE
  5
8F
  8
1
 10
95.400000000000034
 20
270.0
 30
0.0
 11
111.40000000000011
 21
270.0
 31
0.0
  0
CIRCLE
  5
90
  8
1
 10
107.90000000000001
 20
273.0
 30
0.0
 40
1.75
  0
CIRCLE
  5
91
  8
1
 10
107.90000000000001
 20
289.0
 30
0.0
 40
1.75
  0
LINE
  5
92
  8
1
 10
111.90000000000001
 20
270.96257005005759
 30
0.0
 11
103.90000000000001
 21
270.96257005005759
 31
0.0
  0
LINE
  5
93
  8
1
 10
111.90000000000001
 20
276.0
 30
0.0
 11
103.90000000000001
 21
276.0
 31
0.0
  0
LINE
  5
94
  8
1
 10
111.90000000000001
 20
286.0
 30
0.0
 11
103.90000000000001
 21
286.0
 31
0.0
  0
LINE
  5
95
  8
1
 10
111.90000000000001
 20
291.03742994994229
 30
0.0
 11
103.90000000000001
 21
291.03742994994229
 31
0.0
  0
LINE
  5
96
  8
1
 10
111.90000000000001
 20
291.03742994994229
 30
0.0
 11
111.90000000000001
 21
289.0
 31
0.0
  0
LINE
  5
97
  8
1
 10
111.90000000000001
 20
273.0
 30
0.0
 11
111.90000000000001
 21
270.96257005005759
 31
0.0
  0
CIRCLE
  5
98
  8
1
 10
107.90000000000001
 20
273.0
 30
0.0
 40
1.0
  0
CIRCLE
  5
99
  8
1
 10
107.90000000000001
 20
289.0
 30
0.0
 40
1.0
  0
LINE
  5
9A
  8
1
 10
103.90000000000001
 20
291.03742994994229
 30
0.0
 11
103.90000000000001
 21
270.96257005005759
 31
0.0
  0
LINE
  5
9B
  8
1
 10
111.90000000000001
 20
270.96257005005759
 30
0.0
 11
111.90000000000001
 21
291.03742994994229
 31
0.0
  0
LINE
  5
9C
  8
1
 10
79.73753411886878
 20
284.5
 30
0.0
 11
103.90000000000001
 21
284.49999999999972
 31
0.0
1001
ACAD
1000
ASC_BOUNDS
1002
{
1070
    19
1002
}
  0
LINE
  5
9D
  8
1
 10
80.507710997216975
 20
277.49999999999989
 30
0.0
 11
103.90000000000001
 21
277.5
 31
0.0
1001
ACAD
1000
ASC_BOUNDS
1002
{
1070
    19
1002
}
  0
LINE
  5
9E
  8
1
 10
211.0
 20
202.0
 30
0.0
 11
215.66603465921111
 21
209.05181682682121
 31
0.0
  0
LINE
  5
9F
  8
1
 10
216.5
 20
209.5
 30
0.0
 11
211.0
 21
209.5
 31
0.0
  0
LINE
  5
A0
  8
1
 10
211.0
 20
199.00000000000011
 30
0.0
 11
216.5
 21
199.0
 31
0.0
1001
ACAD
1000
ASC_BOUNDS
1002
{
1070
    19
1002
}
  0
LINE
  5
A1
  8
1
 10
211.0
 20
192.99999999999989
 30
0.0
 11
216.5
 21
193.0
 31
0.0
1001
ACAD
1000
ASC_BOUNDS
1002
{
1070
    19
1002
}
  0
LINE
  5
A2
  8
1
 10
210.99999999999989
 20
157.00000000000011
 30
0.0
 11
216.5
 21
157.0
 31
0.0
1001
ACAD
1000
ASC_BOUNDS
1002
{
1070
    19
1002
}
  0
LINE
  5
A3
  8
1
 10
216.5
 20
140.5
 30
0.0
 11
211.0
 21
140.5
 31
0.0
  0
LINE
  5
A4
  8
1
 10
211.0
 20
148.0
 30
0.0
 11
215.66603465921111
 21
140.94818317317871
 31
0.0
  0
LINE
  5
A5
  8
1
 10
210.99999999999989
 20
150.99999999999989
 30
0.0
 11
216.5
 21
150.99999999999989
 31
0.0
1001
ACAD
1000
ASC_BOUNDS
1002
{
1070
    19
1002
}
  0
LINE
  5
A6
  8
1
 10
216.5
 20
243.99999121214211
 30
0.0
 11
211.2000000000001
 21
243.99999121214211
 31
0.0
  0
LINE
  5
A7
  8
1
 10
211.36603465921129
 20
250.9467999999998
 30
0.0
 11
215.66603465921111
 21
244.44817438532081
 31
0.0
  0
LINE
  5
A8
  8
1
 10
211.19999999999999
 20
305.05319999999989
 30
0.0
 11
216.5
 21
305.0532
 31
0.0
1001
ACAD
1000
ASC_BOUNDS
1002
{
1070
    19
1002
}
  0
LINE
  5
A9
  8
1
 10
211.19999999999999
 20
299.05319999999989
 30
0.0
 11
216.5
 21
299.05319999999989
 31
0.0
1001
ACAD
1000
ASC_BOUNDS
1002
{
1070
    19
1002
}
  0
LINE
  5
AA
  8
1
 10
211.19999999999999
 20
262.9468
 30
0.0
 11
216.5
 21
262.9468
 31
0.0
1001
ACAD
1000
ASC_BOUNDS
1002
{
1070
    19
1002
}
  0
LINE
  5
AB
  8
1
 10
211.19999999999999
 20
256.9468
 30
0.0
 11
216.5
 21
256.9468
 31
0.0
1001
ACAD
1000
ASC_BOUNDS
1002
{
1070
    19
1002
}
  0
LINE
  5
AC
  8
1
 10
198.1170093578838
 20
298.48303476166819
 30
0.0
 11
196.6170093578838
 21
299.34906016545261
 31
0.0
  0
LINE
  5
AD
  8
1
 10
196.6170093578838
 20
299.34906016545261
 30
0.0
 11
195.1170093578838
 21
298.48303476166819
 31
0.0
  0
LINE
  5
AE
  8
1
 10
195.1170093578838
 20
298.48303476166819
 30
0.0
 11
195.1170093578838
 21
296.75098395409941
 31
0.0
  0
LINE
  5
AF
  8
1
 10
195.1170093578838
 20
296.75098395409941
 30
0.0
 11
196.6170093578838
 21
295.88495855031488
 31
0.0
  0
LINE
  5
B0
  8
1
 10
196.6170093578838
 20
295.88495855031488
 30
0.0
 11
198.1170093578838
 21
296.75098395409941
 31
0.0
  0
LINE
  5
B1
  8
1
 10
198.1170093578838
 20
296.75098395409941
 30
0.0
 11
198.1170093578838
 21
298.48303476166819
 31
0.0
  0
CIRCLE
  5
B2
  8
1
 10
196.6170093578838
 20
297.61700935788377
 30
0.0
 40
2.9803847577293361
  0
CIRCLE
  5
B3
  8
1
 10
196.6170093578838
 20
297.61700935788377
 30
0.0
 40
3.5
  0
LINE
  5
B4
  8
1
 10
198.1170093578838
 20
265.24901604590048
 30
0.0
 11
196.6170093578838
 21
266.11504144968501
 31
0.0
  0
LINE
  5
B5
  8
1
 10
196.6170093578838
 20
266.11504144968501
 30
0.0
 11
195.1170093578838
 21
265.24901604590048
 31
0.0
  0
LINE
  5
B6
  8
1
 10
195.1170093578838
 20
265.24901604590048
 30
0.0
 11
195.1170093578838
 21
263.51696523833169
 31
0.0
  0
LINE
  5
B7
  8
1
 10
195.1170093578838
 20
263.51696523833169
 30
0.0
 11
196.6170093578838
 21
262.65093983454727
 31
0.0
  0
LINE
  5
B8
  8
1
 10
196.6170093578838
 20
262.65093983454727
 30
0.0
 11
198.1170093578838
 21
263.51696523833169
 31
0.0
  0
LINE
  5
B9
  8
1
 10
198.1170093578838
 20
263.51696523833169
 30
0.0
 11
198.1170093578838
 21
265.24901604590048
 31
0.0
  0
CIRCLE
  5
BA
  8
1
 10
196.6170093578838
 20
264.38299064211611
 30
0.0
 40
2.9803847577293361
  0
CIRCLE
  5
BB
  8
1
 10
196.6170093578838
 20
264.38299064211611
 30
0.0
 40
3.5
  0
LINE
  5
BC
  8
1
 10
164.88299064211611
 20
265.24901604590042
 30
0.0
 11
163.38299064211611
 21
266.11504144968478
 31
0.0
  0
LINE
  5
BD
  8
1
 10
163.38299064211611
 20
266.11504144968478
 30
0.0
 11
161.88299064211611
 21
265.24901604590042
 31
0.0
  0
LINE
  5
BE
  8
1
 10
161.88299064211611
 20
265.24901604590042
 30
0.0
 11
161.88299064211611
 21
263.51696523833158
 31
0.0
  0
LINE
  5
BF
  8
1
 10
161.88299064211611
 20
263.51696523833158
 30
0.0
 11
163.38299064211611
 21
262.65093983454722
 31
0.0
  0
LINE
  5
C0
  8
1
 10
163.38299064211611
 20
262.65093983454722
 30
0.0
 11
164.88299064211611
 21
263.51696523833158
 31
0.0
  0
LINE
  5
C1
  8
1
 10
164.88299064211611
 20
263.51696523833158
 30
0.0
 11
164.88299064211611
 21
265.24901604590042
 31
0.0
  0
CIRCLE
  5
C2
  8
1
 10
163.38299064211611
 20
264.382990642116
 30
0.0
 40
2.9803847577293361
  0
CIRCLE
  5
C3
  8
1
 10
163.38299064211611
 20
264.382990642116
 30
0.0
 40
3.5
  0
LINE
  5
C4
  8
1
 10
164.882990642116
 20
298.48303476166819
 30
0.0
 11
163.382990642116
 21
299.34906016545273
 31
0.0
  0
LINE
  5
C5
  8
1
 10
163.382990642116
 20
299.34906016545273
 30
0.0
 11
161.882990642116
 21
298.48303476166819
 31
0.0
  0
LINE
  5
C6
  8
1
 10
161.882990642116
 20
298.48303476166819
 30
0.0
 11
161.882990642116
 21
296.75098395409941
 31
0.0
  0
LINE
  5
C7
  8
1
 10
161.882990642116
 20
296.75098395409941
 30
0.0
 11
163.382990642116
 21
295.88495855031499
 31
0.0
  0
LINE
  5
C8
  8
1
 10
163.382990642116
 20
295.88495855031499
 30
0.0
 11
164.882990642116
 21
296.75098395409941
 31
0.0
  0
LINE
  5
C9
  8
1
 10
164.882990642116
 20
296.75098395409941
 30
0.0
 11
164.882990642116
 21
298.48303476166819
 31
0.0
  0
CIRCLE
  5
CA
  8
1
 10
163.382990642116
 20
297.61700935788389
 30
0.0
 40
2.9803847577293361
  0
CIRCLE
  5
CB
  8
1
 10
163.382990642116
 20
297.61700935788389
 30
0.0
 40
3.5
  0
ARC
  5
CC
  8
1
 62
     8
 10
141.9999999995342
 20
253.00000000013961
 30
0.0
 40
4.0
 50
41.409622099183437
 51
359.9999999980007
  0
ARC
  5
CD
  8
1
 62
     8
 10
202.9999999995344
 20
253.00000000013961
 30
0.0
 40
4.0
 50
180.0000000019993
 51
359.9999999980007
  0
LINE
  5
CE
  8
1
 10
144.0
 20
164.0041500647541
 30
0.0
 11
144.0
 21
162.0041500647541
 31
0.0
  0
LINE
  5
CF
  8
1
 10
145.0
 20
164.34415006475419
 30
0.0
 11
145.0
 21
165.80415006475411
 31
0.0
  0
LINE
  5
D0
  8
1
 10
144.0
 20
165.5041500647541
 30
0.0
 11
144.0
 21
165.80415006475411
 31
0.0
  0
LINE
  5
D1
  8
1
 10
144.0
 20
165.8041500647542
 30
0.0
 11
144.99999999999989
 21
165.80415006475411
 31
0.0
  0
LINE
  5
D2
  8
1
 10
144.0
 20
165.5041500647541
 30
0.0
 11
144.0
 21
164.0041500647541
 31
0.0
  0
LINE
  5
D3
  8
1
 10
140.0
 20
164.98453482248351
 30
0.0
 11
140.30000000000001
 21
165.5041500647541
 31
0.0
  0
LINE
  5
D4
  8
1
 10
140.30000000000001
 20
165.5041500647541
 30
0.0
 11
144.0
 21
165.5041500647541
 31
0.0
  0
LINE
  5
D5
  8
1
 10
145.0
 20
158.2041500647542
 30
0.0
 11
145.0
 21
159.84415006475419
 31
0.0
  0
LINE
  5
D6
  8
1
 10
144.0
 20
160.0041500647541
 30
0.0
 11
144.0
 21
158.5041500647541
 31
0.0
  0
LINE
  5
D7
  8
1
 10
144.0
 20
158.20415006475409
 30
0.0
 11
144.99999999999989
 21
158.20415006475409
 31
0.0
  0
LINE
  5
D8
  8
1
 10
144.0
 20
158.5041500647541
 30
0.0
 11
144.0
 21
158.20415006475409
 31
0.0
  0
LINE
  5
D9
  8
1
 10
140.30000000000001
 20
158.5041500647541
 30
0.0
 11
140.0
 21
159.0237653070248
 31
0.0
  0
LINE
  5
DA
  8
1
 10
144.0
 20
158.5041500647541
 30
0.0
 11
140.30000000000001
 21
158.5041500647541
 31
0.0
  0
LINE
  5
DB
  8
1
 10
144.0
 20
162.0041500647541
 30
0.0
 11
144.0
 21
160.0041500647541
 31
0.0
  0
LINE
  5
DC
  8
1
 10
145.0
 20
158.20415006475409
 30
0.0
 11
145.0
 21
165.80415006475411
 31
0.0
  0
LINE
  5
DD
  8
1
 10
140.0
 20
165.09415006475419
 30
0.0
 11
140.0
 21
159.11382054734449
 31
0.0
  0
LINE
  5
DE
  8
1
 10
140.0
 20
159.0237653070248
 30
0.0
 11
140.0
 21
164.98453482248351
 31
0.0
  0
LINE
  5
DF
  8
1
 10
140.30000000000001
 20
158.5041500647541
 30
0.0
 11
140.30000000000001
 21
165.5041500647541
 31
0.0
  0
LINE
  5
E0
  8
1
 10
186.1999999999999
 20
147.00000000013961
 30
0.0
 11
186.1999999999999
 21
145.50000000013949
 31
0.0
  0
LINE
  5
E1
  8
1
 10
203.80000000000001
 20
147.00000000013961
 30
0.0
 11
203.80000000000001
 21
145.50000000013961
 31
0.0
  0
LINE
  5
E2
  8
1
 10
168.80000000000001
 20
147.00000000013961
 30
0.0
 11
168.80000000000001
 21
145.50000000013961
 31
0.0
  0
LINE
  5
E3
  8
1
 10
151.19999999999999
 20
147.00000000013961
 30
0.0
 11
151.19999999999999
 21
145.50000000013949
 31
0.0
  0
LINE
  5
E4
  8
1
  6
HIDDEN
 62
     8
 10
206.9999999995344
 20
145.50000000013961
 30
0.0
 11
206.9999999995344
 21
130.50000000013949
 31
0.0
  0
LINE
  5
E5
  8
1
  6
HIDDEN
 10
206.29999999953441
 20
145.50000000013961
 30
0.0
 11
206.29999999953441
 21
130.50000000013961
 31
0.0
  0
LINE
  5
E6
  8
1
  6
HIDDEN
 62
     8
 10
198.9999999995344
 20
145.50000000013961
 30
0.0
 11
198.9999999995344
 21
130.50000000013949
 31
0.0
  0
LINE
  5
E7
  8
1
  6
HIDDEN
 10
199.69999999953441
 20
145.50000000013961
 30
0.0
 11
199.69999999953441
 21
130.50000000013961
 31
0.0
  0
LINE
  5
E8
  8
1
  6
HIDDEN
 10
138.69999999953421
 20
145.50000000013961
 30
0.0
 11
138.69999999953421
 21
130.50000000013961
 31
0.0
  0
LINE
  5
E9
  8
1
  6
HIDDEN
 62
     8
 10
137.9999999995342
 20
145.50000000013961
 30
0.0
 11
137.9999999995342
 21
130.50000000013949
 31
0.0
  0
LINE
  5
EA
  8
1
  6
HIDDEN
 10
145.29999999953409
 20
145.50000000013961
 30
0.0
 11
145.29999999953409
 21
130.50000000013961
 31
0.0
  0
LINE
  5
EB
  8
1
  6
HIDDEN
 62
     8
 10
145.9999999995342
 20
145.50000000013961
 30
0.0
 11
145.9999999995342
 21
130.50000000013949
 31
0.0
  0
LINE
  5
EC
  8
1
 10
209.99999999953431
 20
145.50000000013961
 30
0.0
 11
209.99999999953431
 21
130.50000000013961
 31
0.0
  0
LINE
  5
ED
  8
1
 10
134.9999999995342
 20
145.50000000013961
 30
0.0
 11
134.9999999995342
 21
130.50000000013961
 31
0.0
  0
LINE
  5
EE
  8
1
 10
134.9999999995342
 20
130.50000000013961
 30
0.0
 11
209.99999999953431
 21
130.50000000013961
 31
0.0
  0
LINE
  5
EF
  8
1
 10
193.0
 20
246.00000000013961
 30
0.0
 11
209.99999999953431
 21
246.00000000013961
 31
0.0
  0
LINE
  5
F0
  8
1
 10
134.9999999995342
 20
145.50000000013961
 30
0.0
 11
209.99999999953431
 21
145.50000000013961
 31
0.0
  0
ARC
  5
F1
  8
1
 10
202.9999999995344
 20
252.99999999986039
 30
0.0
 40
3.2999999999999989
 50
179.9999999977789
 51
0.0
  0
ARC
  5
F2
  8
1
 10
141.9999999995342
 20
252.99999999986039
 30
0.0
 40
3.2999999999999989
 50
24.619977309241762
 51
0.0000000022210081
  0
ARC
  5
F3
  8
1
 10
202.9999999995344
 20
309.00000000013949
 30
0.0
 40
3.2999999999999989
 50
0.0
 51
180.00000000222099
  0
LINE
  5
F4
  8
1
 10
134.9999999995342
 20
246.00000000013961
 30
0.0
 11
134.9999999995342
 21
270.0
 31
0.0
  0
ARC
  5
F5
  8
1
 10
141.9999999995342
 20
309.00000000013949
 30
0.0
 40
3.2999999999999989
 50
359.99999999777901
 51
335.38002269075929
  0
LINE
  5
F6
  8
1
 10
134.9999999995342
 20
246.00000000013961
 30
0.0
 11
167.0
 21
246.00000000013961
 31
0.0
  0
LINE
  5
F7
  8
1
 10
193.0
 20
243.9999999999998
 30
0.0
 11
193.0
 21
252.99999999999989
 31
0.0
  0
LINE
  5
F8
  8
1
 10
192.0
 20
242.9999999999998
 30
0.0
 11
193.0
 21
243.9999999999998
 31
0.0
  0
CIRCLE
  5
F9
  8
1
 10
188.0
 20
187.0
 30
0.0
 40
1.7
  0
LINE
  5
FA
  8
1
 10
167.0
 20
243.99999999999989
 30
0.0
 11
167.0
 21
252.99999999999989
 31
0.0
  0
LINE
  5
FB
  8
1
 10
167.0
 20
243.99999999999989
 30
0.0
 11
168.0
 21
242.99999999999989
 31
0.0
  0
CIRCLE
  5
FC
  8
1
 10
172.0
 20
187.0
 30
0.0
 40
1.7
  0
LINE
  5
FD
  8
1
 10
168.0
 20
242.99999999999989
 30
0.0
 11
192.0
 21
242.9999999999998
 31
0.0
  0
LINE
  5
FE
  8
1
 10
167.0
 20
243.99999999999989
 30
0.0
 11
193.0
 21
243.9999999999998
 31
0.0
  0
CIRCLE
  5
FF
  8
1
 10
180.0
 20
187.0
 30
0.0
 40
12.0
  0
CIRCLE
  5
100
  8
1
 10
180.0
 20
187.0
 30
0.0
 40
13.0
  0
LINE
  5
101
  8
1
 10
145.0
 20
171.49999999999989
 30
0.0
 11
144.5
 21
170.99999999999989
 31
0.0
  0
LINE
  5
102
  8
1
 10
144.5
 20
203.0
 30
0.0
 11
145.0
 21
202.49999999999989
 31
0.0
  0
LINE
  5
103
  8
1
 10
145.0
 20
171.49999999999989
 30
0.0
 11
145.0
 21
202.49999999999989
 31
0.0
  0
LINE
  5
104
  8
1
 10
140.09999999999991
 20
171.5
 30
0.0
 11
140.5999999999998
 21
171.0
 31
0.0
  0
LINE
  5
105
  8
1
 10
140.5999999999998
 20
171.0
 30
0.0
 11
144.5
 21
170.99999999999989
 31
0.0
  0
LINE
  5
106
  8
1
 10
140.09999999999991
 20
202.49999999999989
 30
0.0
 11
140.5999999999998
 21
203.0
 31
0.0
  0
LINE
  5
107
  8
1
 10
140.5999999999998
 20
203.0
 30
0.0
 11
144.5
 21
203.0
 31
0.0
  0
LINE
  5
108
  8
1
 10
140.09999999999991
 20
202.49999999999989
 30
0.0
 11
140.09999999999991
 21
179.75
 31
0.0
  0
LINE
  5
109
  8
1
 10
140.09999999999991
 20
179.75
 30
0.0
 11
140.09999999999991
 21
171.5
 31
0.0
  0
LINE
  5
10A
  8
1
 10
136.09999999999991
 20
179.0
 30
0.0
 11
136.09999999999991
 21
174.0
 31
0.0
  0
LINE
  5
10B
  8
1
 10
136.09999999999991
 20
198.0
 30
0.0
 11
132.0
 21
198.0
 31
0.0
  0
LINE
  5
10C
  8
1
 10
132.0
 20
176.0
 30
0.0
 11
136.09999999999991
 21
176.0
 31
0.0
  0
LINE
  5
10D
  8
1
 10
136.09999999999991
 20
200.0
 30
0.0
 11
136.0999999999998
 21
179.75
 31
0.0
  0
LINE
  5
10E
  8
1
 10
136.09999999999991
 20
179.75
 30
0.0
 11
136.09999999999991
 21
179.0
 31
0.0
  0
LINE
  5
10F
  8
1
 10
132.0
 20
200.49999999999989
 30
0.0
 11
132.0
 21
179.74999999999989
 31
0.0
  0
LINE
  5
110
  8
1
 10
132.0
 20
179.74999999999989
 30
0.0
 11
132.0
 21
173.5
 31
0.0
  0
LINE
  5
111
  8
1
 10
117.9999999999999
 20
173.5
 30
0.0
 11
132.0
 21
173.5
 31
0.0
  0
LINE
  5
112
  8
1
 10
132.0
 20
200.49999999999989
 30
0.0
 11
117.9999999999999
 21
200.49999999999989
 31
0.0
  0
LINE
  5
113
  8
1
 10
140.09999999999991
 20
200.0
 30
0.0
 11
136.09999999999991
 21
200.0
 31
0.0
  0
LINE
  5
114
  8
1
 10
136.09999999999991
 20
174.0
 30
0.0
 11
140.09999999999991
 21
174.0
 31
0.0
  0
LINE
  5
115
  8
1
 10
140.0
 20
298.97392992051488
 30
0.0
 11
140.0
 21
262.98889300106958
 31
0.0
  0
LINE
  5
116
  8
1
 10
140.49999999999989
 20
299.47392992051488
 30
0.0
 11
139.99999999999989
 21
298.97392992051488
 31
0.0
  0
LINE
  5
117
  8
1
 10
140.49999999999989
 20
262.4888930010697
 30
0.0
 11
139.99999999999989
 21
262.9888930010697
 31
0.0
  0
LINE
  5
118
  8
1
 10
139.99999999999989
 20
271.99439999999998
 30
0.0
 11
145.0
 21
271.99439999999998
 31
0.0
1001
ACAD
1000
ASC_BOUNDS
1002
{
1070
    19
1002
}
  0
LINE
  5
119
  8
1
 10
145.0
 20
298.97392992051499
 30
0.0
 11
144.5
 21
299.47392992051499
 31
0.0
  0
LINE
  5
11A
  8
1
 10
144.5
 20
299.47392992051499
 30
0.0
 11
140.49999999999989
 21
299.47392992051488
 31
0.0
  0
LINE
  5
11B
  8
1
 10
139.99999999999989
 20
290.0055999999999
 30
0.0
 11
145.0
 21
290.0055999999999
 31
0.0
1001
ACAD
1000
ASC_BOUNDS
1002
{
1070
    19
1002
}
  0
LINE
  5
11C
  8
1
 10
144.5
 20
262.48889300106958
 30
0.0
 11
140.49999999999989
 21
262.4888930010697
 31
0.0
  0
LINE
  5
11D
  8
1
 10
145.0
 20
262.98889300106958
 30
0.0
 11
144.5
 21
262.48889300106958
 31
0.0
  0
LINE
  5
11E
  8
1
 10
145.0
 20
262.98889300106958
 30
0.0
 11
145.0
 21
271.0
 31
0.0
  0
LINE
  5
11F
  8
1
 10
145.0
 20
291.0
 30
0.0
 11
145.0
 21
298.97392992051499
 31
0.0
  0
LINE
  5
120
  8
1
 10
145.0
 20
291.0
 30
0.0
 11
145.0
 21
271.0
 31
0.0
  0
LINE
  5
121
  8
1
 10
132.0
 20
294.49999999999989
 30
0.0
 11
132.0
 21
267.5
 31
0.0
  0
LINE
  5
122
  8
1
 10
136.0
 20
273.75
 30
0.0
 11
136.0
 21
273.0
 31
0.0
  0
CIRCLE
  5
123
  8
1
 10
121.0
 20
281.0
 30
0.0
 40
1.0
  0
LINE
  5
124
  8
1
 10
136.0
 20
294.0
 30
0.0
 11
136.0
 21
268.0
 31
0.0
  0
LINE
  5
125
  8
1
 10
118.0
 20
267.5
 30
0.0
 11
132.00000000000011
 21
267.5
 31
0.0
  0
LINE
  5
126
  8
1
 10
136.0
 20
292.0
 30
0.0
 11
131.90000000000001
 21
292.0
 31
0.0
  0
LINE
  5
127
  8
1
 10
131.90000000000001
 20
270.0
 30
0.0
 11
136.0
 21
270.0
 31
0.0
  0
LINE
  5
128
  8
1
 10
132.00000000000011
 20
294.49999999999989
 30
0.0
 11
118.0
 21
294.49999999999989
 31
0.0
  0
LINE
  5
129
  8
1
 10
140.0
 20
294.0
 30
0.0
 11
136.0
 21
294.0
 31
0.0
  0
LINE
  5
12A
  8
1
 10
136.0
 20
268.0
 30
0.0
 11
140.0
 21
268.0
 31
0.0
  0
LINE
  5
12B
  8
1
 10
211.0
 20
202.0
 30
0.0
 11
211.0
 21
185.93588989435409
 31
0.0
  0
CIRCLE
  5
12C
  8
1
 10
211.89999999999989
 20
185.5
 30
0.0
 40
1.0
  0
CIRCLE
  5
12D
  8
1
 10
211.89999999999989
 20
164.5
 30
0.0
 40
1.0
  0
LINE
  5
12E
  8
1
 10
210.0
 20
201.5
 30
0.0
 11
211.0
 21
202.0
 31
0.0
1001
ACAD
1000
ASC_BOUNDS
1002
{
1070
    19
1005
0
1002
}
  0
LINE
  5
12F
  8
1
 10
210.99999999999989
 20
185.06411010564599
 30
0.0
 11
210.9999999999998
 21
164.93588989435381
 31
0.0
  0
LINE
  5
130
  8
1
 10
211.01038753452869
 20
209.5
 30
0.0
 11
211.01038753452869
 21
202.0
 31
0.0
  0
LINE
  5
131
  8
1
 10
210.0
 20
148.5
 30
0.0
 11
211.01038753452869
 21
148.0
 31
0.0
1001
ACAD
1000
ASC_BOUNDS
1002
{
1070
    19
1005
0
1002
}
  0
LINE
  5
132
  8
1
 10
211.01038753452869
 20
140.5
 30
0.0
 11
211.01038753452869
 21
148.0
 31
0.0
  0
LINE
  5
133
  8
1
 10
210.0
 20
201.5
 30
0.0
 11
210.0
 21
148.5
 31
0.0
  0
LINE
  5
134
  8
1
 10
210.99999999999989
 20
164.06411010564599
 30
0.0
 11
211.0
 21
148.0
 31
0.0
  0
LINE
  5
135
  8
1
 10
211.19999999999999
 20
308.0532
 30
0.0
 11
211.19999999999999
 21
292.2141428428543
 31
0.0
  0
LINE
  5
136
  8
1
 10
210.0
 20
307.5
 30
0.0
 11
210.0
 21
254.49999999999989
 31
0.0
  0
LINE
  5
137
  8
1
 10
210.0
 20
253.94679999999991
 30
0.0
 11
211.1999999999999
 21
253.94679999999991
 31
0.0
1001
ACAD
1000
ASC_BOUNDS
1002
{
1070
    19
1005
0
1002
}
  0
LINE
  5
138
  8
1
 10
210.0
 20
308.0532
 30
0.0
 11
211.1999999999999
 21
308.0532
 31
0.0
1001
ACAD
1000
ASC_BOUNDS
1002
{
1070
    19
1005
0
1002
}
  0
CIRCLE
  5
139
  8
1
 10
211.89999999999989
 20
270.5
 30
0.0
 40
1.0
  0
CIRCLE
  5
13A
  8
1
 10
211.89999999999989
 20
291.5
 30
0.0
 40
1.0
  0
LINE
  5
13B
  8
1
 10
211.19999999999999
 20
307.99115006481861
 30
0.0
 11
211.2000000000001
 21
310.4455181872874
 31
0.0
1001
ACAD
1000
ASC_BOUNDS
1002
{
1070
    19
1005
0
1005
0
1002
}
  0
LINE
  5
13C
  8
1
 10
211.19999999999999
 20
254.00884993518139
 30
0.0
 11
211.2000000000001
 21
251.55448181271251
 31
0.0
1001
ACAD
1000
ASC_BOUNDS
1002
{
1070
    19
1005
0
1005
0
1002
}
  0
LINE
  5
13D
  8
1
 10
211.19999999999999
 20
290.78585715714559
 30
0.0
 11
211.1999999999999
 21
271.21414284285419
 31
0.0
  0
LINE
  5
13E
  8
1
 10
211.1999999999999
 20
269.7858571571457
 30
0.0
 11
211.19999999999999
 21
253.94679999999991
 31
0.0
  0
ARC
  5
13F
  8
1
 10
212.19999999999999
 20
310.50138317317868
 30
0.0
 40
1.0
 50
146.5082556220087
 51
180.0
1001
ACAD
1000
ASC_BOUNDS
1002
{
1070
    19
1005
0
1002
}
  0
LINE
  5
140
  8
1
 10
211.2000000000001
 20
251.49861682682121
 30
0.0
 11
211.2000000000001
 21
243.99999121214211
 31
0.0
  0
ARC
  5
141
  8
1
 10
212.19999999999999
 20
251.49861682682121
 30
0.0
 40
1.0
 50
180.0
 51
213.49174437799121
1001
ACAD
1000
ASC_BOUNDS
1002
{
1070
    19
1005
0
1002
}
  0
LINE
  5
142
  8
1
 10
145.0
 20
203.0
 30
0.0
 11
145.0
 21
147.0
 31
0.0
  0
LINE
  5
143
  8
1
 10
145.0
 20
309.0
 30
0.0
 11
145.0
 21
253.0
 31
0.0
  0
LINE
  5
144
  8
1
 10
151.5
 20
213.0
 30
0.0
 11
208.49999999999989
 21
213.0
 31
0.0
  0
LINE
  5
145
  8
1
 10
151.5
 20
213.0
 30
0.0
 11
151.5
 21
203.0
 31
0.0
  0
LINE
  5
146
  8
1
 10
208.49999999999989
 20
213.0
 30
0.0
 11
208.49999999999989
 21
203.0
 31
0.0
  0
CIRCLE
  5
147
  8
1
 10
196.6170093578838
 20
264.38299064211611
 30
0.0
 40
4.0
  0
CIRCLE
  5
148
  8
1
 10
196.6170093578838
 20
297.61700935788377
 30
0.0
 40
4.0
  0
CIRCLE
  5
149
  8
1
 10
163.38299064211611
 20
297.61700935788377
 30
0.0
 40
4.0
  0
CIRCLE
  5
14A
  8
1
 10
163.38299064211611
 20
264.382990642116
 30
0.0
 40
4.0
  0
LINE
  5
14B
  8
1
 10
161.88232906800641
 20
259.0
 30
0.0
 11
198.1176709319935
 21
259.0
 31
0.0
  0
ARC
  5
14C
  8
1
 10
179.99999999999989
 20
280.99999999999977
 30
0.0
 40
28.5
 50
129.47249689644099
 51
230.52750310355819
  0
LINE
  5
14D
  8
1
 10
198.1176709319933
 20
303.0
 30
0.0
 11
161.88232906800661
 21
303.0
 31
0.0
  0
ARC
  5
14E
  8
1
 10
179.99999999999989
 20
280.99999999999977
 30
0.0
 40
28.5
 50
309.47249689644178
 51
50.527503103558729
  0
LINE
  5
14F
  8
1
 10
210.0
 20
309.0
 30
0.0
 11
210.0
 21
253.0
 31
0.0
  0
LINE
  5
150
  8
1
 10
145.0
 20
253.0
 30
0.0
 11
210.0
 21
253.0
 31
0.0
  0
LINE
  5
151
  8
1
 10
145.0
 20
309.0
 30
0.0
 11
210.0
 21
309.0
 31
0.0
  0
LINE
  5
152
  8
1
 10
210.0
 20
203.0
 30
0.0
 11
210.0
 21
147.0
 31
0.0
  0
LINE
  5
153
  8
1
 10
145.0
 20
203.0
 30
0.0
 11
210.0
 21
203.0
 31
0.0
  0
LINE
  5
154
  8
1
 10
145.0
 20
147.0
 30
0.0
 11
210.0
 21
147.0
 31
0.0
  0
CIRCLE
  5
155
  8
1
 62
     8
 10
297.00000000018622
 20
252.99999999999989
 30
0.0
 40
4.0
  0
LINE
  5
156
  8
1
 10
293.70000000018621
 20
253.0
 30
0.0
 11
300.30000000018629
 21
252.99999999999989
 31
0.0
  0
LINE
  5
157
  8
1
 10
293.70000000018621
 20
309.0
 30
0.0
 11
300.30000000018629
 21
309.0
 31
0.0
  0
LINE
  5
158
  8
1
  6
HIDDEN
 62
     8
 10
293.00000000018622
 20
219.5
 30
0.0
 11
293.00000000018622
 21
204.49999999999989
 31
0.0
  0
LINE
  5
159
  8
1
  6
HIDDEN
 10
293.70000000018621
 20
219.5
 30
0.0
 11
293.70000000018621
 21
204.5
 31
0.0
  0
LINE
  5
15A
  8
1
  6
HIDDEN
 62
     8
 10
301.00000000018622
 20
219.5
 30
0.0
 11
301.00000000018622
 21
204.49999999999989
 31
0.0
  0
LINE
  5
15B
  8
1
  6
HIDDEN
 10
300.30000000018629
 20
219.5
 30
0.0
 11
300.30000000018629
 21
204.5
 31
0.0
  0
LINE
  5
15C
  8
1
 10
290.00000000018622
 20
219.5
 30
0.0
 11
290.00000000018622
 21
204.5
 31
0.0
  0
CIRCLE
  5
15D
  8
1
 10
297.00000000018622
 20
253.0
 30
0.0
 40
3.2999999999999989
  0
CIRCLE
  5
15E
  8
1
 10
297.00000000018622
 20
309.0
 30
0.0
 40
3.2999999999999989
  0
LINE
  5
15F
  8
1
 10
290.0
 20
201.5
 30
0.0
 11
289.0
 21
202.0
 31
0.0
1001
ACAD
1000
ASC_BOUNDS
1002
{
1070
    19
1005
0
1002
}
  0
LINE
  5
160
  8
1
 10
289.0
 20
202.0
 30
0.0
 11
289.0
 21
185.93588989435409
 31
0.0
  0
CIRCLE
  5
161
  8
1
 10
288.10000000000002
 20
164.5
 30
0.0
 40
1.0
  0
CIRCLE
  5
162
  8
1
 10
288.10000000000002
 20
185.5
 30
0.0
 40
1.0
  0
LINE
  5
163
  8
1
 10
289.0
 20
185.06411010564599
 30
0.0
 11
289.0
 21
164.93588989435401
 31
0.0
  0
LINE
  5
164
  8
1
 10
283.49999999999989
 20
209.5
 30
0.0
 11
289.0
 21
209.5
 31
0.0
  0
ARC
  5
165
  8
1
 10
283.49999999999989
 20
208.49999999999989
 30
0.0
 40
1.0
 50
33.491744377991239
 51
158.09032827515071
  0
LINE
  5
166
  8
1
 10
279.4277732790581
 20
208.87314439921519
 30
0.0
 11
280.8144453441883
 21
205.42537112015691
 31
0.0
  0
ARC
  5
167
  8
1
 10
278.5
 20
208.49999999999989
 30
0.0
 40
1.0
 50
21.909671724848891
 51
158.0903282751523
  0
LINE
  5
168
  8
1
 10
274.42777327905799
 20
208.87314439921519
 30
0.0
 11
275.8144453441883
 21
205.42537112015691
 31
0.0
  0
ARC
  5
169
  8
1
 10
276.0
 20
205.5
 30
0.0
 40
0.2
 50
201.90967172485369
 51
338.09032827515227
  0
ARC
  5
16A
  8
1
 10
278.5
 20
208.49999999999989
 30
0.0
 40
1.0
 50
21.90967172484747
 51
158.09032827515131
  0
LINE
  5
16B
  8
1
 10
277.5722267209419
 20
208.87314439921519
 30
0.0
 11
276.18555465581159
 21
205.42537112015691
 31
0.0
  0
ARC
  5
16C
  8
1
 10
281.0
 20
205.5
 30
0.0
 40
0.2
 50
201.90967172484781
 51
338.09032827514602
  0
LINE
  5
16D
  8
1
 10
282.57222672094179
 20
208.87314439921519
 30
0.0
 11
281.18555465581159
 21
205.42537112015691
 31
0.0
  0
LINE
  5
16E
  8
1
 10
274.42777327905799
 20
208.87314439921519
 30
0.0
 11
275.8144453441883
 21
205.42537112015691
 31
0.0
  0
ARC
  5
16F
  8
1
 10
276.0
 20
205.5
 30
0.0
 40
0.2
 50
201.90967172484781
 51
338.09032827514602
  0
LINE
  5
170
  8
1
 10
277.5722267209419
 20
208.87314439921519
 30
0.0
 11
276.18555465581159
 21
205.42537112015691
 31
0.0
  0
ARC
  5
171
  8
1
 10
273.49999999999989
 20
208.49999999999989
 30
0.0
 40
1.0
 50
21.909671724847829
 51
158.09032827515091
  0
LINE
  5
172
  8
1
 10
272.5722267209419
 20
208.87314439921519
 30
0.0
 11
271.18555465581159
 21
205.42537112015691
 31
0.0
  0
LINE
  5
173
  8
1
 10
268.5
 20
209.5
 30
0.0
 11
268.5
 21
209.5
 31
0.0
  0
LINE
  5
174
  8
1
 10
269.4277732790581
 20
208.87314439921519
 30
0.0
 11
270.8144453441883
 21
205.42537112015691
 31
0.0
  0
ARC
  5
175
  8
1
 10
271.0
 20
205.5
 30
0.0
 40
0.2
 50
201.90967172485409
 51
338.09032827515188
  0
ARC
  5
176
  8
1
 10
268.5
 20
208.49999999999989
 30
0.0
 40
1.0
 50
21.90967172484908
 51
90.0
  0
LINE
  5
177
  8
1
 10
288.98961246547128
 20
209.5
 30
0.0
 11
288.98961246547128
 21
202.0
 31
0.0
  0
LINE
  5
178
  8
1
 10
289.0
 20
202.0
 30
0.0
 11
284.33396534078878
 21
209.05181682682121
 31
0.0
  0
LINE
  5
179
  8
1
 10
289.0
 20
199.0
 30
0.0
 11
283.49999999999989
 21
199.0
 31
0.0
1001
ACAD
1000
ASC_BOUNDS
1002
{
1070
    19
1002
}
  0
LINE
  5
17A
  8
1
 10
289.0
 20
192.9999999999998
 30
0.0
 11
283.49999999999989
 21
193.0
 31
0.0
1001
ACAD
1000
ASC_BOUNDS
1002
{
1070
    19
1002
}
  0
LINE
  5
17B
  8
1
 10
289.0
 20
157.0
 30
0.0
 11
283.49999999999989
 21
157.0
 31
0.0
1001
ACAD
1000
ASC_BOUNDS
1002
{
1070
    19
1002
}
  0
ARC
  5
17C
  8
1
 10
231.49999999999989
 20
208.49999999999989
 30
0.0
 40
1.0
 50
90.0
 51
158.09032827515071
  0
ARC
  5
17D
  8
1
 10
229.0
 20
205.5
 30
0.0
 40
0.2
 50
201.90967172484821
 51
338.09032827514562
  0
LINE
  5
17E
  8
1
 10
230.57222672094181
 20
208.87314439921519
 30
0.0
 11
229.18555465581159
 21
205.42537112015691
 31
0.0
  0
LINE
  5
17F
  8
1
 10
231.49999999999989
 20
209.5
 30
0.0
 11
231.49999999999989
 21
209.5
 31
0.0
  0
ARC
  5
180
  8
1
 10
226.5
 20
208.49999999999989
 30
0.0
 40
1.0
 50
21.909671724849431
 51
146.5082556220087
  0
LINE
  5
181
  8
1
 10
227.42777327905819
 20
208.87314439921519
 30
0.0
 11
228.8144453441883
 21
205.42537112015691
 31
0.0
  0
LINE
  5
182
  8
1
 10
226.5
 20
209.5
 30
0.0
 11
226.5
 21
209.5
 31
0.0
  0
ARC
  5
183
  8
1
 10
231.49999999999989
 20
208.49999999999989
 30
0.0
 40
1.0
 50
90.0
 51
158.09032827515111
  0
ARC
  5
184
  8
1
 10
229.0
 20
205.5
 30
0.0
 40
0.2
 50
201.90967172484781
 51
338.09032827514602
  0
LINE
  5
185
  8
1
 10
230.57222672094181
 20
208.87314439921519
 30
0.0
 11
229.18555465581159
 21
205.42537112015691
 31
0.0
  0
LINE
  5
186
  8
1
 10
231.49999999999989
 20
209.5
 30
0.0
 11
231.49999999999989
 21
209.5
 31
0.0
  0
LINE
  5
187
  8
1
 10
227.4277732790581
 20
208.87314439921519
 30
0.0
 11
228.8144453441883
 21
205.42537112015691
 31
0.0
  0
ARC
  5
188
  8
1
 10
226.5
 20
208.49999999999989
 30
0.0
 40
1.0
 50
21.909671724848891
 51
158.0903282751523
  0
LINE
  5
189
  8
1
 10
222.42777327905799
 20
208.87314439921519
 30
0.0
 11
223.8144453441883
 21
205.42537112015691
 31
0.0
  0
ARC
  5
18A
  8
1
 10
224.0
 20
205.5
 30
0.0
 40
0.2
 50
201.90967172485369
 51
338.09032827515227
  0
LINE
  5
18B
  8
1
 10
225.5722267209419
 20
208.87314439921519
 30
0.0
 11
224.18555465581159
 21
205.42537112015691
 31
0.0
  0
LINE
  5
18C
  8
1
 10
217.4277732790581
 20
208.87314439921519
 30
0.0
 11
218.8144453441883
 21
205.42537112015691
 31
0.0
  0
ARC
  5
18D
  8
1
 10
219.0
 20
205.5
 30
0.0
 40
0.2
 50
201.90967172485369
 51
338.09032827515227
  0
LINE
  5
18E
  8
1
 10
222.42777327905799
 20
208.87314439921519
 30
0.0
 11
223.8144453441883
 21
205.42537112015691
 31
0.0
  0
ARC
  5
18F
  8
1
 10
221.49999999999989
 20
208.49999999999989
 30
0.0
 40
1.0
 50
21.909671724848501
 51
158.0903282751527
  0
ARC
  5
190
  8
1
 10
224.0
 20
205.5
 30
0.0
 40
0.2
 50
201.90967172484741
 51
338.09032827514631
  0
LINE
  5
191
  8
1
 10
225.5722267209419
 20
208.87314439921519
 30
0.0
 11
224.18555465581159
 21
205.42537112015691
 31
0.0
  0
ARC
  5
192
  8
1
 10
221.49999999999989
 20
208.49999999999989
 30
0.0
 40
1.0
 50
21.90967172484747
 51
158.09032827515131
  0
LINE
  5
193
  8
1
 10
220.5722267209419
 20
208.87314439921519
 30
0.0
 11
219.18555465581159
 21
205.42537112015691
 31
0.0
  0
ARC
  5
194
  8
1
 10
216.5
 20
208.49999999999989
 30
0.0
 40
1.0
 50
21.90967172484908
 51
146.5082556220087
  0
LINE
  5
195
  8
1
 10
268.5
 20
209.5
 30
0.0
 11
231.49999999999989
 21
209.5
 31
0.0
  0
LINE
  5
196
  8
1
 10
290.0
 20
148.5
 30
0.0
 11
288.98961246547128
 21
148.0
 31
0.0
1001
ACAD
1000
ASC_BOUNDS
1002
{
1070
    19
1005
0
1002
}
  0
ARC
  5
197
  8
1
 10
268.5
 20
141.5
 30
0.0
 40
1.0
 50
270.0
 51
338.09032827515108
  0
ARC
  5
198
  8
1
 10
271.0
 20
144.5
 30
0.0
 40
0.2
 50
21.909671724847829
 51
158.09032827514599
  0
LINE
  5
199
  8
1
 10
269.4277732790581
 20
141.12685560078469
 30
0.0
 11
270.8144453441883
 21
144.574628879843
 31
0.0
  0
LINE
  5
19A
  8
1
 10
268.5
 20
140.5
 30
0.0
 11
268.5
 21
140.5
 31
0.0
  0
LINE
  5
19B
  8
1
 10
272.5722267209419
 20
141.12685560078469
 30
0.0
 11
271.18555465581159
 21
144.574628879843
 31
0.0
  0
ARC
  5
19C
  8
1
 10
273.49999999999989
 20
141.5
 30
0.0
 40
1.0
 50
201.90967172484881
 51
338.09032827515227
  0
LINE
  5
19D
  8
1
 10
277.5722267209419
 20
141.12685560078469
 30
0.0
 11
276.18555465581159
 21
144.574628879843
 31
0.0
  0
ARC
  5
19E
  8
1
 10
276.0
 20
144.5
 30
0.0
 40
0.2
 50
21.90967172485378
 51
158.0903282751523
  0
LINE
  5
19F
  8
1
 10
274.42777327905799
 20
141.12685560078469
 30
0.0
 11
275.8144453441883
 21
144.574628879843
 31
0.0
  0
LINE
  5
1A0
  8
1
 10
282.57222672094179
 20
141.12685560078469
 30
0.0
 11
281.18555465581159
 21
144.574628879843
 31
0.0
  0
ARC
  5
1A1
  8
1
 10
281.0
 20
144.5
 30
0.0
 40
0.2
 50
21.90967172485378
 51
158.0903282751523
  0
LINE
  5
1A2
  8
1
 10
277.5722267209419
 20
141.12685560078469
 30
0.0
 11
276.18555465581159
 21
144.574628879843
 31
0.0
  0
ARC
  5
1A3
  8
1
 10
278.5
 20
141.5
 30
0.0
 40
1.0
 50
201.90967172484849
 51
338.09032827515261
  0
ARC
  5
1A4
  8
1
 10
276.0
 20
144.5
 30
0.0
 40
0.2
 50
21.90967172484747
 51
158.09032827514639
  0
LINE
  5
1A5
  8
1
 10
274.42777327905799
 20
141.12685560078469
 30
0.0
 11
275.8144453441883
 21
144.574628879843
 31
0.0
  0
ARC
  5
1A6
  8
1
 10
278.5
 20
141.5
 30
0.0
 40
1.0
 50
201.90967172484741
 51
338.09032827515119
  0
LINE
  5
1A7
  8
1
 10
279.4277732790581
 20
141.12685560078469
 30
0.0
 11
280.8144453441883
 21
144.574628879843
 31
0.0
  0
ARC
  5
1A8
  8
1
 10
283.49999999999989
 20
141.5
 30
0.0
 40
1.0
 50
201.90967172484909
 51
326.50825562200868
  0
LINE
  5
1A9
  8
1
 10
283.49999999999989
 20
140.5
 30
0.0
 11
289.0
 21
140.5
 31
0.0
  0
LINE
  5
1AA
  8
1
 10
288.98961246547128
 20
140.5
 30
0.0
 11
288.98961246547128
 21
148.0
 31
0.0
  0
LINE
  5
1AB
  8
1
 10
289.0
 20
148.0
 30
0.0
 11
284.33396534078878
 21
140.94818317317871
 31
0.0
  0
LINE
  5
1AC
  8
1
 10
289.0
 20
150.99999999999989
 30
0.0
 11
283.49999999999989
 21
150.99999999999989
 31
0.0
1001
ACAD
1000
ASC_BOUNDS
1002
{
1070
    19
1002
}
  0
ARC
  5
1AD
  8
1
 10
216.5
 20
141.5
 30
0.0
 40
1.0
 50
213.49174437799121
 51
338.09032827515108
  0
LINE
  5
1AE
  8
1
 10
220.5722267209419
 20
141.12685560078469
 30
0.0
 11
219.18555465581159
 21
144.574628879843
 31
0.0
  0
ARC
  5
1AF
  8
1
 10
221.49999999999989
 20
141.5
 30
0.0
 40
1.0
 50
201.90967172484849
 51
338.09032827515261
  0
LINE
  5
1B0
  8
1
 10
225.5722267209419
 20
141.12685560078469
 30
0.0
 11
224.18555465581159
 21
144.574628879843
 31
0.0
  0
ARC
  5
1B1
  8
1
 10
224.0
 20
144.5
 30
0.0
 40
0.2
 50
21.909671724853421
 51
158.0903282751527
  0
ARC
  5
1B2
  8
1
 10
221.49999999999989
 20
141.5
 30
0.0
 40
1.0
 50
201.9096717248471
 51
338.09032827515171
  0
LINE
  5
1B3
  8
1
 10
222.42777327905799
 20
141.12685560078469
 30
0.0
 11
223.8144453441883
 21
144.574628879843
 31
0.0
  0
ARC
  5
1B4
  8
1
 10
219.0
 20
144.5
 30
0.0
 40
0.2
 50
21.90967172484747
 51
158.09032827514639
  0
LINE
  5
1B5
  8
1
 10
217.4277732790581
 20
141.12685560078469
 30
0.0
 11
218.8144453441883
 21
144.574628879843
 31
0.0
  0
LINE
  5
1B6
  8
1
 10
225.5722267209419
 20
141.12685560078469
 30
0.0
 11
224.18555465581159
 21
144.574628879843
 31
0.0
  0
ARC
  5
1B7
  8
1
 10
224.0
 20
144.5
 30
0.0
 40
0.2
 50
21.90967172484747
 51
158.09032827514639
  0
LINE
  5
1B8
  8
1
 10
222.42777327905799
 20
141.12685560078469
 30
0.0
 11
223.8144453441883
 21
144.574628879843
 31
0.0
  0
ARC
  5
1B9
  8
1
 10
226.5
 20
141.5
 30
0.0
 40
1.0
 50
201.90967172484741
 51
338.09032827515119
  0
LINE
  5
1BA
  8
1
 10
227.4277732790581
 20
141.12685560078469
 30
0.0
 11
228.8144453441883
 21
144.574628879843
 31
0.0
  0
LINE
  5
1BB
  8
1
 10
231.49999999999989
 20
140.5
 30
0.0
 11
231.49999999999989
 21
140.5
 31
0.0
  0
LINE
  5
1BC
  8
1
 10
230.57222672094181
 20
141.12685560078469
 30
0.0
 11
229.18555465581159
 21
144.574628879843
 31
0.0
  0
ARC
  5
1BD
  8
1
 10
229.0
 20
144.5
 30
0.0
 40
0.2
 50
21.90967172485378
 51
158.0903282751523
  0
ARC
  5
1BE
  8
1
 10
231.49999999999989
 20
141.5
 30
0.0
 40
1.0
 50
201.90967172484869
 51
270.0
  0
LINE
  5
1BF
  8
1
 10
226.5
 20
140.5
 30
0.0
 11
226.5
 21
140.5
 31
0.0
  0
LINE
  5
1C0
  8
1
 10
227.42777327905819
 20
141.12685560078469
 30
0.0
 11
228.8144453441883
 21
144.574628879843
 31
0.0
  0
ARC
  5
1C1
  8
1
 10
226.5
 20
141.5
 30
0.0
 40
1.0
 50
213.49174437799121
 51
338.09032827515068
  0
LINE
  5
1C2
  8
1
 10
231.49999999999989
 20
140.5
 30
0.0
 11
231.49999999999989
 21
140.5
 31
0.0
  0
LINE
  5
1C3
  8
1
 10
230.57222672094181
 20
141.12685560078469
 30
0.0
 11
229.18555465581159
 21
144.574628879843
 31
0.0
  0
ARC
  5
1C4
  8
1
 10
229.0
 20
144.5
 30
0.0
 40
0.2
 50
21.909671724854139
 51
158.0903282751519
  0
ARC
  5
1C5
  8
1
 10
231.49999999999989
 20
141.5
 30
0.0
 40
1.0
 50
201.90967172484909
 51
270.0
  0
LINE
  5
1C6
  8
1
 10
268.5
 20
140.5
 30
0.0
 11
231.49999999999989
 21
140.5
 31
0.0
  0
LINE
  5
1C7
  8
1
 10
290.0
 20
201.5
 30
0.0
 11
290.0
 21
148.5
 31
0.0
  0
LINE
  5
1C8
  8
1
 10
289.0
 20
164.06411010564591
 30
0.0
 11
289.0
 21
148.0
 31
0.0
  0
LINE
  5
1C9
  8
1
 10
271.0
 20
205.30000000000001
 30
0.0
 11
271.0
 21
144.69999999994761
 31
0.0
  0
LINE
  5
1CA
  8
1
 10
276.0
 20
205.30000000000001
 30
0.0
 11
276.0
 21
144.69999999994761
 31
0.0
  0
LINE
  5
1CB
  8
1
 10
281.0
 20
205.30000000000001
 30
0.0
 11
281.0
 21
144.69999999994761
 31
0.0
  0
LINE
  5
1CC
  8
1
 10
268.5
 20
209.5379500648186
 30
0.0
 11
268.5
 21
140.5
 31
0.0
  0
LINE
  5
1CD
  8
1
 10
273.49999999999989
 20
209.43795006481861
 30
0.0
 11
273.49999999999989
 21
140.5
 31
0.0
  0
LINE
  5
1CE
  8
1
 10
278.5
 20
209.43795006481861
 30
0.0
 11
278.5
 21
140.5
 31
0.0
  0
LINE
  5
1CF
  8
1
 10
283.49999999999989
 20
209.43795006481861
 30
0.0
 11
283.49999999999989
 21
140.5
 31
0.0
  0
LINE
  5
1D0
  8
1
 10
229.0
 20
205.30000000000001
 30
0.0
 11
229.0
 21
144.69999999994761
 31
0.0
  0
LINE
  5
1D1
  8
1
 10
231.49999999999989
 20
209.5
 30
0.0
 11
231.49999999999989
 21
140.5
 31
0.0
  0
LINE
  5
1D2
  8
1
 10
226.5
 20
209.43795006481861
 30
0.0
 11
226.5
 21
140.5
 31
0.0
  0
LINE
  5
1D3
  8
1
 10
216.5
 20
209.43795006481861
 30
0.0
 11
216.49999999999989
 21
140.5
 31
0.0
  0
LINE
  5
1D4
  8
1
 10
221.49999999999989
 20
209.43795006481861
 30
0.0
 11
221.49999999999989
 21
140.5
 31
0.0
  0
LINE
  5
1D5
  8
1
 10
219.0
 20
205.30000000000001
 30
0.0
 11
219.0
 21
144.69999999994761
 31
0.0
  0
LINE
  5
1D6
  8
1
 10
224.0
 20
205.30000000000001
 30
0.0
 11
224.0
 21
144.69999999994761
 31
0.0
  0
LINE
  5
1D7
  8
1
 10
290.0
 20
308.0532
 30
0.0
 11
288.7999999999999
 21
308.0532
 31
0.0
1001
ACAD
1000
ASC_BOUNDS
1002
{
1070
    19
1005
0
1002
}
  0
LINE
  5
1D8
  8
1
 10
290.0
 20
253.94679999999991
 30
0.0
 11
288.7999999999999
 21
253.94679999999991
 31
0.0
1001
ACAD
1000
ASC_BOUNDS
1002
{
1070
    19
1005
0
1002
}
  0
LINE
  5
1D9
  8
1
 10
290.0
 20
307.5
 30
0.0
 11
290.0
 21
254.49999999999989
 31
0.0
  0
LINE
  5
1DA
  8
1
 10
288.7999999999999
 20
308.0532
 30
0.0
 11
288.7999999999999
 21
292.2141428428543
 31
0.0
  0
CIRCLE
  5
1DB
  8
1
 10
288.10000000000002
 20
291.5
 30
0.0
 40
1.0
  0
CIRCLE
  5
1DC
  8
1
 10
288.10000000000002
 20
270.5
 30
0.0
 40
1.0
  0
LINE
  5
1DD
  8
1
 10
288.7999999999999
 20
307.99115006481861
 30
0.0
 11
288.79999999999978
 21
310.4455181872874
 31
0.0
1001
ACAD
1000
ASC_BOUNDS
1002
{
1070
    19
1005
0
1005
0
1002
}
  0
LINE
  5
1DE
  8
1
 10
288.7999999999999
 20
254.00884993518139
 30
0.0
 11
288.79999999999978
 21
251.55448181271251
 31
0.0
1001
ACAD
1000
ASC_BOUNDS
1002
{
1070
    19
1005
0
1005
0
1002
}
  0
LINE
  5
1DF
  8
1
 10
288.7999999999999
 20
290.78585715714559
 30
0.0
 11
288.7999999999999
 21
271.2141428428543
 31
0.0
  0
LINE
  5
1E0
  8
1
 10
288.7999999999999
 20
269.78585715714559
 30
0.0
 11
288.7999999999999
 21
253.94679999999991
 31
0.0
  0
ARC
  5
1E1
  8
1
 10
287.7999999999999
 20
310.50138317317868
 30
0.0
 40
1.0
 50
0.0
 51
33.49174437799126
1001
ACAD
1000
ASC_BOUNDS
1002
{
1070
    19
1005
0
1002
}
  0
ARC
  5
1E2
  8
1
 10
268.5
 20
244.99999121214211
 30
0.0
 40
1.0
 50
270.0
 51
338.09032827515108
  0
ARC
  5
1E3
  8
1
 10
271.0
 20
247.99999121214199
 30
0.0
 40
0.2
 50
21.909671724847829
 51
158.09032827514599
  0
LINE
  5
1E4
  8
1
 10
269.4277732790581
 20
244.62684681292691
 30
0.0
 11
270.8144453441883
 21
248.0746200919852
 31
0.0
  0
LINE
  5
1E5
  8
1
 10
268.5
 20
243.99999121214211
 30
0.0
 11
268.5
 21
243.99999121214211
 31
0.0
  0
LINE
  5
1E6
  8
1
 10
272.5722267209419
 20
244.62684681292691
 30
0.0
 11
271.18555465581159
 21
248.0746200919852
 31
0.0
  0
ARC
  5
1E7
  8
1
 10
273.49999999999989
 20
244.99999121214211
 30
0.0
 40
1.0
 50
201.90967172484881
 51
338.09032827515227
  0
LINE
  5
1E8
  8
1
 10
277.5722267209419
 20
244.62684681292691
 30
0.0
 11
276.18555465581159
 21
248.0746200919852
 31
0.0
  0
ARC
  5
1E9
  8
1
 10
276.0
 20
247.99999121214199
 30
0.0
 40
0.2
 50
21.90967172485378
 51
158.0903282751523
  0
LINE
  5
1EA
  8
1
 10
274.42777327905799
 20
244.62684681292691
 30
0.0
 11
275.8144453441883
 21
248.0746200919852
 31
0.0
  0
LINE
  5
1EB
  8
1
 10
282.57222672094179
 20
244.62684681292691
 30
0.0
 11
281.18555465581159
 21
248.0746200919852
 31
0.0
  0
ARC
  5
1EC
  8
1
 10
281.0
 20
247.99999121214199
 30
0.0
 40
0.2
 50
21.90967172485378
 51
158.0903282751523
  0
LINE
  5
1ED
  8
1
 10
277.5722267209419
 20
244.62684681292691
 30
0.0
 11
276.18555465581159
 21
248.0746200919852
 31
0.0
  0
ARC
  5
1EE
  8
1
 10
278.5
 20
244.99999121214211
 30
0.0
 40
1.0
 50
201.90967172484849
 51
338.09032827515261
  0
ARC
  5
1EF
  8
1
 10
276.0
 20
247.99999121214199
 30
0.0
 40
0.2
 50
21.90967172484747
 51
158.09032827514639
  0
LINE
  5
1F0
  8
1
 10
274.42777327905799
 20
244.62684681292691
 30
0.0
 11
275.8144453441883
 21
248.0746200919852
 31
0.0
  0
ARC
  5
1F1
  8
1
 10
278.5
 20
244.99999121214211
 30
0.0
 40
1.0
 50
201.90967172484741
 51
338.09032827515119
  0
LINE
  5
1F2
  8
1
 10
279.4277732790581
 20
244.62684681292691
 30
0.0
 11
280.8144453441883
 21
248.0746200919852
 31
0.0
  0
ARC
  5
1F3
  8
1
 10
283.49999999999989
 20
244.99999121214211
 30
0.0
 40
1.0
 50
201.90967172484909
 51
326.50825562200868
  0
LINE
  5
1F4
  8
1
 10
288.63396534078862
 20
250.9467999999998
 30
0.0
 11
284.33396534078878
 21
244.44817438532081
 31
0.0
  0
ARC
  5
1F5
  8
1
 10
287.7999999999999
 20
251.49861682682121
 30
0.0
 40
1.0
 50
326.50825562200868
 51
0.0
1001
ACAD
1000
ASC_BOUNDS
1002
{
1070
    19
1005
0
1002
}
  0
LINE
  5
1F6
  8
1
 10
283.49999999999989
 20
243.99999121214211
 30
0.0
 11
288.79999999999978
 21
243.99999121214211
 31
0.0
  0
LINE
  5
1F7
  8
1
 10
288.79999999999978
 20
251.49861682682121
 30
0.0
 11
288.79999999999978
 21
243.99999121214211
 31
0.0
  0
LINE
  5
1F8
  8
1
 10
288.7999999999999
 20
305.05319999999989
 30
0.0
 11
283.49999999999989
 21
305.0532
 31
0.0
1001
ACAD
1000
ASC_BOUNDS
1002
{
1070
    19
1002
}
  0
LINE
  5
1F9
  8
1
 10
288.7999999999999
 20
299.05319999999989
 30
0.0
 11
283.49999999999989
 21
299.05319999999989
 31
0.0
1001
ACAD
1000
ASC_BOUNDS
1002
{
1070
    19
1002
}
  0
LINE
  5
1FA
  8
1
 10
288.7999999999999
 20
256.9468
 30
0.0
 11
283.49999999999989
 21
256.9468
 31
0.0
1001
ACAD
1000
ASC_BOUNDS
1002
{
1070
    19
1002
}
  0
LINE
  5
1FB
  8
1
 10
288.7999999999999
 20
262.9468
 30
0.0
 11
283.49999999999989
 21
262.9468
 31
0.0
1001
ACAD
1000
ASC_BOUNDS
1002
{
1070
    19
1002
}
  0
ARC
  5
1FC
  8
1
 10
226.5
 20
244.99999121214211
 30
0.0
 40
1.0
 50
201.90967172484741
 51
338.09032827515119
  0
ARC
  5
1FD
  8
1
 10
226.5
 20
244.99999121214211
 30
0.0
 40
1.0
 50
213.49174437799121
 51
338.09032827515068
  0
ARC
  5
1FE
  8
1
 10
216.5
 20
244.99999121214211
 30
0.0
 40
1.0
 50
213.49174437799121
 51
338.09032827515108
  0
LINE
  5
1FF
  8
1
 10
220.5722267209419
 20
244.62684681292691
 30
0.0
 11
219.18555465581159
 21
248.0746200919852
 31
0.0
  0
ARC
  5
200
  8
1
 10
221.49999999999989
 20
244.99999121214211
 30
0.0
 40
1.0
 50
201.90967172484849
 51
338.09032827515261
  0
LINE
  5
201
  8
1
 10
225.5722267209419
 20
244.62684681292691
 30
0.0
 11
224.18555465581159
 21
248.0746200919852
 31
0.0
  0
ARC
  5
202
  8
1
 10
224.0
 20
247.99999121214199
 30
0.0
 40
0.2
 50
21.909671724853421
 51
158.0903282751527
  0
ARC
  5
203
  8
1
 10
221.49999999999989
 20
244.99999121214211
 30
0.0
 40
1.0
 50
201.9096717248471
 51
338.09032827515171
  0
LINE
  5
204
  8
1
 10
222.42777327905799
 20
244.62684681292691
 30
0.0
 11
223.8144453441883
 21
248.0746200919852
 31
0.0
  0
ARC
  5
205
  8
1
 10
219.0
 20
247.99999121214199
 30
0.0
 40
0.2
 50
21.90967172484747
 51
158.09032827514639
  0
LINE
  5
206
  8
1
 10
217.4277732790581
 20
244.62684681292691
 30
0.0
 11
218.8144453441883
 21
248.0746200919852
 31
0.0
  0
LINE
  5
207
  8
1
 10
225.5722267209419
 20
244.62684681292691
 30
0.0
 11
224.18555465581159
 21
248.0746200919852
 31
0.0
  0
ARC
  5
208
  8
1
 10
224.0
 20
247.99999121214199
 30
0.0
 40
0.2
 50
21.90967172484747
 51
158.09032827514639
  0
LINE
  5
209
  8
1
 10
222.42777327905799
 20
244.62684681292691
 30
0.0
 11
223.8144453441883
 21
248.0746200919852
 31
0.0
  0
LINE
  5
20A
  8
1
 10
227.42777327905819
 20
244.62684681292691
 30
0.0
 11
228.8144453441883
 21
248.0746200919852
 31
0.0
  0
LINE
  5
20B
  8
1
 10
231.49999999999989
 20
243.99999121214211
 30
0.0
 11
231.49999999999989
 21
243.99999121214211
 31
0.0
  0
LINE
  5
20C
  8
1
 10
230.57222672094181
 20
244.62684681292691
 30
0.0
 11
229.18555465581159
 21
248.0746200919852
 31
0.0
  0
ARC
  5
20D
  8
1
 10
229.0
 20
247.99999121214199
 30
0.0
 40
0.2
 50
21.909671724854139
 51
158.0903282751519
  0
ARC
  5
20E
  8
1
 10
231.49999999999989
 20
244.99999121214211
 30
0.0
 40
1.0
 50
201.90967172484909
 51
270.0
  0
LINE
  5
20F
  8
1
 10
268.5
 20
243.99999121214211
 30
0.0
 11
231.49999999999989
 21
243.99999121214211
 31
0.0
  0
LINE
  5
210
  8
1
 10
290.0
 20
309.0
 30
0.0
 11
290.0
 21
253.0
 31
0.0
  0
LINE
  5
211
  8
1
 10
290.0
 20
203.0
 30
0.0
 11
290.0
 21
147.0
 31
0.0
  0
LINE
  5
212
  8
1
 10
216.5
 20
318.00000878785778
 30
0.0
 11
211.2000000000001
 21
318.00000878785778
 31
0.0
  0
LINE
  5
213
  8
1
 10
192.99999999999989
 20
316.0
 30
0.0
 11
209.99999999953411
 21
316.0
 31
0.0
  0
LINE
  5
214
  8
1
 10
134.9999999995344
 20
316.0
 30
0.0
 11
167.0
 21
316.0
 31
0.0
  0
LINE
  5
215
  8
1
 10
192.0
 20
319.00000000000011
 30
0.0
 11
193.0
 21
318.00000000000011
 31
0.0
  0
LINE
  5
216
  8
1
 10
167.0
 20
318.0
 30
0.0
 11
168.0
 21
319.0
 31
0.0
  0
LINE
  5
217
  8
1
 10
168.0
 20
319.0
 30
0.0
 11
192.0
 21
319.00000000000011
 31
0.0
  0
LINE
  5
218
  8
1
 10
167.0
 20
318.0
 30
0.0
 11
193.0
 21
318.00000000000011
 31
0.0
  0
LINE
  5
219
  8
1
 10
283.49999999999989
 20
318.00000878785778
 30
0.0
 11
288.79999999999978
 21
318.00000878785778
 31
0.0
  0
ARC
  5
21A
  8
1
 10
283.49999999999989
 20
317.00000878785789
 30
0.0
 40
1.0
 50
33.491744377991239
 51
158.09032827515071
  0
LINE
  5
21B
  8
1
 10
279.4277732790581
 20
317.37315318707311
 30
0.0
 11
280.8144453441883
 21
313.92537990801469
 31
0.0
  0
ARC
  5
21C
  8
1
 10
278.5
 20
317.00000878785789
 30
0.0
 40
1.0
 50
21.909671724848891
 51
158.0903282751523
  0
LINE
  5
21D
  8
1
 10
274.42777327905799
 20
317.37315318707311
 30
0.0
 11
275.8144453441883
 21
313.92537990801469
 31
0.0
  0
ARC
  5
21E
  8
1
 10
276.0
 20
314.00000878785789
 30
0.0
 40
0.2
 50
201.90967172485369
 51
338.09032827515227
  0
ARC
  5
21F
  8
1
 10
278.5
 20
317.00000878785789
 30
0.0
 40
1.0
 50
21.90967172484747
 51
158.09032827515131
  0
LINE
  5
220
  8
1
 10
277.5722267209419
 20
317.37315318707311
 30
0.0
 11
276.18555465581159
 21
313.92537990801469
 31
0.0
  0
ARC
  5
221
  8
1
 10
281.0
 20
314.00000878785789
 30
0.0
 40
0.2
 50
201.90967172484781
 51
338.09032827514602
  0
LINE
  5
222
  8
1
 10
282.57222672094179
 20
317.37315318707311
 30
0.0
 11
281.18555465581159
 21
313.92537990801469
 31
0.0
  0
LINE
  5
223
  8
1
 10
274.42777327905799
 20
317.37315318707311
 30
0.0
 11
275.8144453441883
 21
313.92537990801469
 31
0.0
  0
ARC
  5
224
  8
1
 10
276.0
 20
314.00000878785789
 30
0.0
 40
0.2
 50
201.90967172484781
 51
338.09032827514602
  0
LINE
  5
225
  8
1
 10
277.5722267209419
 20
317.37315318707311
 30
0.0
 11
276.18555465581159
 21
313.92537990801469
 31
0.0
  0
ARC
  5
226
  8
1
 10
273.49999999999989
 20
317.00000878785789
 30
0.0
 40
1.0
 50
21.909671724847829
 51
158.09032827515091
  0
LINE
  5
227
  8
1
 10
272.5722267209419
 20
317.37315318707311
 30
0.0
 11
271.18555465581159
 21
313.92537990801469
 31
0.0
  0
LINE
  5
228
  8
1
 10
268.5
 20
318.00000878785778
 30
0.0
 11
268.5
 21
318.00000878785778
 31
0.0
  0
LINE
  5
229
  8
1
 10
269.4277732790581
 20
317.37315318707311
 30
0.0
 11
270.8144453441883
 21
313.92537990801469
 31
0.0
  0
ARC
  5
22A
  8
1
 10
271.0
 20
314.00000878785789
 30
0.0
 40
0.2
 50
201.90967172485409
 51
338.09032827515188
  0
ARC
  5
22B
  8
1
 10
268.5
 20
317.00000878785789
 30
0.0
 40
1.0
 50
21.90967172484908
 51
90.0
  0
ARC
  5
22C
  8
1
 10
231.49999999999989
 20
317.00000878785789
 30
0.0
 40
1.0
 50
90.0
 51
158.09032827515071
  0
ARC
  5
22D
  8
1
 10
229.0
 20
314.00000878785789
 30
0.0
 40
0.2
 50
201.90967172484821
 51
338.09032827514562
  0
LINE
  5
22E
  8
1
 10
230.57222672094181
 20
317.37315318707311
 30
0.0
 11
229.18555465581159
 21
313.92537990801469
 31
0.0
  0
LINE
  5
22F
  8
1
 10
231.49999999999989
 20
318.00000878785778
 30
0.0
 11
231.49999999999989
 21
318.00000878785778
 31
0.0
  0
ARC
  5
230
  8
1
 10
226.5
 20
317.00000878785789
 30
0.0
 40
1.0
 50
21.909671724849431
 51
146.5082556220087
  0
LINE
  5
231
  8
1
 10
227.42777327905819
 20
317.37315318707311
 30
0.0
 11
228.8144453441883
 21
313.92537990801469
 31
0.0
  0
ARC
  5
232
  8
1
 10
226.5
 20
317.00000878785789
 30
0.0
 40
1.0
 50
21.909671724848891
 51
158.0903282751523
  0
LINE
  5
233
  8
1
 10
222.42777327905799
 20
317.37315318707311
 30
0.0
 11
223.8144453441883
 21
313.92537990801469
 31
0.0
  0
ARC
  5
234
  8
1
 10
224.0
 20
314.00000878785789
 30
0.0
 40
0.2
 50
201.90967172485369
 51
338.09032827515227
  0
LINE
  5
235
  8
1
 10
225.5722267209419
 20
317.37315318707311
 30
0.0
 11
224.18555465581159
 21
313.92537990801469
 31
0.0
  0
LINE
  5
236
  8
1
 10
217.4277732790581
 20
317.37315318707311
 30
0.0
 11
218.8144453441883
 21
313.92537990801469
 31
0.0
  0
ARC
  5
237
  8
1
 10
219.0
 20
314.00000878785789
 30
0.0
 40
0.2
 50
201.90967172485369
 51
338.09032827515227
  0
LINE
  5
238
  8
1
 10
222.42777327905799
 20
317.37315318707311
 30
0.0
 11
223.8144453441883
 21
313.92537990801469
 31
0.0
  0
ARC
  5
239
  8
1
 10
221.49999999999989
 20
317.00000878785789
 30
0.0
 40
1.0
 50
21.909671724848501
 51
158.0903282751527
  0
ARC
  5
23A
  8
1
 10
224.0
 20
314.00000878785789
 30
0.0
 40
0.2
 50
201.90967172484741
 51
338.09032827514631
  0
LINE
  5
23B
  8
1
 10
225.5722267209419
 20
317.37315318707311
 30
0.0
 11
224.18555465581159
 21
313.92537990801469
 31
0.0
  0
ARC
  5
23C
  8
1
 10
221.49999999999989
 20
317.00000878785789
 30
0.0
 40
1.0
 50
21.90967172484747
 51
158.09032827515131
  0
LINE
  5
23D
  8
1
 10
220.5722267209419
 20
317.37315318707311
 30
0.0
 11
219.18555465581159
 21
313.92537990801469
 31
0.0
  0
ARC
  5
23E
  8
1
 10
216.5
 20
317.00000878785789
 30
0.0
 40
1.0
 50
21.90967172484908
 51
146.5082556220087
  0
LINE
  5
23F
  8
1
 10
268.5
 20
318.00000878785778
 30
0.0
 11
231.49999999999989
 21
318.00000878785778
 31
0.0
  0
CIRCLE
  5
240
  8
1
 62
     8
 10
358.00000000018628
 20
309.0
 30
0.0
 40
4.0
  0
LINE
  5
241
  8
1
 10
365.00000000018622
 20
246.0
 30
0.0
 11
365.00000000018622
 21
316.0
 31
0.0
  0
CIRCLE
  5
242
  8
1
 62
     8
 10
358.00000000018628
 20
253.0
 30
0.0
 40
4.0
  0
LINE
  5
243
  8
1
 10
328.00000000018622
 20
266.76794919243122
 30
0.0
 11
328.00000000018622
 21
270.23205080756878
 31
0.0
  0
LINE
  5
244
  8
1
 10
325.00000000018622
 20
271.96410161513779
 30
0.0
 11
322.00000000018622
 21
270.23205080756878
 31
0.0
  0
LINE
  5
245
  8
1
 10
322.00000000018622
 20
270.23205080756878
 30
0.0
 11
322.00000000018622
 21
266.76794919243122
 31
0.0
  0
LINE
  5
246
  8
1
 10
322.00000000018622
 20
266.76794919243122
 30
0.0
 11
325.00000000018622
 21
265.03589838486221
 31
0.0
  0
CIRCLE
  5
247
  8
1
 10
325.00000000018622
 20
268.5
 30
0.0
 40
5.6339745962155581
  0
LINE
  5
248
  8
1
 10
328.00000000018622
 20
270.23205080756878
 30
0.0
 11
325.00000000018622
 21
271.96410161513779
 31
0.0
  0
LINE
  5
249
  8
1
 10
325.00000000018622
 20
265.03589838486221
 30
0.0
 11
328.00000000018622
 21
266.76794919243122
 31
0.0
  0
CIRCLE
  5
24A
  8
1
 10
325.00000000018622
 20
268.5
 30
0.0
 40
6.5
  0
LINE
  5
24B
  8
1
 10
346.30000000000001
 20
279.2679491924311
 30
0.0
 11
346.30000000000001
 21
282.73205080756878
 31
0.0
  0
LINE
  5
24C
  8
1
 10
343.30000000000001
 20
284.46410161513768
 30
0.0
 11
340.30000000000001
 21
282.73205080756878
 31
0.0
  0
LINE
  5
24D
  8
1
 10
340.30000000000001
 20
282.73205080756878
 30
0.0
 11
340.30000000000001
 21
279.2679491924311
 31
0.0
  0
LINE
  5
24E
  8
1
 10
340.30000000000001
 20
279.2679491924311
 30
0.0
 11
343.30000000000001
 21
277.53589838486221
 31
0.0
  0
CIRCLE
  5
24F
  8
1
 10
343.30000000000001
 20
281.0
 30
0.0
 40
5.6339745962155581
  0
LINE
  5
250
  8
1
 10
346.30000000000001
 20
282.73205080756878
 30
0.0
 11
343.30000000000001
 21
284.46410161513768
 31
0.0
  0
LINE
  5
251
  8
1
 10
343.30000000000001
 20
277.53589838486221
 30
0.0
 11
346.30000000000001
 21
279.2679491924311
 31
0.0
  0
CIRCLE
  5
252
  8
1
 10
343.30000000000001
 20
281.0
 30
0.0
 40
6.5
  0
LINE
  5
253
  8
1
 10
328.00000000018622
 20
291.76794919243122
 30
0.0
 11
328.00000000018622
 21
295.23205080756878
 31
0.0
  0
LINE
  5
254
  8
1
 10
325.00000000018622
 20
296.96410161513779
 30
0.0
 11
322.00000000018622
 21
295.23205080756878
 31
0.0
  0
LINE
  5
255
  8
1
 10
322.00000000018622
 20
295.23205080756878
 30
0.0
 11
322.00000000018622
 21
291.76794919243122
 31
0.0
  0
LINE
  5
256
  8
1
 10
322.00000000018622
 20
291.76794919243122
 30
0.0
 11
325.00000000018622
 21
290.03589838486221
 31
0.0
  0
CIRCLE
  5
257
  8
1
 10
325.00000000018622
 20
293.5
 30
0.0
 40
5.6339745962155581
  0
LINE
  5
258
  8
1
 10
328.00000000018622
 20
295.23205080756878
 30
0.0
 11
325.00000000018622
 21
296.96410161513779
 31
0.0
  0
LINE
  5
259
  8
1
 10
325.00000000018622
 20
290.03589838486221
 30
0.0
 11
328.00000000018622
 21
291.76794919243122
 31
0.0
  0
CIRCLE
  5
25A
  8
1
 10
325.00000000018622
 20
293.5
 30
0.0
 40
6.5
  0
LINE
  5
25B
  8
1
 10
355.0
 20
253.0
 30
0.0
 11
355.0
 21
254.3747727080802
 31
0.0
  0
LINE
  5
25C
  8
1
 10
354.70000000018621
 20
253.0
 30
0.0
 11
355.0
 21
253.0
 31
0.0
  0
LINE
  5
25D
  8
1
 10
354.70000000018621
 20
309.0
 30
0.0
 11
355.0
 21
309.0
 31
0.0
  0
LINE
  5
25E
  8
1
  6
HIDDEN
 10
355.0
 20
307.62522729191971
 30
0.0
 11
355.0
 21
254.3747727080802
 31
0.0
  0
LINE
  5
25F
  8
1
 10
334.5
 20
204.49999999999989
 30
0.0
 11
334.5
 21
202.99999999999989
 31
0.0
  0
LINE
  5
260
  8
1
 10
352.10000000000002
 20
204.49999999999989
 30
0.0
 11
352.10000000000002
 21
203.0
 31
0.0
  0
LINE
  5
261
  8
1
 10
316.19999999999987
 20
204.49999999999989
 30
0.0
 11
316.19999999999987
 21
202.99999999999989
 31
0.0
  0
LINE
  5
262
  8
1
 10
333.80000000000001
 20
204.49999999999989
 30
0.0
 11
333.80000000000001
 21
203.0
 31
0.0
  0
LINE
  5
263
  8
1
  6
HIDDEN
 62
     8
 10
362.00000000018622
 20
219.49999999999989
 30
0.0
 11
362.00000000018622
 21
204.49999999999989
 31
0.0
  0
LINE
  5
264
  8
1
  6
HIDDEN
 10
361.30000000018617
 20
219.49999999999989
 30
0.0
 11
361.30000000018617
 21
204.49999999999989
 31
0.0
  0
LINE
  5
265
  8
1
  6
HIDDEN
 10
354.70000000018621
 20
219.49999999999989
 30
0.0
 11
354.70000000018621
 21
204.49999999999989
 31
0.0
  0
LINE
  5
266
  8
1
  6
HIDDEN
 62
     8
 10
354.00000000018622
 20
219.49999999999989
 30
0.0
 11
354.00000000018622
 21
204.49999999999989
 31
0.0
  0
LINE
  5
267
  8
1
 10
365.00000000018622
 20
219.49999999999989
 30
0.0
 11
365.00000000018622
 21
204.49999999999989
 31
0.0
  0
CIRCLE
  5
268
  8
1
 10
358.00000000018628
 20
253.0
 30
0.0
 40
3.2999999999999989
  0
CIRCLE
  5
269
  8
1
 10
358.00000000018628
 20
309.0
 30
0.0
 40
3.2999999999999989
  0
CIRCLE
  5
26A
  8
1
 10
343.2999999999999
 20
281.0
 30
0.0
 40
8.5
  0
CIRCLE
  5
26B
  8
1
 10
325.00000000018622
 20
293.5
 30
0.0
 40
8.5
  0
CIRCLE
  5
26C
  8
1
 10
325.00000000018622
 20
268.5
 30
0.0
 40
8.5
  0
LINE
  5
26D
  8
1
 10
355.0
 20
309.0
 30
0.0
 11
355.0
 21
307.62522729191971
 31
0.0
  0
LINE
  5
26E
  8
1
 10
355.0
 20
203.0
 30
0.0
 11
355.0
 21
147.0
 31
0.0
  0
ENDSEC
  0
EOF
