  0
SECTION
  2
HEADER
  9
$ACADVER
  1
AC1014
  9
$ACADMAINTVER
 70
     9
  9
$DWGCODEPAGE
  3
ANSI_932
  9
$INSBASE
 10
0.0
 20
0.0
 30
0.0
  9
$EXTMIN
 10
24.19286025144799
 20
32.94695730126813
 30
0.0
  9
$EXTMAX
 10
236.8211369748252
 20
142.0918954562522
 30
0.0
  9
$LIMMIN
 10
0.0
 20
0.0
  9
$LIMMAX
 10
10000.0
 20
10000.0
  9
$ORTHOMODE
 70
     1
  9
$REGENMODE
 70
     1
  9
$FILLMODE
 70
     1
  9
$QTEXTMODE
 70
     0
  9
$MIRRTEXT
 70
     1
  9
$DRAGMODE
 70
     2
  9
$LTSCALE
 40
5.0
  9
$OSMODE
 70
    32
  9
$ATTMODE
 70
     1
  9
$TEXTSIZE
 40
3.5
  9
$TRACEWID
 40
1.0
  9
$TEXTSTYLE
  7
AD-STANDARD
  9
$CLAYER
  8
1
  9
$CELTYPE
  6
BYLAYER
  9
$CECOLOR
 62
   256
  9
$CELTSCALE
 40
1.0
  9
$DELOBJ
 70
     1
  9
$DISPSILH
 70
     0
  9
$DIMSCALE
 40
1.0
  9
$DIMASZ
 40
0.18
  9
$DIMEXO
 40
0.0625
  9
$DIMDLI
 40
0.38
  9
$DIMRND
 40
0.0
  9
$DIMDLE
 40
0.0
  9
$DIMEXE
 40
0.18
  9
$DIMTP
 40
0.0
  9
$DIMTM
 40
0.0
  9
$DIMTXT
 40
0.18
  9
$DIMCEN
 40
0.09
  9
$DIMTSZ
 40
0.0
  9
$DIMTOL
 70
     0
  9
$DIMLIM
 70
     0
  9
$DIMTIH
 70
     1
  9
$DIMTOH
 70
     1
  9
$DIMSE1
 70
     0
  9
$DIMSE2
 70
     0
  9
$DIMTAD
 70
     0
  9
$DIMZIN
 70
     0
  9
$DIMBLK
  1

  9
$DIMASO
 70
     1
  9
$DIMSHO
 70
     1
  9
$DIMPOST
  1

  9
$DIMAPOST
  1

  9
$DIMALT
 70
     0
  9
$DIMALTD
 70
     2
  9
$DIMALTF
 40
25.4
  9
$DIMLFAC
 40
1.0
  9
$DIMTOFL
 70
     0
  9
$DIMTVP
 40
0.0
  9
$DIMTIX
 70
     0
  9
$DIMSOXD
 70
     0
  9
$DIMSAH
 70
     0
  9
$DIMBLK1
  1

  9
$DIMBLK2
  1

  9
$DIMSTYLE
  2
STANDARD
  9
$DIMCLRD
 70
     0
  9
$DIMCLRE
 70
     0
  9
$DIMCLRT
 70
     0
  9
$DIMTFAC
 40
1.0
  9
$DIMGAP
 40
0.09
  9
$DIMJUST
 70
     0
  9
$DIMSD1
 70
     0
  9
$DIMSD2
 70
     0
  9
$DIMTOLJ
 70
     1
  9
$DIMTZIN
 70
     0
  9
$DIMALTZ
 70
     0
  9
$DIMALTTZ
 70
     0
  9
$DIMFIT
 70
     3
  9
$DIMUPT
 70
     0
  9
$DIMUNIT
 70
     2
  9
$DIMDEC
 70
     4
  9
$DIMTDEC
 70
     4
  9
$DIMALTU
 70
     2
  9
$DIMALTTD
 70
     2
  9
$DIMTXSTY
  7
STANDARD
  9
$DIMAUNIT
 70
     0
  9
$LUNITS
 70
     2
  9
$LUPREC
 70
     4
  9
$SKETCHINC
 40
1.0
  9
$FILLETRAD
 40
3.0
  9
$AUNITS
 70
     0
  9
$AUPREC
 70
     0
  9
$MENU
  1
.
  9
$ELEVATION
 40
0.0
  9
$PELEVATION
 40
0.0
  9
$THICKNESS
 40
0.0
  9
$LIMCHECK
 70
     0
  9
$BLIPMODE
 70
     0
  9
$CHAMFERA
 40
1.0
  9
$CHAMFERB
 40
1.0
  9
$CHAMFERC
 40
673.4006734006733
  9
$CHAMFERD
 40
0.0
  9
$SKPOLY
 70
     0
  9
$TDCREATE
 40
2451430.616412153
  9
$TDUPDATE
 40
2453991.849984965
  9
$TDINDWG
 40
0.4918503241
  9
$TDUSRTIMER
 40
0.4918503241
  9
$USRTIMER
 70
     1
  9
$ANGBASE
 50
0.0
  9
$ANGDIR
 70
     0
  9
$PDMODE
 70
     0
  9
$PDSIZE
 40
0.0
  9
$PLINEWID
 40
0.0
  9
$COORDS
 70
     1
  9
$SPLFRAME
 70
     0
  9
$SPLINETYPE
 70
     6
  9
$SPLINESEGS
 70
     8
  9
$ATTDIA
 70
     0
  9
$ATTREQ
 70
     1
  9
$HANDLING
 70
 10241
  9
$HANDSEED
  5
2228
  9
$SURFTAB1
 70
     6
  9
$SURFTAB2
 70
     6
  9
$SURFTYPE
 70
     6
  9
$SURFU
 70
     6
  9
$SURFV
 70
     6
  9
$UCSNAME
  2

  9
$UCSORG
 10
0.0
 20
0.0
 30
0.0
  9
$UCSXDIR
 10
1.0
 20
0.0
 30
0.0
  9
$UCSYDIR
 10
0.0
 20
1.0
 30
0.0
  9
$PUCSNAME
  2

  9
$PUCSORG
 10
0.0
 20
0.0
 30
0.0
  9
$PUCSXDIR
 10
1.0
 20
0.0
 30
0.0
  9
$PUCSYDIR
 10
0.0
 20
1.0
 30
0.0
  9
$USERI1
 70
     0
  9
$USERI2
 70
     0
  9
$USERI3
 70
     0
  9
$USERI4
 70
     0
  9
$USERI5
 70
     0
  9
$USERR1
 40
0.0
  9
$USERR2
 40
0.0
  9
$USERR3
 40
0.0
  9
$USERR4
 40
0.0
  9
$USERR5
 40
0.0
  9
$WORLDVIEW
 70
     1
  9
$SHADEDGE
 70
     3
  9
$SHADEDIF
 70
    70
  9
$TILEMODE
 70
     1
  9
$MAXACTVP
 70
    16
  9
$PINSBASE
 10
0.0
 20
0.0
 30
0.0
  9
$PLIMCHECK
 70
     0
  9
$PEXTMIN
 10
20.0
 20
11.99999999999994
 30
0.0
  9
$PEXTMAX
 10
405.0
 20
276.9999999999999
 30
0.0
  9
$PLIMMIN
 10
0.0
 20
0.0
  9
$PLIMMAX
 10
409.8899999999999
 20
282.8899999999999
  9
$UNITMODE
 70
     0
  9
$VISRETAIN
 70
     0
  9
$PLINEGEN
 70
     0
  9
$PSLTSCALE
 70
     1
  9
$TREEDEPTH
 70
  3020
  9
$PICKSTYLE
 70
     1
  9
$CMLSTYLE
  2
STANDARD
  9
$CMLJUST
 70
     0
  9
$CMLSCALE
 40
1.0
  9
$PROXYGRAPHICS
 70
     1
  9
$MEASUREMENT
 70
     1
  0
ENDSEC
  0
SECTION
  2
CLASSES
  0
CLASS
  1
LWPOLYLINE
  2
AcDbPolyline
  3
AutoCAD 2000
 90
        0
280
     0
281
     1
  0
CLASS
  1
OLE2FRAME
  2
AcDbOle2Frame
  3
AutoCAD 2000
 90
        0
280
     0
281
     1
  0
CLASS
  1
DICTIONARYVAR
  2
AcDbDictionaryVar
  3
AutoCAD 2000
 90
        0
280
     0
281
     0
  0
CLASS
  1
HATCH
  2
AcDbHatch
  3
AutoCAD 2000
 90
        0
280
     0
281
     1
  0
CLASS
  1
ACDBDICTIONARYWDFLT
  2
AcDbDictionaryWithDefault
  3
AutoCAD 2000
 90
        0
280
     0
281
     0
  0
CLASS
  1
ACDBPLACEHOLDER
  2
AcDbPlaceHolder
  3
AutoCAD 2000
 90
        0
280
     0
281
     0
  0
CLASS
  1
LAYOUT
  2
AcDbLayout
  3
AutoCAD 2000
 90
        0
280
     0
281
     0
  0
CLASS
  1
PLOTSETTINGS
  2
AcDbPlotSettings
  3
AutoCAD 2000
 90
        0
280
     0
281
     0
  0
CLASS
  1
LONG_TRANSACTION
  2
AcDbLongTransaction
  3
AutoCAD 2000
 90
        0
280
     0
281
     0
  0
CLASS
  1
LWPOLYLINE
  2
AcDbPolyline
  3
AutoCAD 2000
 90
        0
280
     0
281
     1
  0
CLASS
  1
HATCH
  2
AcDbHatch
  3
AutoCAD 2000
 90
        0
280
     0
281
     1
  0
CLASS
  1
XRECORD
  2
AcDbXrecord
  3
AutoCAD 2000
 90
        0
280
     0
281
     0
  0
CLASS
  1
LONG_TRANSACTION
  2
AcDbLongTransaction
  3
AutoCAD 2000
 90
        0
280
     0
281
     0
  0
CLASS
  1
LWPOLYLINE
  2
AcDbPolyline
  3
AutoCAD 2000
 90
        0
280
     0
281
     1
  0
CLASS
  1
HATCH
  2
AcDbHatch
  3
AutoCAD 2000
 90
        0
280
     0
281
     1
  0
CLASS
  1
XRECORD
  2
AcDbXrecord
  3
AutoCAD 2000
 90
        0
280
     0
281
     0
  0
CLASS
  1
LONG_TRANSACTION
  2
AcDbLongTransaction
  3
AutoCAD 2000
 90
        0
280
     0
281
     0
  0
CLASS
  1
LWPOLYLINE
  2
AcDbPolyline
  3
AutoCAD 2000
 90
        0
280
     0
281
     1
  0
CLASS
  1
HATCH
  2
AcDbHatch
  3
AutoCAD 2000
 90
        0
280
     0
281
     1
  0
CLASS
  1
XRECORD
  2
AcDbXrecord
  3
AutoCAD 2000
 90
        0
280
     0
281
     0
  0
CLASS
  1
LONG_TRANSACTION
  2
AcDbLongTransaction
  3
AutoCAD 2000
 90
        0
280
     0
281
     0
  0
CLASS
  1
LWPOLYLINE
  2
AcDbPolyline
  3
AutoCAD 2000
 90
        0
280
     0
281
     1
  0
CLASS
  1
HATCH
  2
AcDbHatch
  3
AutoCAD 2000
 90
        0
280
     0
281
     1
  0
CLASS
  1
XRECORD
  2
AcDbXrecord
  3
AutoCAD 2000
 90
        0
280
     0
281
     0
  0
CLASS
  1
LONG_TRANSACTION
  2
AcDbLongTransaction
  3
AutoCAD 2000
 90
        0
280
     0
281
     0
  0
CLASS
  1
LWPOLYLINE
  2
AcDbPolyline
  3
AutoCAD 2000
 90
        0
280
     0
281
     1
  0
CLASS
  1
HATCH
  2
AcDbHatch
  3
AutoCAD 2000
 90
        0
280
     0
281
     1
  0
CLASS
  1
XRECORD
  2
AcDbXrecord
  3
AutoCAD 2000
 90
        0
280
     0
281
     0
  0
CLASS
  1
LONG_TRANSACTION
  2
AcDbLongTransaction
  3
AutoCAD 2000
 90
        0
280
     0
281
     0
  0
CLASS
  1
LWPOLYLINE
  2
AcDbPolyline
  3
AutoCAD 2000
 90
        0
280
     0
281
     1
  0
CLASS
  1
HATCH
  2
AcDbHatch
  3
AutoCAD 2000
 90
        0
280
     0
281
     1
  0
CLASS
  1
XRECORD
  2
AcDbXrecord
  3
AutoCAD 2000
 90
        0
280
     0
281
     0
  0
CLASS
  1
LONG_TRANSACTION
  2
AcDbLongTransaction
  3
AutoCAD 2000
 90
        0
280
     0
281
     0
  0
CLASS
  1
LWPOLYLINE
  2
AcDbPolyline
  3
AutoCAD 2000
 90
        0
280
     0
281
     1
  0
CLASS
  1
HATCH
  2
AcDbHatch
  3
AutoCAD 2000
 90
        0
280
     0
281
     1
  0
CLASS
  1
XRECORD
  2
AcDbXrecord
  3
AutoCAD 2000
 90
        0
280
     0
281
     0
  0
CLASS
  1
LONG_TRANSACTION
  2
AcDbLongTransaction
  3
AutoCAD 2000
 90
        0
280
     0
281
     0
  0
CLASS
  1
LWPOLYLINE
  2
AcDbPolyline
  3
AutoCAD 2000
 90
        0
280
     0
281
     1
  0
CLASS
  1
HATCH
  2
AcDbHatch
  3
AutoCAD 2000
 90
        0
280
     0
281
     1
  0
CLASS
  1
XRECORD
  2
AcDbXrecord
  3
AutoCAD 2000
 90
        0
280
     0
281
     0
  0
CLASS
  1
LONG_TRANSACTION
  2
AcDbLongTransaction
  3
AutoCAD 2000
 90
        0
280
     0
281
     0
  0
CLASS
  1
LWPOLYLINE
  2
AcDbPolyline
  3
AutoCAD 2000
 90
        0
280
     0
281
     1
  0
CLASS
  1
HATCH
  2
AcDbHatch
  3
AutoCAD 2000
 90
        0
280
     0
281
     1
  0
CLASS
  1
XRECORD
  2
AcDbXrecord
  3
AutoCAD 2000
 90
        0
280
     0
281
     0
  0
CLASS
  1
LONG_TRANSACTION
  2
AcDbLongTransaction
  3
AutoCAD 2000
 90
        0
280
     0
281
     0
  0
CLASS
  1
LWPOLYLINE
  2
AcDbPolyline
  3
AutoCAD 2000
 90
        0
280
     0
281
     1
  0
CLASS
  1
HATCH
  2
AcDbHatch
  3
AutoCAD 2000
 90
        0
280
     0
281
     1
  0
CLASS
  1
XRECORD
  2
AcDbXrecord
  3
AutoCAD 2000
 90
        0
280
     0
281
     0
  0
CLASS
  1
LONG_TRANSACTION
  2
AcDbLongTransaction
  3
AutoCAD 2000
 90
        0
280
     0
281
     0
  0
CLASS
  1
LWPOLYLINE
  2
AcDbPolyline
  3
AutoCAD 2000
 90
        0
280
     0
281
     1
  0
CLASS
  1
HATCH
  2
AcDbHatch
  3
AutoCAD 2000
 90
        0
280
     0
281
     1
  0
CLASS
  1
XRECORD
  2
AcDbXrecord
  3
AutoCAD 2000
 90
        0
280
     0
281
     0
  0
CLASS
  1
LONG_TRANSACTION
  2
AcDbLongTransaction
  3
AutoCAD 2000
 90
        0
280
     0
281
     0
  0
CLASS
  1
LWPOLYLINE
  2
AcDbPolyline
  3
AutoCAD 2000
 90
        0
280
     0
281
     1
  0
CLASS
  1
HATCH
  2
AcDbHatch
  3
AutoCAD 2000
 90
        0
280
     0
281
     1
  0
CLASS
  1
XRECORD
  2
AcDbXrecord
  3
AutoCAD 2000
 90
        0
280
     0
281
     0
  0
CLASS
  1
LONG_TRANSACTION
  2
AcDbLongTransaction
  3
AutoCAD 2000
 90
        0
280
     0
281
     0
  0
CLASS
  1
LWPOLYLINE
  2
AcDbPolyline
  3
AutoCAD 2000
 90
        0
280
     0
281
     1
  0
CLASS
  1
HATCH
  2
AcDbHatch
  3
AutoCAD 2000
 90
        0
280
     0
281
     1
  0
CLASS
  1
XRECORD
  2
AcDbXrecord
  3
AutoCAD 2000
 90
        0
280
     0
281
     0
  0
CLASS
  1
LONG_TRANSACTION
  2
AcDbLongTransaction
  3
AutoCAD 2000
 90
        0
280
     0
281
     0
  0
CLASS
  1
LWPOLYLINE
  2
AcDbPolyline
  3
AutoCAD 2000
 90
        0
280
     0
281
     1
  0
CLASS
  1
HATCH
  2
AcDbHatch
  3
AutoCAD 2000
 90
        0
280
     0
281
     1
  0
CLASS
  1
XRECORD
  2
AcDbXrecord
  3
AutoCAD 2000
 90
        0
280
     0
281
     0
  0
ENDSEC
  0
SECTION
  2
TABLES
  0
TABLE
  2
VPORT
  5
8
330
0
100
AcDbSymbolTable
 70
     5
  0
VPORT
  5
2205
330
8
100
AcDbSymbolTableRecord
100
AcDbViewportTableRecord
  2
*ACTIVE
 70
     0
 10
0.0
 20
0.0
 11
1.0
 21
1.0
 12
124.327319209569
 22
91.10521047181022
 13
0.0
 23
0.0
 14
168.0
 24
168.0
 15
0.0
 25
0.0
 16
0.0
 26
0.0
 36
1.0
 17
0.0
 27
0.0
 37
0.0
 40
234.6236895949552
 41
1.602080624187256
 42
50.0
 43
0.0
 44
0.0
 50
0.0
 51
0.0
 71
     0
 72
   100
 73
     1
 74
     0
 75
     0
 76
     0
 77
     0
 78
     1
  0
ENDTAB
  0
TABLE
  2
LTYPE
  5
5
330
0
100
AcDbSymbolTable
 70
     2
  0
LTYPE
  5
14
330
5
100
AcDbSymbolTableRecord
100
AcDbLinetypeTableRecord
  2
BYBLOCK
 70
     0
  3

 72
    65
 73
     0
 40
0.0
  0
LTYPE
  5
15
330
5
100
AcDbSymbolTableRecord
100
AcDbLinetypeTableRecord
  2
BYLAYER
 70
     0
  3

 72
    65
 73
     0
 40
0.0
  0
LTYPE
  5
16
330
5
100
AcDbSymbolTableRecord
100
AcDbLinetypeTableRecord
  2
CONTINUOUS
 70
     0
  3
Solid line
 72
    65
 73
     0
 40
0.0
  0
LTYPE
  5
6E
330
5
100
AcDbSymbolTableRecord
100
AcDbLinetypeTableRecord
  2
CENTER
 70
     0
  3
____ _ ____ _ ____ _ ____ _ ____ _ ____ _ ____ 
 72
    65
 73
     4
 40
2.0
 49
1.25
 74
     0
 49
-0.25
 74
     0
 49
0.25
 74
     0
 49
-0.25
 74
     0
  0
ENDTAB
  0
TABLE
  2
LAYER
  5
2
330
0
100
AcDbSymbolTable
 70
     6
  0
LAYER
  5
F
330
2
100
AcDbSymbolTableRecord
100
AcDbLayerTableRecord
  2
0
 70
     0
 62
     7
  6
CONTINUOUS
  0
LAYER
  5
72
330
2
100
AcDbSymbolTableRecord
100
AcDbLayerTableRecord
  2
DEFPOINTS
 70
     0
 62
     7
  6
CONTINUOUS
  0
LAYER
  5
74
330
2
100
AcDbSymbolTableRecord
100
AcDbLayerTableRecord
  2
CENTER
 70
     0
 62
     9
  6
CENTER
  0
LAYER
  5
21A3
330
2
100
AcDbSymbolTableRecord
100
AcDbLayerTableRecord
  2
1
 70
     0
 62
     7
  6
CONTINUOUS
  0
ENDTAB
  0
TABLE
  2
STYLE
  5
3
330
0
100
AcDbSymbolTable
 70
     7
  0
STYLE
  5
10
330
3
100
AcDbSymbolTableRecord
100
AcDbTextStyleTableRecord
  2
STANDARD
 70
     0
 40
0.0
 41
0.8
 50
0.0
 71
     0
 42
84.17508417508416
  3
TXT
  4
bigfont.shx
  0
STYLE
  5
63
330
3
100
AcDbSymbolTableRecord
100
AcDbTextStyleTableRecord
  2
AD-STANDARD
 70
     0
 40
0.0
 41
0.8
 50
0.0
 71
     0
 42
3.5
  3
C:\Program Files\AutoCAD LT\romans.shx
  4
bigfont.shx
  0
ENDTAB
  0
TABLE
  2
VIEW
  5
6
330
0
100
AcDbSymbolTable
 70
     0
  0
ENDTAB
  0
TABLE
  2
UCS
  5
7
330
0
100
AcDbSymbolTable
 70
     0
  0
ENDTAB
  0
TABLE
  2
APPID
  5
9
330
0
100
AcDbSymbolTable
 70
     5
  0
APPID
  5
11
330
9
100
AcDbSymbolTableRecord
100
AcDbRegAppTableRecord
  2
ACAD
 70
     0
  0
APPID
  5
22A
330
9
100
AcDbSymbolTableRecord
100
AcDbRegAppTableRecord
  2
CONTENTTABDATA
 70
     0
  0
APPID
  5
22B
330
9
100
AcDbSymbolTableRecord
100
AcDbRegAppTableRecord
  2
CONTENTCURRENTTAB
 70
     0
  0
APPID
  5
232
330
9
100
AcDbSymbolTableRecord
100
AcDbRegAppTableRecord
  2
CONTENTBLOCKDESCRIPTION
 70
     0
  0
APPID
  5
233
330
9
100
AcDbSymbolTableRecord
100
AcDbRegAppTableRecord
  2
CONTENTBLOCKICON
 70
     0
  0
ENDTAB
  0
TABLE
  2
DIMSTYLE
  5
A
330
0
100
AcDbSymbolTable
 70
     3
  0
DIMSTYLE
105
1D
330
A
100
AcDbSymbolTableRecord
100
AcDbDimStyleTableRecord
  2
STANDARD
 70
     0
  3

  4

  5

  6

  7

 40
1.0
 41
0.18
 42
0.0625
 43
0.38
 44
0.18
 45
0.0
 46
0.0
 47
0.0
 48
0.0
140
0.18
141
0.09
142
0.0
143
25.4
144
1.0
145
0.0
146
1.0
147
0.09
 71
     0
 72
     0
 73
     1
 74
     1
 75
     0
 76
     0
 77
     0
 78
     0
170
     0
171
     2
172
     0
173
     0
174
     0
175
     0
176
     0
177
     0
178
     0
270
     2
271
     4
272
     4
273
     2
274
     2
340
10
275
     0
280
     0
281
     0
282
     0
283
     1
284
     0
285
     0
286
     0
287
     3
288
     0
  0
ENDTAB
  0
TABLE
  2
BLOCK_RECORD
  5
1
330
0
100
AcDbSymbolTable
 70
    15
  0
BLOCK_RECORD
  5
1A
102
{ACAD_XDICTIONARY
360
1439
102
}
330
1
100
AcDbSymbolTableRecord
100
AcDbBlockTableRecord
  2
*MODEL_SPACE
  0
BLOCK_RECORD
  5
1402
102
{ACAD_XDICTIONARY
360
1415
102
}
330
1
100
AcDbSymbolTableRecord
100
AcDbBlockTableRecord
  2
*PAPER_SPACE
  0
ENDTAB
  0
ENDSEC
  0
SECTION
  2
BLOCKS
  0
BLOCK
  5
1B
330
1A
100
AcDbEntity
  8
0
100
AcDbBlockBegin
  2
*MODEL_SPACE
 70
     0
 10
0.0
 20
0.0
 30
0.0
  3
*MODEL_SPACE
  1

  0
ENDBLK
  5
1C
330
1A
100
AcDbEntity
  8
0
100
AcDbBlockEnd
  0
BLOCK
  5
140F
330
1402
100
AcDbEntity
 67
     1
  8
0
100
AcDbBlockBegin
  2
*PAPER_SPACE
 70
     0
 10
0.0
 20
0.0
 30
0.0
  3
*PAPER_SPACE
  1

  0
ENDBLK
  5
1410
330
1402
100
AcDbEntity
 67
     1
  8
0
100
AcDbBlockEnd
  0
ENDSEC
  0
SECTION
  2
ENTITIES
  0
LINE
  5
1D56
330
1A
100
AcDbEntity
  8
1
100
AcDbLine
 10
59.19286025144799
 20
32.94695730126813
 30
0.0
 11
139.1092175976858
 21
32.94695730126813
 31
0.0
  0
LINE
  5
1D57
330
1A
100
AcDbEntity
  8
1
100
AcDbLine
 10
59.19286025144799
 20
54.94695730126813
 30
0.0
 11
139.1928602514479
 21
54.94695730126813
 31
0.0
  0
ARC
  5
1D68
330
1A
100
AcDbEntity
  8
1
100
AcDbCircle
 10
51.44286025144618
 20
133.9398139282363
 30
0.0
 40
5.0
100
AcDbArc
 50
0.0
 51
90.0
  0
LINE
  5
1D69
330
1A
100
AcDbEntity
  8
1
100
AcDbLine
 10
192.1690554468094
 20
52.94695730126813
 30
0.0
 11
192.1690554468094
 21
34.94695730126812
 31
0.0
  0
LINE
  5
1D6A
330
1A
100
AcDbEntity
  8
1
100
AcDbLine
 10
198.6690554468094
 20
34.94695730126812
 30
0.0
 11
192.1690554468099
 21
34.94695730126812
 31
0.0
  0
LINE
  5
1D6B
330
1A
100
AcDbEntity
  8
1
100
AcDbLine
 10
198.6690554468094
 20
52.94695730126813
 30
0.0
 11
192.1690554468094
 21
52.94695730126813
 31
0.0
  0
ARC
  5
1D6C
330
1A
100
AcDbEntity
  8
1
100
AcDbCircle
 10
233.1690554468095
 20
41.7795329962243
 30
0.0
 40
3.0
100
AcDbArc
 50
180.0
 51
254.7424767095484
  0
ARC
  5
1D6D
330
1A
100
AcDbEntity
  8
1
100
AcDbCircle
 10
233.3690554468093
 20
41.92982112749604
 30
0.0
 40
1.7
100
AcDbArc
 50
180.0
 51
252.9665898330454
  0
ARC
  5
1D6E
330
1A
100
AcDbEntity
  8
1
100
AcDbCircle
 10
231.9190554468095
 20
37.19695730126812
 30
0.0
 40
3.25
100
AcDbArc
 50
180.0
 51
72.9665898330454
  0
CIRCLE
  5
1D6F
330
1A
100
AcDbEntity
  8
1
100
AcDbCircle
 10
231.9190554468095
 20
37.19695730126812
 30
0.0
 40
1.75
  0
LINE
  5
1D70
330
1A
100
AcDbEntity
  8
1
100
AcDbLine
 10
231.66905544681
 20
54.44695730126722
 30
0.0
 11
228.66905544681
 21
54.44695730126722
 31
0.0
  0
LINE
  5
1D71
330
1A
100
AcDbEntity
  8
1
100
AcDbLine
 10
231.66905544681
 20
54.44695730126722
 30
0.0
 11
231.6690554468095
 21
41.92982112749604
 31
0.0
  0
LINE
  5
1D72
330
1A
100
AcDbEntity
  8
1
100
AcDbLine
 10
230.16905544681
 20
54.44695730126722
 30
0.0
 11
230.1690554468091
 21
37.19695730126812
 31
0.0
  0
LINE
  5
1D87
330
1A
100
AcDbEntity
  8
1
100
AcDbLine
 10
198.6690554468094
 20
32.94695730126813
 30
0.0
 11
228.6690554468095
 21
32.94695730126813
 31
0.0
  0
LINE
  5
1D88
330
1A
100
AcDbEntity
  8
1
100
AcDbLine
 10
198.6690554468094
 20
54.94695730126813
 30
0.0
 11
228.6690554468095
 21
54.94695730126813
 31
0.0
  0
LINE
  5
1D89
330
1A
100
AcDbEntity
  8
1
100
AcDbLine
 10
198.6690554468094
 20
54.94695730126813
 30
0.0
 11
198.6690554468094
 21
32.94695730126813
 31
0.0
  0
LINE
  5
1D8A
330
1A
100
AcDbEntity
  8
1
100
AcDbLine
 10
228.6690554468095
 20
54.94695730126813
 30
0.0
 11
228.6690554468095
 21
32.94695730126813
 31
0.0
  0
LINE
  5
1D97
330
1A
100
AcDbEntity
  8
1
100
AcDbLine
 10
34.44286025145027
 20
137.7398139282365
 30
0.0
 11
34.44286025145027
 21
140.4398139282381
 31
0.0
  0
LINE
  5
1D98
330
1A
100
AcDbEntity
  8
1
100
AcDbLine
 10
43.942860251453
 20
137.7398139282365
 30
0.0
 11
43.94286025145254
 21
140.4398139282381
 31
0.0
  0
LINE
  5
1D99
330
1A
100
AcDbEntity
  8
1
100
AcDbLine
 10
35.44058908726436
 20
140.4398139282372
 30
0.0
 11
34.44286025144981
 21
140.4398139282372
 31
0.0
  0
LINE
  5
1D9A
330
1A
100
AcDbEntity
  8
1
100
AcDbLine
 10
34.44286025145027
 20
138.9398139282363
 30
0.0
 11
24.19286025144799
 21
138.9398139282363
 31
0.0
  0
LINE
  5
1D9B
330
1A
100
AcDbEntity
  8
1
100
AcDbLine
 10
44.19286025144981
 20
137.7398139282365
 30
0.0
 11
44.19286025144981
 21
136.9398139282363
 31
0.0
  0
LINE
  5
1D9C
330
1A
100
AcDbEntity
  8
1
100
AcDbLine
 10
42.99286025144908
 20
140.0398139282357
 30
0.0
 11
42.99286025145
 21
137.7398139282365
 31
0.0
  0
LINE
  5
1D9D
330
1A
100
AcDbEntity
  8
1
100
AcDbLine
 10
34.19286025144981
 20
137.7398139282365
 30
0.0
 11
34.19286025144981
 21
136.9398139282363
 31
0.0
  0
LINE
  5
1D9E
330
1A
100
AcDbEntity
  8
1
100
AcDbLine
 10
35.39286025144963
 20
140.0398139282339
 30
0.0
 11
35.39286025144963
 21
137.7398139282355
 31
0.0
  0
ARC
  5
1D9F
330
1A
100
AcDbEntity
  8
1
100
AcDbCircle
 10
37.09286025144945
 20
140.0398139282339
 30
0.0
 40
1.7
100
AcDbArc
 50
90.0
 51
180.0
  0
LINE
  5
1DA0
330
1A
100
AcDbEntity
  8
1
100
AcDbLine
 10
41.29286025144836
 20
141.7398139282346
 30
0.0
 11
37.092860251449
 21
141.7398139282337
 31
0.0
  0
LINE
  5
1DA1
330
1A
100
AcDbEntity
  8
1
100
AcDbLine
 10
44.19286025145026
 20
136.9398139282363
 30
0.0
 11
34.19286025144981
 21
136.9398139282363
 31
0.0
  0
LINE
  5
1DA2
330
1A
100
AcDbEntity
  8
1
100
AcDbLine
 10
44.19286025145026
 20
137.7398139282365
 30
0.0
 11
34.19286025144981
 21
137.7398139282365
 31
0.0
  0
LINE
  5
1DA3
330
1A
100
AcDbEntity
  8
1
100
AcDbLine
 10
42.99286025145
 20
138.7398139282365
 30
0.0
 11
35.39286025144963
 21
138.7398139282356
 31
0.0
  0
ARC
  5
1DA4
330
1A
100
AcDbEntity
  8
1
100
AcDbCircle
 10
41.29286025144927
 20
140.0398139282348
 30
0.0
 40
1.7
100
AcDbArc
 50
0.0
 51
90.00000000002605
  0
ARC
  5
1DA5
330
1A
100
AcDbEntity
  8
1
100
AcDbCircle
 10
234.7690554468076
 20
46.84695730126867
 30
0.0
 40
1.7
100
AcDbArc
 50
270.000000000026
 51
0.0000000000521102
  0
ARC
  5
1DA6
330
1A
100
AcDbEntity
  8
1
100
AcDbCircle
 10
234.7690554468067
 20
51.04695730126758
 30
0.0
 40
1.7
100
AcDbArc
 50
0.0
 51
90.0
  0
LINE
  5
1DA7
330
1A
100
AcDbEntity
  8
1
100
AcDbLine
 10
236.4690554468079
 20
46.84695730126867
 30
0.0
 11
236.469055446807
 21
51.04695730126849
 31
0.0
  0
LINE
  5
1DA8
330
1A
100
AcDbEntity
  8
1
100
AcDbLine
 10
234.769055446809
 20
45.14695730126795
 30
0.0
 11
232.4690554468097
 21
45.14695730126795
 31
0.0
  0
LINE
  5
1DA9
330
1A
100
AcDbEntity
  8
1
100
AcDbLine
 10
234.7690554468072
 20
52.74695730126831
 30
0.0
 11
232.4690554468088
 21
52.74695730126831
 31
0.0
  0
LINE
  5
1DAA
330
1A
100
AcDbEntity
  8
1
100
AcDbLine
 10
233.4690554468097
 20
45.14695730126795
 30
0.0
 11
233.4690554468088
 21
52.74695730126831
 31
0.0
  0
LINE
  5
1DAB
330
1A
100
AcDbEntity
  8
1
100
AcDbLine
 10
232.4690554468097
 20
43.94695730126722
 30
0.0
 11
231.6690554468095
 21
43.94695730126722
 31
0.0
  0
LINE
  5
1DAC
330
1A
100
AcDbEntity
  8
1
100
AcDbLine
 10
232.4690554468097
 20
53.94695730126722
 30
0.0
 11
231.6690554468095
 21
53.94695730126722
 31
0.0
  0
LINE
  5
1DAD
330
1A
100
AcDbEntity
  8
1
100
AcDbLine
 10
232.4690554468097
 20
43.94695730126722
 30
0.0
 11
232.4690554468097
 21
53.94695730126722
 31
0.0
  0
LINE
  5
1DAE
330
1A
100
AcDbEntity
  8
1
100
AcDbLine
 10
231.6690554468095
 20
43.94695730126722
 30
0.0
 11
231.6690554468095
 21
53.94695730126722
 31
0.0
  0
ARC
  5
1DAF
330
1A
100
AcDbEntity
  8
1
100
AcDbCircle
 10
51.54286025144654
 20
134.0398139282366
 30
0.0
 40
1.399999999999999
100
AcDbArc
 50
359.9999999999478
 51
90.0
  0
LINE
  5
1DB0
330
1A
100
AcDbEntity
  8
1
100
AcDbLine
 10
34.44286025145027
 20
135.4398139282363
 30
0.0
 11
43.94286025145345
 21
135.4398139282363
 31
0.0
  0
LINE
  5
1DB1
330
1A
100
AcDbEntity
  8
1
100
AcDbLine
 10
56.44286025144618
 20
133.9398139282381
 30
0.0
 11
56.44286025144618
 21
133.9398139282363
 31
0.0
  0
LINE
  5
1DB2
330
1A
100
AcDbEntity
  8
1
100
AcDbLine
 10
51.44286025144618
 20
138.9398139282363
 30
0.0
 11
43.942860251453
 21
138.9398139282363
 31
0.0
  0
LINE
  5
1DB3
330
1A
100
AcDbEntity
  8
1
100
AcDbLine
 10
43.942860251453
 20
140.4398139282372
 30
0.0
 11
42.94513141563436
 21
140.4398139282372
 31
0.0
  0
LINE
  5
1DB4
330
1A
100
AcDbEntity
  8
1
100
AcDbLine
 10
43.942860251453
 20
136.9398139282363
 30
0.0
 11
34.44286025144981
 21
136.9398139282363
 31
0.0
  0
LINE
  5
1DB5
330
1A
100
AcDbEntity
  8
1
100
AcDbLine
 10
51.54286025144654
 20
135.4398139282363
 30
0.0
 11
24.19286025144799
 21
135.4398139282363
 31
0.0
  0
CIRCLE
  5
1DB6
330
1A
100
AcDbEntity
  8
1
 62
     9
100
AcDbCircle
 10
46.19286025144799
 20
126.4398139282381
 30
0.0
 40
3.0
  0
CIRCLE
  5
1DB7
330
1A
100
AcDbEntity
  8
1
 62
     9
100
AcDbCircle
 10
46.19286025144799
 20
111.4398139282381
 30
0.0
 40
3.0
  0
CIRCLE
  5
1DB8
330
1A
100
AcDbEntity
  8
1
100
AcDbCircle
 10
46.19286025144799
 20
126.4398139282381
 30
0.0
 40
2.5
  0
CIRCLE
  5
1DB9
330
1A
100
AcDbEntity
  8
1
100
AcDbCircle
 10
46.19286025144799
 20
111.4398139282381
 30
0.0
 40
2.5
  0
LINE
  5
1DBA
330
1A
100
AcDbEntity
  8
1
100
AcDbLine
 10
34.44286025145027
 20
133.9398139282372
 30
0.0
 11
34.44286025145027
 21
136.9398139282363
 31
0.0
  0
LINE
  5
1DBB
330
1A
100
AcDbEntity
  8
1
100
AcDbLine
 10
43.94286025145345
 20
133.9398139282372
 30
0.0
 11
43.942860251453
 21
136.9398139282363
 31
0.0
  0
CIRCLE
  5
1DBC
330
1A
100
AcDbEntity
  8
1
100
AcDbCircle
 10
152.192860251448
 20
126.4398139282381
 30
0.0
 40
3.0
  0
CIRCLE
  5
1DBD
330
1A
100
AcDbEntity
  8
1
100
AcDbCircle
 10
152.192860251448
 20
111.4398139282381
 30
0.0
 40
3.0
  0
CIRCLE
  5
1DBE
330
1A
100
AcDbEntity
  8
1
 62
     9
100
AcDbCircle
 10
152.192860251448
 20
126.4398139282381
 30
0.0
 40
2.5
  0
CIRCLE
  5
1DBF
330
1A
100
AcDbEntity
  8
1
 62
     9
100
AcDbCircle
 10
152.192860251448
 20
111.4398139282381
 30
0.0
 40
2.5
  0
LINE
  5
1DC0
330
1A
100
AcDbEntity
  8
1
100
AcDbLine
 10
34.19286025144799
 20
133.9398139282381
 30
0.0
 11
164.1928602514479
 21
133.9398139282381
 31
0.0
  0
LINE
  5
1DC1
330
1A
100
AcDbEntity
  8
1
100
AcDbLine
 10
34.19286025144799
 20
54.94695730126813
 30
0.0
 11
34.19286025144799
 21
32.94695730126813
 31
0.0
  0
LINE
  5
1DC2
330
1A
100
AcDbEntity
  8
1
100
AcDbLine
 10
34.19286025144799
 20
54.94695730126813
 30
0.0
 11
59.19286025144799
 21
54.94695730126813
 31
0.0
  0
LINE
  5
1DC3
330
1A
100
AcDbEntity
  8
1
100
AcDbLine
 10
34.19286025144799
 20
32.94695730126813
 30
0.0
 11
59.19286025144799
 21
32.94695730126813
 31
0.0
  0
ARC
  5
1DC4
330
1A
100
AcDbEntity
  8
1
100
AcDbCircle
 10
64.46068712787416
 20
63.44695730126812
 30
0.0
 40
10.0
100
AcDbArc
 50
238.2116693829667
 51
270.0
  0
ARC
  5
1DC5
330
1A
100
AcDbEntity
  8
1
100
AcDbCircle
 10
64.46068712787416
 20
24.44695730126813
 30
0.0
 40
10.0
100
AcDbArc
 50
90.0
 51
121.7883306170332
  0
ARC
  5
1DC6
330
1A
100
AcDbEntity
  8
1
100
AcDbCircle
 10
79.19286025144799
 20
44.94695730127086
 30
0.0
 40
6.0
100
AcDbArc
 50
29.99999999999843
 51
180.0
  0
ARC
  5
1DC7
330
1A
100
AcDbEntity
  8
1
100
AcDbCircle
 10
79.19286025144799
 20
42.94695730127085
 30
0.0
 40
6.0
100
AcDbArc
 50
180.0
 51
330.0000000000015
  0
LINE
  5
1DC8
330
1A
100
AcDbEntity
  8
1
100
AcDbLine
 10
73.19286025144799
 20
44.94695730127086
 30
0.0
 11
73.19286025144799
 21
42.94695730127085
 31
0.0
  0
LINE
  5
1DCA
330
1A
100
AcDbEntity
  8
1
100
AcDbLine
 10
72.692860251448
 20
36.94695730126813
 30
0.0
 11
72.69286025144754
 21
50.94695730126904
 31
0.0
  0
LINE
  5
1DCD
330
1A
100
AcDbEntity
  8
1
100
AcDbLine
 10
70.69286025144754
 20
52.94695730126903
 30
0.0
 11
39.69286025144754
 21
52.94695730126813
 31
0.0
  0
LINE
  5
1DCE
330
1A
100
AcDbEntity
  8
1
100
AcDbLine
 10
70.69286025144799
 20
34.94695730126812
 30
0.0
 11
39.69286025144754
 21
34.94695730126812
 31
0.0
  0
LINE
  5
1DCF
330
1A
100
AcDbEntity
  8
1
100
AcDbLine
 10
37.69286025144754
 20
36.94695730126813
 30
0.0
 11
37.69286025144754
 21
50.94695730126812
 31
0.0
  0
ARC
  5
1DD1
330
1A
100
AcDbEntity
  8
1
100
AcDbCircle
 10
39.69286025144754
 20
50.94695730126812
 30
0.0
 40
2.0
100
AcDbArc
 50
90.0
 51
180.0
  0
ARC
  5
1DD2
330
1A
100
AcDbEntity
  8
1
100
AcDbCircle
 10
70.69286025144754
 20
50.94695730126904
 30
0.0
 40
2.0
100
AcDbArc
 50
0.0
 51
90.0
  0
ARC
  5
1DD3
330
1A
100
AcDbEntity
  8
1
100
AcDbCircle
 10
70.69286025144799
 20
36.94695730126813
 30
0.0
 40
2.0
100
AcDbArc
 50
270.0
 51
0.0
  0
ARC
  5
1DD4
330
1A
100
AcDbEntity
  8
1
100
AcDbCircle
 10
39.69286025144754
 20
36.94695730126813
 30
0.0
 40
2.0
100
AcDbArc
 50
180.0
 51
270.0
  0
LINE
  5
1DD5
330
1A
100
AcDbEntity
  8
1
100
AcDbLine
 10
72.69286025144663
 20
97.73981392823742
 30
0.0
 11
72.69286025144663
 21
103.939813928239
 31
0.0
  0
LINE
  5
1DD6
330
1A
100
AcDbEntity
  8
1
100
AcDbLine
 10
37.69286025144754
 20
97.73981392823925
 30
0.0
 11
37.69286025144708
 21
103.939813928239
 31
0.0
  0
LINE
  5
1DD7
330
1A
100
AcDbEntity
  8
1
100
AcDbLine
 10
72.39286025144645
 20
97.43981392823725
 30
0.0
 11
37.99286025144727
 21
97.43981392823906
 31
0.0
  0
LINE
  5
1DD8
330
1A
100
AcDbEntity
  8
1
100
AcDbLine
 10
72.69286025144663
 20
103.9398139282381
 30
0.0
 11
37.69286025144708
 21
103.9398139282381
 31
0.0
  0
ARC
  5
1DD9
330
1A
100
AcDbEntity
  8
1
100
AcDbCircle
 10
72.39286025144645
 20
97.73981392823742
 30
0.0
 40
0.3
100
AcDbArc
 50
270.0
 51
0.0
  0
ARC
  5
1DDA
330
1A
100
AcDbEntity
  8
1
100
AcDbCircle
 10
37.99286025144727
 20
97.73981392823925
 30
0.0
 40
0.3
100
AcDbArc
 50
180.0
 51
270.0
  0
LINE
  5
1DDF
330
1A
100
AcDbEntity
  8
1
100
AcDbLine
 10
164.1928602514479
 20
54.94695730126813
 30
0.0
 11
164.1928602514479
 21
32.94695730126813
 31
0.0
  0
LINE
  5
1DE0
330
1A
100
AcDbEntity
  8
1
100
AcDbLine
 10
164.1928602514479
 20
54.94695730126813
 30
0.0
 11
139.1928602514479
 21
54.94695730126813
 31
0.0
  0
LINE
  5
1DE1
330
1A
100
AcDbEntity
  8
1
100
AcDbLine
 10
164.1928602514479
 20
32.94695730126813
 30
0.0
 11
139.1928602514479
 21
32.94695730126813
 31
0.0
  0
ARC
  5
1DE2
330
1A
100
AcDbEntity
  8
1
100
AcDbCircle
 10
133.9250333750218
 20
63.44695730126812
 30
0.0
 40
10.0
100
AcDbArc
 50
270.0
 51
301.7883306170332
  0
ARC
  5
1DE3
330
1A
100
AcDbEntity
  8
1
100
AcDbCircle
 10
133.9250333750218
 20
24.44695730126813
 30
0.0
 40
10.0
100
AcDbArc
 50
58.21166938296673
 51
90.0
  0
ARC
  5
1DE4
330
1A
100
AcDbEntity
  8
1
100
AcDbCircle
 10
119.1928602514479
 20
44.94695730126813
 30
0.0
 40
6.0
100
AcDbArc
 50
0.0
 51
150.0000000000015
  0
ARC
  5
1DE5
330
1A
100
AcDbEntity
  8
1
100
AcDbCircle
 10
119.1928602514479
 20
42.94695730126813
 30
0.0
 40
6.0
100
AcDbArc
 50
209.9999999999984
 51
0.0
  0
LINE
  5
1DE6
330
1A
100
AcDbEntity
  8
1
100
AcDbLine
 10
125.192860251448
 20
44.94695730126813
 30
0.0
 11
125.192860251448
 21
42.94695730126813
 31
0.0
  0
LINE
  5
1DE7
330
1A
100
AcDbEntity
  8
1
100
AcDbLine
 10
164.1928602514479
 20
103.9398139282381
 30
0.0
 11
34.19286025144799
 21
103.9398139282381
 31
0.0
  0
LINE
  5
1DE8
330
1A
100
AcDbEntity
  8
1
100
AcDbLine
 10
133.9250333750218
 20
53.44695730126812
 30
0.0
 11
64.46068712787416
 21
53.44695730126812
 31
0.0
  0
LINE
  5
1DE9
330
1A
100
AcDbEntity
  8
1
100
AcDbLine
 10
133.9250333750218
 20
34.44695730126813
 30
0.0
 11
64.46068712787416
 21
34.44695730126813
 31
0.0
  0
LINE
  5
1DEA
330
1A
100
AcDbEntity
  8
1
100
AcDbLine
 10
113.9967078287417
 20
47.94695730126903
 30
0.0
 11
84.38901267415564
 21
47.94695730126903
 31
0.0
  0
LINE
  5
1DEB
330
1A
100
AcDbEntity
  8
1
100
AcDbLine
 10
113.9967078287408
 20
39.94695730126903
 30
0.0
 11
84.38901267415383
 21
39.94695730126995
 31
0.0
  0
LINE
  5
1DEC
330
1A
100
AcDbEntity
  8
1
100
AcDbLine
 10
164.1928602514479
 20
133.9398139282381
 30
0.0
 11
164.1928602514479
 21
103.9398139282381
 31
0.0
  0
LINE
  5
1DED
330
1A
100
AcDbEntity
  8
1
100
AcDbLine
 10
34.19286025144799
 20
103.9398139282381
 30
0.0
 11
34.19286025144799
 21
133.9398139282381
 31
0.0
  0
LINE
  5
1DEE
330
1A
100
AcDbEntity
  8
1
100
AcDbLine
 10
139.1928602514479
 20
133.9398139282381
 30
0.0
 11
139.1928602514479
 21
103.9398139282381
 31
0.0
  0
LINE
  5
1DEF
330
1A
100
AcDbEntity
  8
1
100
AcDbLine
 10
59.19286025144799
 20
103.9398139282381
 30
0.0
 11
59.19286025144799
 21
133.9398139282381
 31
0.0
  0
LINE
  5
1DF0
330
1A
100
AcDbEntity
  8
1
100
AcDbLine
 10
34.19286025144799
 20
103.9398139282381
 30
0.0
 11
34.19286025144799
 21
133.9398139282381
 31
0.0
  0
LINE
  5
2013
330
1A
100
AcDbEntity
  8
1
100
AcDbLine
 10
34.19286025144799
 20
39.30698409285895
 30
0.0
 11
24.19286025144799
 21
39.30698409285895
 31
0.0
  0
LINE
  5
2014
330
1A
100
AcDbEntity
  8
1
100
AcDbLine
 10
34.19286025144799
 20
35.80698409285895
 30
0.0
 11
24.19286025144799
 21
35.80698409285895
 31
0.0
  0
LINE
  5
2015
330
1A
100
AcDbEntity
  8
CENTER
 48
4.0
100
AcDbLine
 10
27.21487325864359
 20
118.9398139282381
 30
0.0
 11
170.0332170607412
 21
118.9398139282381
 31
0.0
  0
LINE
  5
219B
330
1A
100
AcDbEntity
  8
CENTER
100
AcDbLine
 10
42.44286025144799
 20
126.4398139282381
 30
0.0
 11
49.94286025144799
 21
126.4398139282381
 31
0.0
  0
LINE
  5
219C
330
1A
100
AcDbEntity
  8
CENTER
100
AcDbLine
 10
46.19286025144799
 20
122.6898139282381
 30
0.0
 11
46.19286025144799
 21
130.1898139282381
 31
0.0
  0
LINE
  5
219D
330
1A
100
AcDbEntity
  8
CENTER
100
AcDbLine
 10
42.44286025144799
 20
111.4398139282381
 30
0.0
 11
49.94286025144799
 21
111.4398139282381
 31
0.0
  0
LINE
  5
219E
330
1A
100
AcDbEntity
  8
CENTER
100
AcDbLine
 10
46.19286025144799
 20
107.6898139282381
 30
0.0
 11
46.19286025144799
 21
115.1898139282381
 31
0.0
  0
LINE
  5
219F
330
1A
100
AcDbEntity
  8
CENTER
100
AcDbLine
 10
148.4428602514479
 20
126.4398139282381
 30
0.0
 11
155.9428602514479
 21
126.4398139282381
 31
0.0
  0
LINE
  5
21A0
330
1A
100
AcDbEntity
  8
CENTER
100
AcDbLine
 10
152.192860251448
 20
122.6898139282381
 30
0.0
 11
152.192860251448
 21
130.1898139282381
 31
0.0
  0
LINE
  5
21A1
330
1A
100
AcDbEntity
  8
CENTER
100
AcDbLine
 10
148.4428602514479
 20
111.4398139282381
 30
0.0
 11
155.9428602514479
 21
111.4398139282381
 31
0.0
  0
LINE
  5
21A2
330
1A
100
AcDbEntity
  8
CENTER
100
AcDbLine
 10
152.192860251448
 20
107.6898139282381
 30
0.0
 11
152.192860251448
 21
115.1898139282381
 31
0.0
  0
VIEWPORT
  5
1403
330
1402
100
AcDbEntity
 67
     1
  8
0
100
AcDbViewport
 10
211.1125709216454
 20
139.7243151074444
 30
0.0
 40
520.6974082514514
 41
325.0132361569531
 68
     1
 69
     1
1001
ACAD
1000
MVIEW
1002
{
1070
    16
1010
0.0
1020
0.0
1030
0.0
1010
0.0
1020
0.0
1030
1.0
1040
0.0
1040
325.0132361569531
1040
211.1125709216454
1040
139.7243151074444
1040
50.0
1040
0.0
1040
0.0
1070
     0
1070
   100
1070
     1
1070
     0
1070
     0
1070
     0
1070
     0
1070
     0
1040
0.0
1040
0.0
1040
0.0
1040
1.0
1040
1.0
1040
10.0
1040
10.0
1070
     0
1002
{
1002
}
1002
}
  0
VIEWPORT
  5
1404
330
1402
100
AcDbEntity
 67
     1
  8
DEFPOINTS
100
AcDbViewport
 10
212.5
 20
144.4999999999999
 30
0.0
 40
385.0
 41
264.9999999999999
 68
     3
 69
     2
1001
ACAD
1000
MVIEW
1002
{
1070
    16
1010
0.0
1020
0.0
1030
0.0
1010
0.0
1020
0.0
1030
1.0
1040
0.0
1040
264.9999999999999
1040
5000.0
1040
5000.0
1040
50.0
1040
0.0
1040
0.0
1070
     0
1070
   100
1070
     1
1070
     0
1070
     0
1070
     0
1070
     0
1070
     1
1040
0.0
1040
0.0
1040
0.0
1040
168.0
1040
168.0
1040
0.0
1040
0.0
1070
     0
1002
{
1002
}
1002
}
  0
VIEWPORT
  5
1462
330
1402
100
AcDbEntity
 67
     1
  8
DEFPOINTS
100
AcDbViewport
 10
212.4999999999999
 20
144.4999999999999
 30
0.0
 40
384.9999999999998
 41
265.0
 68
     2
 69
     3
1001
ACAD
1000
MVIEW
1002
{
1070
    16
1010
0.0
1020
0.0
1030
0.0
1010
0.0
1020
0.0
1030
1.0
1040
0.0
1040
215.2989965031114
1040
120.6987180836561
1040
92.31834577678853
1040
50.0
1040
0.0
1040
0.0
1070
     0
1070
   100
1070
     1
1070
     0
1070
     0
1070
     0
1070
     0
1070
     1
1040
0.0
1040
0.0
1040
0.0
1040
168.0
1040
168.0
1040
0.0
1040
0.0
1070
     0
1002
{
1002
}
1002
}
  0
ENDSEC
  0
SECTION
  2
OBJECTS
  0
DICTIONARY
  5
C
330
0
100
AcDbDictionary
  3
ACAD_GROUP
350
D
  3
ACAD_LAYOUT
350
1384
  3
ACAD_MLINESTYLE
350
E
  3
ACAD_PLOTSETTINGS
350
1385
  3
ACAD_PLOTSTYLENAME
350
1382
  3
ACDBVARIABLEDICTIONARY
350
1044
  3
CONTENTDICTIONARY
350
234
  3
DWGPROPS
350
1A7A
  3
ACDBHEADERROUNDTRIPXREC
350
2206
  0
DICTIONARY
  5
1439
330
1A
100
AcDbDictionary
280
     1
  3
ACAD_LAYOUTSELFREF
360
2226
  0
DICTIONARY
  5
1415
330
1402
100
AcDbDictionary
280
     1
  3
ACAD_LAYOUTSELFREF
360
2227
  0
DICTIONARY
  5
D
102
{ACAD_REACTORS
330
C
102
}
330
C
100
AcDbDictionary
  3
*A1
350
36C
  3
*A2
350
377
  3
*A3
350
419
  3
*A4
350
41A
  3
*A5
350
621
  3
*A6
350
630
  3
*A7
350
682
  3
*A8
350
84A
  0
DICTIONARY
  5
1384
102
{ACAD_REACTORS
330
C
102
}
330
C
100
AcDbDictionary
  0
DICTIONARY
  5
E
102
{ACAD_REACTORS
330
C
102
}
330
C
100
AcDbDictionary
  3
STANDARD
350
13
  0
DICTIONARY
  5
1385
102
{ACAD_REACTORS
330
C
102
}
330
C
100
AcDbDictionary
  0
ACDBDICTIONARYWDFLT
  5
1382
102
{ACAD_REACTORS
330
C
102
}
330
C
100
AcDbDictionary
281
     1
  3
Normal
350
1383
100
AcDbDictionaryWithDefault
340
1383
  0
DICTIONARY
  5
1044
102
{ACAD_REACTORS
330
C
102
}
330
C
100
AcDbDictionary
  3
SORTENTS
350
1045
  0
DICTIONARY
  5
234
102
{ACAD_REACTORS
330
C
102
}
330
C
100
AcDbDictionary
  0
XRECORD
  5
1A7A
102
{ACAD_REACTORS
330
C
102
}
330
C
100
AcDbXrecord
  1
DWGPROPS COOKIE
  2

  3

  4

  6

  7

  8

  9

300
=
301
=
302
=
303
=
304
=
305
=
306
=
307
=
308
=
309
=
 40
0.2877436342592592
 41
2451430.616412153
 42
2451856.471218055
  1

 90
        0
  0
DICTIONARY
  5
2206
102
{ACAD_REACTORS
330
C
102
}
330
C
100
AcDbDictionary
  3
TSTACKALIGN
350
2207
  3
TSTACKSIZE
350
2208
  3
HYPERLINKBASE
350
2209
  3
STYLESHEET
350
220A
  3
LAYOUTDICT
350
220B
  3
PLOTSETDICT
350
220C
  3
PLOTSTYLNAMDICT
350
220D
  3
LWETCUNION
350
220E
  3
INSUNITS
350
220F
  3
CEPSNTYPE
350
2210
  3
FINGERPRINTGUID
350
2211
  3
VERSIONGUID
350
2212
  3
PSVPSCALE
350
2213
  3
PUCSORTHOREF
350
2214
  3
PUCSORTHOVIEW
350
2215
  3
PUCSBASE
350
2216
  3
PUCSORGTOP
350
2217
  3
PUCSORGBOTTOM
350
2218
  3
PUCSORGLEFT
350
2219
  3
PUCSORGRIGHT
350
221A
  3
PUCSORGFRONT
350
221B
  3
PUCSORGBACK
350
221C
  3
UCSORTHOREF
350
221D
  3
UCSORTHOVIEW
350
221E
  3
UCSBASE
350
221F
  3
UCSORGTOP
350
2220
  3
UCSORGBOTTOM
350
2221
  3
UCSORGLEFT
350
2222
  3
UCSORGRIGHT
350
2223
  3
UCSORGFRONT
350
2224
  3
UCSORGBACK
350
2225
  0
XRECORD
  5
2226
102
{ACAD_REACTORS
330
1439
102
}
330
1439
100
AcDbXrecord
340
1A
  0
XRECORD
  5
2227
102
{ACAD_REACTORS
330
1415
102
}
330
1415
100
AcDbXrecord
340
1402
  0
GROUP
  5
36C
102
{ACAD_REACTORS
330
D
102
}
330
D
100
AcDbGroup
300

 70
     1
 71
     1
  0
GROUP
  5
377
102
{ACAD_REACTORS
330
D
102
}
330
D
100
AcDbGroup
300

 70
     1
 71
     1
  0
GROUP
  5
419
102
{ACAD_REACTORS
330
D
102
}
330
D
100
AcDbGroup
300

 70
     1
 71
     1
  0
GROUP
  5
41A
102
{ACAD_REACTORS
330
D
102
}
330
D
100
AcDbGroup
300

 70
     1
 71
     1
  0
GROUP
  5
621
102
{ACAD_REACTORS
330
D
102
}
330
D
100
AcDbGroup
300

 70
     1
 71
     1
  0
GROUP
  5
630
102
{ACAD_REACTORS
330
D
102
}
330
D
100
AcDbGroup
300

 70
     1
 71
     1
  0
GROUP
  5
682
102
{ACAD_REACTORS
330
D
102
}
330
D
100
AcDbGroup
300

 70
     1
 71
     1
  0
GROUP
  5
84A
102
{ACAD_REACTORS
330
D
102
}
330
D
100
AcDbGroup
300

 70
     1
 71
     1
  0
MLINESTYLE
  5
13
102
{ACAD_REACTORS
330
E
102
}
330
E
100
AcDbMlineStyle
  2
STANDARD
 70
     0
  3

 62
     0
 51
90.0
 52
90.0
 71
     2
 49
0.5
 62
   256
  6
BYLAYER
 49
-0.5
 62
   256
  6
BYLAYER
  0
ACDBPLACEHOLDER
  5
1383
102
{ACAD_REACTORS
330
1382
102
}
330
1382
100
AcDbPlaceHolder
280
     0
  0
DICTIONARYVAR
  5
1045
102
{ACAD_REACTORS
330
1044
102
}
330
1044
100
DictionaryVariables
280
     0
  1
96
  0
XRECORD
  5
2207
102
{ACAD_REACTORS
330
2206
102
}
330
2206
100
AcDbXrecord
 90
        1
  0
XRECORD
  5
2208
102
{ACAD_REACTORS
330
2206
102
}
330
2206
100
AcDbXrecord
 90
       70
  0
XRECORD
  5
2209
102
{ACAD_REACTORS
330
2206
102
}
330
2206
100
AcDbXrecord
  1

  0
XRECORD
  5
220A
102
{ACAD_REACTORS
330
2206
102
}
330
2206
100
AcDbXrecord
  1

  0
XRECORD
  5
220B
102
{ACAD_REACTORS
330
2206
102
}
330
2206
100
AcDbXrecord
340
1384
  0
XRECORD
  5
220C
102
{ACAD_REACTORS
330
2206
102
}
330
2206
100
AcDbXrecord
340
1385
  0
XRECORD
  5
220D
102
{ACAD_REACTORS
330
2206
102
}
330
2206
100
AcDbXrecord
340
1382
  0
XRECORD
  5
220E
102
{ACAD_REACTORS
330
2206
102
}
330
2206
100
AcDbXrecord
 90
    14877
  0
XRECORD
  5
220F
102
{ACAD_REACTORS
330
2206
102
}
330
2206
100
AcDbXrecord
 90
        0
  0
XRECORD
  5
2210
102
{ACAD_REACTORS
330
2206
102
}
330
2206
100
AcDbXrecord
 90
        0
  0
XRECORD
  5
2211
102
{ACAD_REACTORS
330
2206
102
}
330
2206
100
AcDbXrecord
  1
{4530CFE0-B0D0-11D4-A139-00E02922560C}
  0
XRECORD
  5
2212
102
{ACAD_REACTORS
330
2206
102
}
330
2206
100
AcDbXrecord
  1
{9FAAA1AC-E78D-4F29-9BBF-4D9FB52D7276}
  0
XRECORD
  5
2213
102
{ACAD_REACTORS
330
2206
102
}
330
2206
100
AcDbXrecord
 40
0.0
  0
XRECORD
  5
2214
102
{ACAD_REACTORS
330
2206
102
}
330
2206
100
AcDbXrecord
340
0
  0
XRECORD
  5
2215
102
{ACAD_REACTORS
330
2206
102
}
330
2206
100
AcDbXrecord
 70
     0
  0
XRECORD
  5
2216
102
{ACAD_REACTORS
330
2206
102
}
330
2206
100
AcDbXrecord
340
0
  0
XRECORD
  5
2217
102
{ACAD_REACTORS
330
2206
102
}
330
2206
100
AcDbXrecord
 10
0.0
 20
0.0
 30
0.0
  0
XRECORD
  5
2218
102
{ACAD_REACTORS
330
2206
102
}
330
2206
100
AcDbXrecord
 10
0.0
 20
0.0
 30
0.0
  0
XRECORD
  5
2219
102
{ACAD_REACTORS
330
2206
102
}
330
2206
100
AcDbXrecord
 10
0.0
 20
0.0
 30
0.0
  0
XRECORD
  5
221A
102
{ACAD_REACTORS
330
2206
102
}
330
2206
100
AcDbXrecord
 10
0.0
 20
0.0
 30
0.0
  0
XRECORD
  5
221B
102
{ACAD_REACTORS
330
2206
102
}
330
2206
100
AcDbXrecord
 10
0.0
 20
0.0
 30
0.0
  0
XRECORD
  5
221C
102
{ACAD_REACTORS
330
2206
102
}
330
2206
100
AcDbXrecord
 10
0.0
 20
0.0
 30
0.0
  0
XRECORD
  5
221D
102
{ACAD_REACTORS
330
2206
102
}
330
2206
100
AcDbXrecord
340
0
  0
XRECORD
  5
221E
102
{ACAD_REACTORS
330
2206
102
}
330
2206
100
AcDbXrecord
 70
     0
  0
XRECORD
  5
221F
102
{ACAD_REACTORS
330
2206
102
}
330
2206
100
AcDbXrecord
340
0
  0
XRECORD
  5
2220
102
{ACAD_REACTORS
330
2206
102
}
330
2206
100
AcDbXrecord
 10
0.0
 20
0.0
 30
0.0
  0
XRECORD
  5
2221
102
{ACAD_REACTORS
330
2206
102
}
330
2206
100
AcDbXrecord
 10
0.0
 20
0.0
 30
0.0
  0
XRECORD
  5
2222
102
{ACAD_REACTORS
330
2206
102
}
330
2206
100
AcDbXrecord
 10
0.0
 20
0.0
 30
0.0
  0
XRECORD
  5
2223
102
{ACAD_REACTORS
330
2206
102
}
330
2206
100
AcDbXrecord
 10
0.0
 20
0.0
 30
0.0
  0
XRECORD
  5
2224
102
{ACAD_REACTORS
330
2206
102
}
330
2206
100
AcDbXrecord
 10
0.0
 20
0.0
 30
0.0
  0
XRECORD
  5
2225
102
{ACAD_REACTORS
330
2206
102
}
330
2206
100
AcDbXrecord
 10
0.0
 20
0.0
 30
0.0
  0
ENDSEC
  0
EOF
