  0
SECTION
  2
HEADER
  9
$ACADVER
  1
AC1014
  9
$ACADMAINTVER
 70
     9
  9
$DWGCODEPAGE
  3
ANSI_932
  9
$INSBASE
 10
0.0
 20
0.0
 30
0.0
  9
$EXTMIN
 10
22.55807316741083
 20
24.41311194338322
 30
-0.00000001
  9
$EXTMAX
 10
223.0419130315995
 20
309.0576937768855
 30
0.00000001
  9
$LIMMIN
 10
0.0
 20
0.0
  9
$LIMMAX
 10
10000.0
 20
10000.0
  9
$ORTHOMODE
 70
     1
  9
$REGENMODE
 70
     1
  9
$FILLMODE
 70
     1
  9
$QTEXTMODE
 70
     0
  9
$MIRRTEXT
 70
     1
  9
$DRAGMODE
 70
     2
  9
$LTSCALE
 40
5.0
  9
$OSMODE
 70
    32
  9
$ATTMODE
 70
     1
  9
$TEXTSIZE
 40
3.5
  9
$TRACEWID
 40
1.0
  9
$TEXTSTYLE
  7
AD-STANDARD
  9
$CLAYER
  8
1
  9
$CELTYPE
  6
BYLAYER
  9
$CECOLOR
 62
   256
  9
$CELTSCALE
 40
1.0
  9
$DELOBJ
 70
     1
  9
$DISPSILH
 70
     0
  9
$DIMSCALE
 40
1.0
  9
$DIMASZ
 40
0.18
  9
$DIMEXO
 40
0.0625
  9
$DIMDLI
 40
0.38
  9
$DIMRND
 40
0.0
  9
$DIMDLE
 40
0.0
  9
$DIMEXE
 40
0.18
  9
$DIMTP
 40
0.0
  9
$DIMTM
 40
0.0
  9
$DIMTXT
 40
0.18
  9
$DIMCEN
 40
0.09
  9
$DIMTSZ
 40
0.0
  9
$DIMTOL
 70
     0
  9
$DIMLIM
 70
     0
  9
$DIMTIH
 70
     1
  9
$DIMTOH
 70
     1
  9
$DIMSE1
 70
     0
  9
$DIMSE2
 70
     0
  9
$DIMTAD
 70
     0
  9
$DIMZIN
 70
     0
  9
$DIMBLK
  1

  9
$DIMASO
 70
     1
  9
$DIMSHO
 70
     1
  9
$DIMPOST
  1

  9
$DIMAPOST
  1

  9
$DIMALT
 70
     0
  9
$DIMALTD
 70
     2
  9
$DIMALTF
 40
25.4
  9
$DIMLFAC
 40
1.0
  9
$DIMTOFL
 70
     0
  9
$DIMTVP
 40
0.0
  9
$DIMTIX
 70
     0
  9
$DIMSOXD
 70
     0
  9
$DIMSAH
 70
     0
  9
$DIMBLK1
  1

  9
$DIMBLK2
  1

  9
$DIMSTYLE
  2
STANDARD
  9
$DIMCLRD
 70
     0
  9
$DIMCLRE
 70
     0
  9
$DIMCLRT
 70
     0
  9
$DIMTFAC
 40
1.0
  9
$DIMGAP
 40
0.09
  9
$DIMJUST
 70
     0
  9
$DIMSD1
 70
     0
  9
$DIMSD2
 70
     0
  9
$DIMTOLJ
 70
     1
  9
$DIMTZIN
 70
     0
  9
$DIMALTZ
 70
     0
  9
$DIMALTTZ
 70
     0
  9
$DIMFIT
 70
     3
  9
$DIMUPT
 70
     0
  9
$DIMUNIT
 70
     2
  9
$DIMDEC
 70
     4
  9
$DIMTDEC
 70
     4
  9
$DIMALTU
 70
     2
  9
$DIMALTTD
 70
     2
  9
$DIMTXSTY
  7
STANDARD
  9
$DIMAUNIT
 70
     0
  9
$LUNITS
 70
     2
  9
$LUPREC
 70
     4
  9
$SKETCHINC
 40
1.0
  9
$FILLETRAD
 40
1.5
  9
$AUNITS
 70
     0
  9
$AUPREC
 70
     0
  9
$MENU
  1
.
  9
$ELEVATION
 40
0.0
  9
$PELEVATION
 40
0.0
  9
$THICKNESS
 40
0.0
  9
$LIMCHECK
 70
     0
  9
$BLIPMODE
 70
     0
  9
$CHAMFERA
 40
0.5
  9
$CHAMFERB
 40
0.5
  9
$CHAMFERC
 40
673.4006734006733
  9
$CHAMFERD
 40
0.0
  9
$SKPOLY
 70
     0
  9
$TDCREATE
 40
2451428.386184838
  9
$TDUPDATE
 40
2453991.804826689
  9
$TDINDWG
 40
1.5125939931
  9
$TDUSRTIMER
 40
1.5125939931
  9
$USRTIMER
 70
     1
  9
$ANGBASE
 50
0.0
  9
$ANGDIR
 70
     0
  9
$PDMODE
 70
     0
  9
$PDSIZE
 40
0.0
  9
$PLINEWID
 40
0.0
  9
$COORDS
 70
     1
  9
$SPLFRAME
 70
     0
  9
$SPLINETYPE
 70
     6
  9
$SPLINESEGS
 70
     8
  9
$ATTDIA
 70
     0
  9
$ATTREQ
 70
     1
  9
$HANDLING
 70
 10241
  9
$HANDSEED
  5
2CA6
  9
$SURFTAB1
 70
     6
  9
$SURFTAB2
 70
     6
  9
$SURFTYPE
 70
     6
  9
$SURFU
 70
     6
  9
$SURFV
 70
     6
  9
$UCSNAME
  2

  9
$UCSORG
 10
0.0
 20
0.0
 30
0.0
  9
$UCSXDIR
 10
1.0
 20
0.0
 30
0.0
  9
$UCSYDIR
 10
0.0
 20
1.0
 30
0.0
  9
$PUCSNAME
  2

  9
$PUCSORG
 10
0.0
 20
0.0
 30
0.0
  9
$PUCSXDIR
 10
1.0
 20
0.0
 30
0.0
  9
$PUCSYDIR
 10
0.0
 20
1.0
 30
0.0
  9
$USERI1
 70
     0
  9
$USERI2
 70
     0
  9
$USERI3
 70
     0
  9
$USERI4
 70
     0
  9
$USERI5
 70
     0
  9
$USERR1
 40
0.0
  9
$USERR2
 40
0.0
  9
$USERR3
 40
0.0
  9
$USERR4
 40
0.0
  9
$USERR5
 40
0.0
  9
$WORLDVIEW
 70
     1
  9
$SHADEDGE
 70
     3
  9
$SHADEDIF
 70
    70
  9
$TILEMODE
 70
     1
  9
$MAXACTVP
 70
    16
  9
$PINSBASE
 10
0.0
 20
0.0
 30
0.0
  9
$PLIMCHECK
 70
     0
  9
$PEXTMIN
 10
20.0
 20
17.0
 30
0.0
  9
$PEXTMAX
 10
405.0
 20
281.9999999999999
 30
0.0
  9
$PLIMMIN
 10
15.55969551882102
 20
4.656297548292683
  9
$PLIMMAX
 10
414.2933966180392
 20
286.4296302300153
  9
$UNITMODE
 70
     0
  9
$VISRETAIN
 70
     0
  9
$PLINEGEN
 70
     0
  9
$PSLTSCALE
 70
     0
  9
$TREEDEPTH
 70
  3020
  9
$PICKSTYLE
 70
     1
  9
$CMLSTYLE
  2
STANDARD
  9
$CMLJUST
 70
     0
  9
$CMLSCALE
 40
1.0
  9
$PROXYGRAPHICS
 70
     1
  9
$MEASUREMENT
 70
     1
  0
ENDSEC
  0
SECTION
  2
CLASSES
  0
CLASS
  1
LWPOLYLINE
  2
AcDbPolyline
  3
AutoCAD 2000
 90
        0
280
     0
281
     1
  0
CLASS
  1
OLE2FRAME
  2
AcDbOle2Frame
  3
AutoCAD 2000
 90
        0
280
     0
281
     1
  0
CLASS
  1
ACDBDICTIONARYWDFLT
  2
AcDbDictionaryWithDefault
  3
AutoCAD 2000
 90
        0
280
     0
281
     0
  0
CLASS
  1
ACDBPLACEHOLDER
  2
AcDbPlaceHolder
  3
AutoCAD 2000
 90
        0
280
     0
281
     0
  0
CLASS
  1
LAYOUT
  2
AcDbLayout
  3
AutoCAD 2000
 90
        0
280
     0
281
     0
  0
CLASS
  1
LONG_TRANSACTION
  2
AcDbLongTransaction
  3
AutoCAD 2000
 90
        0
280
     0
281
     0
  0
CLASS
  1
LWPOLYLINE
  2
AcDbPolyline
  3
AutoCAD 2000
 90
        0
280
     0
281
     1
  0
CLASS
  1
HATCH
  2
AcDbHatch
  3
AutoCAD 2000
 90
        0
280
     0
281
     1
  0
CLASS
  1
XRECORD
  2
AcDbXrecord
  3
AutoCAD 2000
 90
        0
280
     0
281
     0
  0
CLASS
  1
PLOTSETTINGS
  2
AcDbPlotSettings
  3
AutoCAD 2000
 90
        0
280
     0
281
     0
  0
CLASS
  1
LONG_TRANSACTION
  2
AcDbLongTransaction
  3
AutoCAD 2000
 90
        0
280
     0
281
     0
  0
CLASS
  1
LWPOLYLINE
  2
AcDbPolyline
  3
AutoCAD 2000
 90
        0
280
     0
281
     1
  0
CLASS
  1
HATCH
  2
AcDbHatch
  3
AutoCAD 2000
 90
        0
280
     0
281
     1
  0
CLASS
  1
XRECORD
  2
AcDbXrecord
  3
AutoCAD 2000
 90
        0
280
     0
281
     0
  0
CLASS
  1
LONG_TRANSACTION
  2
AcDbLongTransaction
  3
AutoCAD 2000
 90
        0
280
     0
281
     0
  0
CLASS
  1
LWPOLYLINE
  2
AcDbPolyline
  3
AutoCAD 2000
 90
        0
280
     0
281
     1
  0
CLASS
  1
HATCH
  2
AcDbHatch
  3
AutoCAD 2000
 90
        0
280
     0
281
     1
  0
CLASS
  1
XRECORD
  2
AcDbXrecord
  3
AutoCAD 2000
 90
        0
280
     0
281
     0
  0
CLASS
  1
LONG_TRANSACTION
  2
AcDbLongTransaction
  3
AutoCAD 2000
 90
        0
280
     0
281
     0
  0
CLASS
  1
LWPOLYLINE
  2
AcDbPolyline
  3
AutoCAD 2000
 90
        0
280
     0
281
     1
  0
CLASS
  1
HATCH
  2
AcDbHatch
  3
AutoCAD 2000
 90
        0
280
     0
281
     1
  0
CLASS
  1
XRECORD
  2
AcDbXrecord
  3
AutoCAD 2000
 90
        0
280
     0
281
     0
  0
CLASS
  1
LONG_TRANSACTION
  2
AcDbLongTransaction
  3
AutoCAD 2000
 90
        0
280
     0
281
     0
  0
CLASS
  1
LWPOLYLINE
  2
AcDbPolyline
  3
AutoCAD 2000
 90
        0
280
     0
281
     1
  0
CLASS
  1
HATCH
  2
AcDbHatch
  3
AutoCAD 2000
 90
        0
280
     0
281
     1
  0
CLASS
  1
XRECORD
  2
AcDbXrecord
  3
AutoCAD 2000
 90
        0
280
     0
281
     0
  0
CLASS
  1
DICTIONARYVAR
  2
AcDbDictionaryVar
  3
AutoCAD 2000
 90
        0
280
     0
281
     0
  0
CLASS
  1
LONG_TRANSACTION
  2
AcDbLongTransaction
  3
AutoCAD 2000
 90
        0
280
     0
281
     0
  0
CLASS
  1
LWPOLYLINE
  2
AcDbPolyline
  3
AutoCAD 2000
 90
        0
280
     0
281
     1
  0
CLASS
  1
HATCH
  2
AcDbHatch
  3
AutoCAD 2000
 90
        0
280
     0
281
     1
  0
CLASS
  1
XRECORD
  2
AcDbXrecord
  3
AutoCAD 2000
 90
        0
280
     0
281
     0
  0
CLASS
  1
LONG_TRANSACTION
  2
AcDbLongTransaction
  3
AutoCAD 2000
 90
        0
280
     0
281
     0
  0
CLASS
  1
LWPOLYLINE
  2
AcDbPolyline
  3
AutoCAD 2000
 90
        0
280
     0
281
     1
  0
CLASS
  1
HATCH
  2
AcDbHatch
  3
AutoCAD 2000
 90
        0
280
     0
281
     1
  0
CLASS
  1
XRECORD
  2
AcDbXrecord
  3
AutoCAD 2000
 90
        0
280
     0
281
     0
  0
CLASS
  1
LONG_TRANSACTION
  2
AcDbLongTransaction
  3
AutoCAD 2000
 90
        0
280
     0
281
     0
  0
CLASS
  1
LWPOLYLINE
  2
AcDbPolyline
  3
AutoCAD 2000
 90
        0
280
     0
281
     1
  0
CLASS
  1
HATCH
  2
AcDbHatch
  3
AutoCAD 2000
 90
        0
280
     0
281
     1
  0
CLASS
  1
XRECORD
  2
AcDbXrecord
  3
AutoCAD 2000
 90
        0
280
     0
281
     0
  0
CLASS
  1
LONG_TRANSACTION
  2
AcDbLongTransaction
  3
AutoCAD 2000
 90
        0
280
     0
281
     0
  0
CLASS
  1
LWPOLYLINE
  2
AcDbPolyline
  3
AutoCAD 2000
 90
        0
280
     0
281
     1
  0
CLASS
  1
HATCH
  2
AcDbHatch
  3
AutoCAD 2000
 90
        0
280
     0
281
     1
  0
CLASS
  1
XRECORD
  2
AcDbXrecord
  3
AutoCAD 2000
 90
        0
280
     0
281
     0
  0
CLASS
  1
LONG_TRANSACTION
  2
AcDbLongTransaction
  3
AutoCAD 2000
 90
        0
280
     0
281
     0
  0
CLASS
  1
LWPOLYLINE
  2
AcDbPolyline
  3
AutoCAD 2000
 90
        0
280
     0
281
     1
  0
CLASS
  1
HATCH
  2
AcDbHatch
  3
AutoCAD 2000
 90
        0
280
     0
281
     1
  0
CLASS
  1
XRECORD
  2
AcDbXrecord
  3
AutoCAD 2000
 90
        0
280
     0
281
     0
  0
CLASS
  1
LONG_TRANSACTION
  2
AcDbLongTransaction
  3
AutoCAD 2000
 90
        0
280
     0
281
     0
  0
CLASS
  1
LWPOLYLINE
  2
AcDbPolyline
  3
AutoCAD 2000
 90
        0
280
     0
281
     1
  0
CLASS
  1
HATCH
  2
AcDbHatch
  3
AutoCAD 2000
 90
        0
280
     0
281
     1
  0
CLASS
  1
XRECORD
  2
AcDbXrecord
  3
AutoCAD 2000
 90
        0
280
     0
281
     0
  0
CLASS
  1
LONG_TRANSACTION
  2
AcDbLongTransaction
  3
AutoCAD 2000
 90
        0
280
     0
281
     0
  0
CLASS
  1
LWPOLYLINE
  2
AcDbPolyline
  3
AutoCAD 2000
 90
        0
280
     0
281
     1
  0
CLASS
  1
HATCH
  2
AcDbHatch
  3
AutoCAD 2000
 90
        0
280
     0
281
     1
  0
CLASS
  1
XRECORD
  2
AcDbXrecord
  3
AutoCAD 2000
 90
        0
280
     0
281
     0
  0
ENDSEC
  0
SECTION
  2
TABLES
  0
TABLE
  2
VPORT
  5
8
330
0
100
AcDbSymbolTable
 70
     6
  0
VPORT
  5
2C83
330
8
100
AcDbSymbolTableRecord
100
AcDbViewportTableRecord
  2
*ACTIVE
 70
     0
 10
0.0
 20
0.0
 11
1.0
 21
1.0
 12
129.6283500887772
 22
185.9102196669137
 13
0.0
 23
0.0
 14
168.0
 24
168.0
 15
0.0
 25
0.0
 16
0.0
 26
0.0
 36
1.0
 17
0.0
 27
0.0
 37
0.0
 40
505.5005256543445
 41
1.602080624187256
 42
50.0
 43
0.0
 44
0.0
 50
0.0
 51
0.0
 71
     0
 72
   100
 73
     1
 74
     0
 75
     0
 76
     0
 77
     0
 78
     1
  0
ENDTAB
  0
TABLE
  2
LTYPE
  5
5
330
0
100
AcDbSymbolTable
 70
     4
  0
LTYPE
  5
14
330
5
100
AcDbSymbolTableRecord
100
AcDbLinetypeTableRecord
  2
BYBLOCK
 70
     0
  3

 72
    65
 73
     0
 40
0.0
  0
LTYPE
  5
15
330
5
100
AcDbSymbolTableRecord
100
AcDbLinetypeTableRecord
  2
BYLAYER
 70
     0
  3

 72
    65
 73
     0
 40
0.0
  0
LTYPE
  5
16
330
5
100
AcDbSymbolTableRecord
100
AcDbLinetypeTableRecord
  2
CONTINUOUS
 70
     0
  3
Solid line
 72
    65
 73
     0
 40
0.0
  0
LTYPE
  5
6E
330
5
100
AcDbSymbolTableRecord
100
AcDbLinetypeTableRecord
  2
CENTER
 70
     0
  3
____ _ ____ _ ____ _ ____ _ ____ _ ____ _ ____ 
 72
    65
 73
     4
 40
2.0
 49
1.25
 74
     0
 49
-0.25
 74
     0
 49
0.25
 74
     0
 49
-0.25
 74
     0
  0
LTYPE
  5
6F
330
5
100
AcDbSymbolTableRecord
100
AcDbLinetypeTableRecord
  2
HIDDEN
 70
     0
  3
__ __ __ __ __ __ __ __ __ __ __ __ __ __ __ __
 72
    65
 73
     2
 40
0.375
 49
0.25
 74
     0
 49
-0.125
 74
     0
  0
ENDTAB
  0
TABLE
  2
LAYER
  5
2
330
0
100
AcDbSymbolTable
 70
    10
  0
LAYER
  5
F
330
2
100
AcDbSymbolTableRecord
100
AcDbLayerTableRecord
  2
0
 70
     0
 62
     7
  6
CONTINUOUS
  0
LAYER
  5
72
330
2
100
AcDbSymbolTableRecord
100
AcDbLayerTableRecord
  2
DEFPOINTS
 70
     0
 62
     7
  6
CONTINUOUS
  0
LAYER
  5
74
330
2
100
AcDbSymbolTableRecord
100
AcDbLayerTableRecord
  2
CENTER
 70
     0
 62
     9
  6
CENTER
  0
LAYER
  5
1803
330
2
100
AcDbSymbolTableRecord
100
AcDbLayerTableRecord
  2
1
 70
     0
 62
     7
  6
CONTINUOUS
  0
ENDTAB
  0
TABLE
  2
STYLE
  5
3
330
0
100
AcDbSymbolTable
 70
     5
  0
STYLE
  5
10
330
3
100
AcDbSymbolTableRecord
100
AcDbTextStyleTableRecord
  2
STANDARD
 70
     0
 40
0.0
 41
0.8
 50
0.0
 71
     0
 42
84.17508417508416
  3
TXT
  4
bigfont.shx
  0
STYLE
  5
63
330
3
100
AcDbSymbolTableRecord
100
AcDbTextStyleTableRecord
  2
AD-STANDARD
 70
     0
 40
0.0
 41
0.8
 50
0.0
 71
     0
 42
3.5
  3
C:\Program Files\AutoCAD LT\romans.shx
  4
bigfont.shx
  0
ENDTAB
  0
TABLE
  2
VIEW
  5
6
330
0
100
AcDbSymbolTable
 70
     0
  0
ENDTAB
  0
TABLE
  2
UCS
  5
7
330
0
100
AcDbSymbolTable
 70
     0
  0
ENDTAB
  0
TABLE
  2
APPID
  5
9
330
0
100
AcDbSymbolTable
 70
     5
  0
APPID
  5
11
330
9
100
AcDbSymbolTableRecord
100
AcDbRegAppTableRecord
  2
ACAD
 70
     0
  0
APPID
  5
22A
330
9
100
AcDbSymbolTableRecord
100
AcDbRegAppTableRecord
  2
CONTENTTABDATA
 70
     0
  0
APPID
  5
22B
330
9
100
AcDbSymbolTableRecord
100
AcDbRegAppTableRecord
  2
CONTENTCURRENTTAB
 70
     0
  0
APPID
  5
232
330
9
100
AcDbSymbolTableRecord
100
AcDbRegAppTableRecord
  2
CONTENTBLOCKDESCRIPTION
 70
     0
  0
APPID
  5
233
330
9
100
AcDbSymbolTableRecord
100
AcDbRegAppTableRecord
  2
CONTENTBLOCKICON
 70
     0
  0
ENDTAB
  0
TABLE
  2
DIMSTYLE
  5
A
330
0
100
AcDbSymbolTable
 70
     8
  0
DIMSTYLE
105
1D
330
A
100
AcDbSymbolTableRecord
100
AcDbDimStyleTableRecord
  2
STANDARD
 70
     0
  3

  4

  5

  6

  7

 40
1.0
 41
0.18
 42
0.0625
 43
0.38
 44
0.18
 45
0.0
 46
0.0
 47
0.0
 48
0.0
140
0.18
141
0.09
142
0.0
143
25.4
144
1.0
145
0.0
146
1.0
147
0.09
 71
     0
 72
     0
 73
     1
 74
     1
 75
     0
 76
     0
 77
     0
 78
     0
170
     0
171
     2
172
     0
173
     0
174
     0
175
     0
176
     0
177
     0
178
     0
270
     2
271
     4
272
     4
273
     2
274
     2
340
10
275
     0
280
     0
281
     0
282
     0
283
     1
284
     0
285
     0
286
     0
287
     3
288
     0
  0
ENDTAB
  0
TABLE
  2
BLOCK_RECORD
  5
1
330
0
100
AcDbSymbolTable
 70
    30
  0
BLOCK_RECORD
  5
1A
102
{ACAD_XDICTIONARY
360
1E6D
102
}
330
1
100
AcDbSymbolTableRecord
100
AcDbBlockTableRecord
  2
*MODEL_SPACE
  0
BLOCK_RECORD
  5
17
102
{ACAD_XDICTIONARY
360
1E6B
102
}
330
1
100
AcDbSymbolTableRecord
100
AcDbBlockTableRecord
  2
*PAPER_SPACE
  0
ENDTAB
  0
ENDSEC
  0
SECTION
  2
BLOCKS
  0
BLOCK
  5
1B
330
1A
100
AcDbEntity
  8
0
100
AcDbBlockBegin
  2
*MODEL_SPACE
 70
     0
 10
0.0
 20
0.0
 30
0.0
  3
*MODEL_SPACE
  1

  0
ENDBLK
  5
1C
330
1A
100
AcDbEntity
  8
0
100
AcDbBlockEnd
  0
BLOCK
  5
18
330
17
100
AcDbEntity
 67
     1
  8
0
100
AcDbBlockBegin
  2
*PAPER_SPACE
 70
     0
 10
0.0
 20
0.0
 30
0.0
  3
*PAPER_SPACE
  1

  0
ENDBLK
  5
19
330
17
100
AcDbEntity
 67
     1
  8
0
100
AcDbBlockEnd
  0
ENDSEC
  0
SECTION
  2
ENTITIES
  0
LINE
  5
19D2
330
1A
100
AcDbEntity
  8
CENTER
 48
1.5
100
AcDbLine
 10
223.0419130315995
 20
289.0576937768846
 30
0.0
 11
22.55807316741083
 21
289.0576937769228
 31
0.0
  0
LINE
  5
19D5
330
1A
100
AcDbEntity
  8
1
100
AcDbLine
 10
101.281385912187
 20
194.6817245569164
 30
0.0
 11
108.281385912187
 21
194.6817245569164
 31
0.0
  0
LINE
  5
19D6
330
1A
100
AcDbEntity
  8
1
100
AcDbLine
 10
101.8010011544574
 20
194.9817245569165
 30
0.0
 11
107.7617706699165
 21
194.9817245569165
 31
0.0
  0
LINE
  5
19D7
330
1A
100
AcDbEntity
  8
1
100
AcDbLine
 10
102.781385912187
 20
190.9817245569165
 30
0.0
 11
101.281385912187
 21
190.9817245569165
 31
0.0
  0
LINE
  5
19D8
330
1A
100
AcDbEntity
  8
CENTER
 48
1.5
100
AcDbLine
 10
223.0419130315995
 20
44.41311194338232
 30
0.0
 11
22.55807316741083
 21
44.4131119434196
 31
0.0
  0
LINE
  5
19DA
330
1A
100
AcDbEntity
  8
1
100
AcDbLine
 10
100.7813859121888
 20
165.3817245569171
 30
0.0
 11
139.7813859121879
 21
165.3817245569171
 31
0.0
  0
LINE
  5
19DB
330
1A
100
AcDbEntity
  8
1
100
AcDbLine
 10
139.7813859121879
 20
165.4817245569165
 30
0.0
 11
100.7813859121879
 21
165.4817245569165
 31
0.0
  0
LINE
  5
19DC
330
1A
100
AcDbEntity
  8
1
100
AcDbLine
 10
73.78138591218794
 20
270.5576937768846
 30
0.0
 11
109.7813859121897
 21
270.5576937768846
 31
0.0
  0
LINE
  5
19DD
330
1A
100
AcDbEntity
  8
1
100
AcDbLine
 10
73.78138591219067
 20
307.5576937768846
 30
0.0
 11
109.7813859121888
 21
307.5576937768846
 31
0.0
  0
LINE
  5
19DE
330
1A
100
AcDbEntity
  8
1
100
AcDbLine
 10
109.2813859121879
 20
190.9817245569165
 30
0.0
 11
74.28138591218794
 21
190.9817245569165
 31
0.0
  0
LINE
  5
19DF
330
1A
100
AcDbEntity
  8
1
100
AcDbLine
 10
74.28138591218794
 20
189.4817245569174
 30
0.0
 11
109.2813859121879
 21
189.4817245569165
 31
0.0
  0
LINE
  5
19E1
330
1A
100
AcDbEntity
  8
1
100
AcDbLine
 10
64.78138591218794
 20
64.41311194338322
 30
0.0
 11
214.7813859121879
 21
64.41311194338322
 31
0.0
  0
LINE
  5
19E2
330
1A
100
AcDbEntity
  8
1
100
AcDbLine
 10
214.7813859121879
 20
24.41311194338322
 30
0.0
 11
64.78138591218794
 21
24.41311194338322
 31
0.0
  0
LINE
  5
19E3
330
1A
100
AcDbEntity
  8
1
100
AcDbLine
 10
64.78138591218794
 20
309.0576937768855
 30
0.0
 11
214.7813859121879
 21
309.0576937768855
 31
0.0
  0
LINE
  5
19E4
330
1A
100
AcDbEntity
  8
1
100
AcDbLine
 10
214.7813859121879
 20
269.0576937768855
 30
0.0
 11
64.78138591218794
 21
269.0576937768855
 31
0.0
  0
LINE
  5
19E5
330
1A
100
AcDbEntity
  8
1
100
AcDbLine
 10
172.8824064266218
 20
188.4817245569165
 30
0.0
 11
64.78138591218794
 21
188.4817245569165
 31
0.0
  0
LINE
  5
19E6
330
1A
100
AcDbEntity
  8
1
100
AcDbLine
 10
180.7813859121879
 20
165.4817245569165
 30
0.0
 11
98.78138591218794
 21
165.4817245569165
 31
0.0
  0
LINE
  5
19E8
330
1A
100
AcDbEntity
  8
1
100
AcDbLine
 10
64.78138591218794
 20
24.41311194338322
 30
0.0
 11
64.78138591218794
 21
64.41311194338322
 31
0.0
  0
LINE
  5
19EF
330
1A
100
AcDbEntity
  8
1
100
AcDbLine
 10
96.78138591218795
 20
64.41311194338322
 30
0.0
 11
96.78138591218795
 21
24.41311194338322
 31
0.0
  0
ARC
  5
19F2
330
1A
100
AcDbEntity
  8
1
100
AcDbCircle
 10
53.31728429702161
 20
44.4131119434096
 30
0.0
 40
11.46410161516606
100
AcDbArc
 50
342.4120462260363
 51
17.5879537736838
  0
ARC
  5
19F3
330
1A
100
AcDbEntity
  8
1
100
AcDbCircle
 10
66.24548752735154
 20
44.41311194340778
 30
0.0
 40
11.46410161516606
100
AcDbArc
 50
162.4120462262508
 51
197.5879537739636
  0
ARC
  5
19F4
330
1A
100
AcDbEntity
  8
1
100
AcDbCircle
 10
61.7143986140818
 20
49.60926436611135
 30
0.0
 40
3.066987298111351
100
AcDbArc
 50
325.6157525319683
 51
34.38424746788676
  0
ARC
  5
19F5
330
1A
100
AcDbEntity
  8
1
100
AcDbCircle
 10
57.84837321030227
 20
49.6092643661159
 30
0.0
 40
3.066987298111351
100
AcDbArc
 50
145.6157525320407
 51
214.3842474679591
  0
LINE
  5
19F6
330
1A
100
AcDbEntity
  8
1
100
AcDbLine
 10
55.31728429704981
 20
47.87721355855047
 30
0.0
 11
64.24548752732789
 21
47.87721355853773
 31
0.0
  0
LINE
  5
19F7
330
1A
100
AcDbEntity
  8
1
100
AcDbLine
 10
64.78138591218431
 20
50.41311194341506
 30
0.0
 11
64.78138591218613
 21
38.4131119434096
 31
0.0
  0
LINE
  5
19F8
330
1A
100
AcDbEntity
  8
1
100
AcDbLine
 10
54.78138591218613
 20
50.41311194341324
 30
0.0
 11
54.78138591218431
 21
38.41311194341051
 31
0.0
  0
LINE
  5
19F9
330
1A
100
AcDbEntity
  8
1
100
AcDbLine
 10
55.31728429704617
 20
51.34131517368405
 30
0.0
 11
64.24548752732698
 21
51.34131517368496
 31
0.0
  0
LINE
  5
19FA
330
1A
100
AcDbEntity
  8
1
100
AcDbLine
 10
55.31728429704435
 20
37.48490871313515
 30
0.0
 11
64.24548752732516
 21
37.48490871313606
 31
0.0
  0
LINE
  5
19FB
330
1A
100
AcDbEntity
  8
1
100
AcDbLine
 10
55.31728429704526
 20
40.94901032827055
 30
0.0
 11
64.24548752732334
 21
40.94901032827147
 31
0.0
  0
LINE
  5
19FC
330
1A
100
AcDbEntity
  8
1
100
AcDbLine
 10
54.78138591218521
 20
38.41311194340869
 30
0.0
 11
55.31728429704617
 21
37.48490871313424
 31
0.0
  0
LINE
  5
19FD
330
1A
100
AcDbEntity
  8
1
100
AcDbLine
 10
54.78138591218339
 20
50.41311194340778
 30
0.0
 11
55.31728429704344
 21
51.34131517368223
 31
0.0
  0
LINE
  5
19FE
330
1A
100
AcDbEntity
  8
1
100
AcDbLine
 10
64.78138591218703
 20
38.4131119434096
 30
0.0
 11
64.24548752732608
 21
37.48490871313515
 31
0.0
  0
LINE
  5
19FF
330
1A
100
AcDbEntity
  8
1
100
AcDbLine
 10
64.78138591218703
 20
50.41311194340869
 30
0.0
 11
64.24548752732698
 21
51.34131517368314
 31
0.0
  0
ARC
  5
1A00
330
1A
100
AcDbEntity
  8
1
100
AcDbCircle
 10
57.8483732102959
 20
39.21695952070149
 30
0.0
 40
3.066987298111351
100
AcDbArc
 50
145.6157525319978
 51
214.3842474679162
  0
ARC
  5
1A01
330
1A
100
AcDbEntity
  8
1
100
AcDbCircle
 10
61.71439861407543
 20
39.21695952070149
 30
0.0
 40
3.066987298111351
100
AcDbArc
 50
325.6157525320408
 51
34.3842474679592
  0
LINE
  5
1A22
330
1A
100
AcDbEntity
  8
1
100
AcDbLine
 10
54.78138591218794
 20
180.2817245569421
 30
0.0
 11
30.85363093292744
 21
180.2817245569421
 31
0.0
  0
LINE
  5
1A23
330
1A
100
AcDbEntity
  8
1
100
AcDbLine
 10
54.78138591218613
 20
174.6817245569418
 30
0.0
 11
30.85363093292835
 21
174.6817245569418
 31
0.0
  0
LINE
  5
1A25
330
1A
100
AcDbEntity
  8
1
100
AcDbLine
 10
101.281385912187
 20
194.6817245569164
 30
0.0
 11
101.8010011544574
 21
194.9817245569165
 31
0.0
  0
LINE
  5
1A26
330
1A
100
AcDbEntity
  8
1
100
AcDbLine
 10
101.281385912187
 20
190.9817245569165
 30
0.0
 11
101.281385912187
 21
194.6817245569164
 31
0.0
  0
LINE
  5
1A27
330
1A
100
AcDbEntity
  8
1
100
AcDbLine
 10
78.78138591218885
 20
190.9817245569165
 30
0.0
 11
80.78138591218886
 21
190.9817245569165
 31
0.0
  0
LINE
  5
1A28
330
1A
100
AcDbEntity
  8
1
100
AcDbLine
 10
80.78138591218886
 20
190.9817245569165
 30
0.0
 11
82.28138591218884
 21
190.9817245569165
 31
0.0
  0
LINE
  5
1A29
330
1A
100
AcDbEntity
  8
1
100
AcDbLine
 10
82.28138591218884
 20
190.9817245569165
 30
0.0
 11
82.28138591218884
 21
194.6817245569164
 31
0.0
  0
LINE
  5
1A2A
330
1A
100
AcDbEntity
  8
1
100
AcDbLine
 10
82.28138591218884
 20
194.6817245569164
 30
0.0
 11
81.7617706699184
 21
194.9817245569165
 31
0.0
  0
LINE
  5
1A2B
330
1A
100
AcDbEntity
  8
1
100
AcDbLine
 10
81.7617706699184
 20
194.9817245569165
 30
0.0
 11
75.80100115445929
 21
194.9817245569165
 31
0.0
  0
LINE
  5
1A2C
330
1A
100
AcDbEntity
  8
1
100
AcDbLine
 10
75.80100115445929
 20
194.9817245569165
 30
0.0
 11
75.28138591218885
 21
194.6817245569164
 31
0.0
  0
LINE
  5
1A2D
330
1A
100
AcDbEntity
  8
1
100
AcDbLine
 10
75.28138591218885
 20
194.6817245569164
 30
0.0
 11
75.28138591218885
 21
190.9817245569165
 31
0.0
  0
LINE
  5
1A2E
330
1A
100
AcDbEntity
  8
1
100
AcDbLine
 10
75.28138591218885
 20
190.9817245569165
 30
0.0
 11
76.78138591218885
 21
190.9817245569165
 31
0.0
  0
LINE
  5
1A2F
330
1A
100
AcDbEntity
  8
1
100
AcDbLine
 10
76.78138591218885
 20
190.9817245569165
 30
0.0
 11
78.78138591218885
 21
190.9817245569165
 31
0.0
  0
LINE
  5
1A30
330
1A
100
AcDbEntity
  8
1
100
AcDbLine
 10
82.28138591218884
 20
194.6817245569164
 30
0.0
 11
75.28138591218885
 21
194.6817245569164
 31
0.0
  0
LINE
  5
1A32
330
1A
100
AcDbEntity
  8
1
100
AcDbLine
 10
73.28138591218794
 20
271.0576937768846
 30
0.0
 11
73.78138591218794
 21
270.5576937768846
 31
0.0
  0
LINE
  5
1A33
330
1A
100
AcDbEntity
  8
1
100
AcDbLine
 10
73.78138591219067
 20
307.5576937768846
 30
0.0
 11
73.28138591219067
 21
307.0576937768846
 31
0.0
  0
LINE
  5
1A34
330
1A
100
AcDbEntity
  8
1
100
AcDbLine
 10
100.7813859121879
 20
165.4817245569165
 30
0.0
 11
100.7813859121879
 21
165.3817245569171
 31
0.0
  0
ARC
  5
1A35
330
1A
100
AcDbEntity
  8
1
100
AcDbCircle
 10
56.11632240245308
 20
174.4817245569056
 30
0.0
 40
8.665063509736034
100
AcDbArc
 50
339.743842000168
 51
20.25615799983199
  0
ARC
  5
1A36
330
1A
100
AcDbEntity
  8
1
100
AcDbCircle
 10
56.11632240245308
 20
180.4817245569292
 30
0.0
 40
8.665063509736034
100
AcDbArc
 50
339.743842000168
 51
20.25615799983199
  0
ARC
  5
1A37
330
1A
100
AcDbEntity
  8
1
100
AcDbCircle
 10
63.44644942192281
 20
180.4817245569292
 30
0.0
 40
8.665063509736034
100
AcDbArc
 50
159.7438420000521
 51
200.2561579998319
  0
ARC
  5
1A38
330
1A
100
AcDbEntity
  8
1
100
AcDbCircle
 10
63.44644942192281
 20
174.4817245569056
 30
0.0
 40
8.665063509736034
100
AcDbArc
 50
159.743842000168
 51
200.2561579998319
  0
LINE
  5
1A39
330
1A
100
AcDbEntity
  8
1
100
AcDbLine
 10
55.28138591218703
 20
171.4817245568947
 30
0.0
 11
64.28138591218885
 21
171.4817245568938
 31
0.0
  0
LINE
  5
1A3A
330
1A
100
AcDbEntity
  8
1
100
AcDbLine
 10
55.28138591218885
 20
183.4817245568947
 30
0.0
 11
64.28138591218612
 21
183.4817245568929
 31
0.0
  0
LINE
  5
1A3B
330
1A
100
AcDbEntity
  8
1
100
AcDbLine
 10
55.31728429703526
 20
177.4817245569174
 30
0.0
 11
64.24548752734063
 21
177.4817245569174
 31
0.0
  0
LINE
  5
1A3C
330
1A
100
AcDbEntity
  8
1
100
AcDbLine
 10
64.78138591218613
 20
182.9817245568929
 30
0.0
 11
64.78138591218885
 21
171.9817245568938
 31
0.0
  0
LINE
  5
1A3D
330
1A
100
AcDbEntity
  8
1
100
AcDbLine
 10
54.78138591218885
 20
182.9817245568947
 30
0.0
 11
54.78138591218703
 21
171.9817245568947
 31
0.0
  0
ARC
  5
1A3E
330
1A
100
AcDbEntity
  8
1
100
AcDbCircle
 10
61.7143986140818
 20
294.2538461996136
 30
0.0
 40
3.066987298111351
100
AcDbArc
 50
325.6157525319683
 51
34.38424746788676
  0
ARC
  5
1A3F
330
1A
100
AcDbEntity
  8
1
100
AcDbCircle
 10
57.84837321030227
 20
294.2538461996182
 30
0.0
 40
3.066987298111351
100
AcDbArc
 50
145.6157525320407
 51
214.3842474679591
  0
LINE
  5
1A40
330
1A
100
AcDbEntity
  8
1
100
AcDbLine
 10
55.31728429704981
 20
292.5217953920528
 30
0.0
 11
64.24548752732789
 21
292.52179539204
 31
0.0
  0
LINE
  5
1A41
330
1A
100
AcDbEntity
  8
1
100
AcDbLine
 10
64.78138591218431
 20
295.0576937769174
 30
0.0
 11
64.78138591218613
 21
283.0576937769119
 31
0.0
  0
ARC
  5
1A42
330
1A
100
AcDbEntity
  8
1
100
AcDbCircle
 10
53.31728429702161
 20
289.0576937769119
 30
0.0
 40
11.46410161516606
100
AcDbArc
 50
342.4120462260363
 51
17.5879537736838
  0
ARC
  5
1A43
330
1A
100
AcDbEntity
  8
1
100
AcDbCircle
 10
61.71439861407543
 20
283.8615413542038
 30
0.0
 40
3.066987298111351
100
AcDbArc
 50
325.6157525320408
 51
34.3842474679592
  0
ARC
  5
1A44
330
1A
100
AcDbEntity
  8
1
100
AcDbCircle
 10
57.8483732102959
 20
283.8615413542038
 30
0.0
 40
3.066987298111351
100
AcDbArc
 50
145.6157525319978
 51
214.3842474679162
  0
ARC
  5
1A45
330
1A
100
AcDbEntity
  8
1
100
AcDbCircle
 10
66.24548752735154
 20
289.0576937769101
 30
0.0
 40
11.46410161516606
100
AcDbArc
 50
162.4120462262508
 51
197.5879537739636
  0
LINE
  5
1A46
330
1A
100
AcDbEntity
  8
1
100
AcDbLine
 10
64.78138591218703
 20
295.057693776911
 30
0.0
 11
64.24548752732698
 21
295.9858970071854
 31
0.0
  0
LINE
  5
1A47
330
1A
100
AcDbEntity
  8
1
100
AcDbLine
 10
64.78138591218703
 20
283.0576937769119
 30
0.0
 11
64.24548752732608
 21
282.1294905466375
 31
0.0
  0
LINE
  5
1A48
330
1A
100
AcDbEntity
  8
1
100
AcDbLine
 10
54.78138591218339
 20
295.0576937769101
 30
0.0
 11
55.31728429704344
 21
295.9858970071845
 31
0.0
  0
LINE
  5
1A49
330
1A
100
AcDbEntity
  8
1
100
AcDbLine
 10
54.78138591218521
 20
283.057693776911
 30
0.0
 11
55.31728429704617
 21
282.1294905466365
 31
0.0
  0
LINE
  5
1A4A
330
1A
100
AcDbEntity
  8
1
100
AcDbLine
 10
55.31728429704526
 20
285.5935921617728
 30
0.0
 11
64.24548752732334
 21
285.5935921617738
 31
0.0
  0
LINE
  5
1A4B
330
1A
100
AcDbEntity
  8
1
100
AcDbLine
 10
55.31728429704435
 20
282.1294905466375
 30
0.0
 11
64.24548752732516
 21
282.1294905466384
 31
0.0
  0
LINE
  5
1A4C
330
1A
100
AcDbEntity
  8
1
100
AcDbLine
 10
55.31728429704617
 20
295.9858970071863
 30
0.0
 11
64.24548752732698
 21
295.9858970071873
 31
0.0
  0
LINE
  5
1A4D
330
1A
100
AcDbEntity
  8
1
100
AcDbLine
 10
54.78138591218613
 20
295.0576937769156
 30
0.0
 11
54.78138591218431
 21
283.0576937769128
 31
0.0
  0
LINE
  5
1A4E
330
1A
100
AcDbEntity
  8
1
100
AcDbLine
 10
73.28138591219067
 20
307.0576937768846
 30
0.0
 11
73.28138591218794
 21
271.0576937768846
 31
0.0
  0
LINE
  5
1A4F
330
1A
100
AcDbEntity
  8
1
100
AcDbLine
 10
74.28138591218794
 20
190.9817245569165
 30
0.0
 11
74.28138591218794
 21
188.4817245569165
 31
0.0
  0
LINE
  5
1A5C
330
1A
100
AcDbEntity
  8
1
100
AcDbLine
 10
64.78138591218794
 20
158.4817245569165
 30
0.0
 11
96.78138591218795
 21
158.4817245569165
 31
0.0
  0
LINE
  5
1A5D
330
1A
100
AcDbEntity
  8
1
100
AcDbLine
 10
64.78138591218794
 20
188.4817245569165
 30
0.0
 11
64.78138591218794
 21
158.4817245569165
 31
0.0
  0
LINE
  5
1A5E
330
1A
100
AcDbEntity
  8
1
100
AcDbLine
 10
64.78138591218794
 20
269.0576937768855
 30
0.0
 11
64.78138591218794
 21
309.0576937768855
 31
0.0
  0
LINE
  5
1A69
330
1A
100
AcDbEntity
  8
CENTER
 48
1.5
100
AcDbLine
 10
70.78138591218794
 20
157.1186067268281
 30
0.0
 11
70.78138591218794
 21
177.6545140258695
 31
0.0
  0
ARC
  5
1A6F
330
1A
100
AcDbEntity
  8
1
100
AcDbCircle
 10
98.78138591218794
 20
163.4817245569165
 30
0.0
 40
2.0
100
AcDbArc
 50
90.0
 51
180.0
  0
LINE
  5
1A70
330
1A
100
AcDbEntity
  8
1
100
AcDbLine
 10
96.78138591218795
 20
163.4817245569165
 30
0.0
 11
96.78138591218795
 21
158.4817245569165
 31
0.0
  0
LINE
  5
1AD5
330
1A
100
AcDbEntity
  8
1
100
AcDbLine
 10
214.7813859121879
 20
64.41311194338322
 30
0.0
 11
214.7813859121879
 21
24.41311194338322
 31
0.0
  0
LINE
  5
1AD7
330
1A
100
AcDbEntity
  8
1
100
AcDbLine
 10
182.7813859121879
 20
64.41311194338322
 30
0.0
 11
182.7813859121879
 21
24.41311194338322
 31
0.0
  0
ELLIPSE
  5
1AD8
330
1A
100
AcDbEntity
  8
1
100
AcDbEllipse
 10
159.281385912187
 20
44.41311194339777
 30
0.0
 11
19.5
 21
-0.0000000000000083
 31
0.0
210
0.0
220
0.0
230
1.0
 40
0.4102564102564114
 41
7.439363577042453
 42
7.853981633974482
  0
ELLIPSE
  5
1AD9
330
1A
100
AcDbEntity
  8
1
100
AcDbEllipse
 10
120.281385912187
 20
44.41311194339777
 30
0.0
 11
19.5
 21
0.0000000000000059
 31
0.0
210
0.0
220
0.0
230
1.0
 40
0.4102564102564113
 41
4.297770923452659
 42
4.712388980384689
  0
ELLIPSE
  5
1ADA
330
1A
100
AcDbEntity
  8
1
100
AcDbEllipse
 10
159.281385912187
 20
44.41311194339777
 30
0.0
 11
19.5
 21
-0.0000000000000083
 31
0.0
210
0.0
220
0.0
230
1.0
 40
0.4102564102564114
 41
4.712388980384689
 42
5.127007037316808
  0
ELLIPSE
  5
1ADB
330
1A
100
AcDbEntity
  8
1
100
AcDbEllipse
 10
120.281385912187
 20
44.41311194339777
 30
0.0
 11
19.5
 21
0.0000000000000059
 31
0.0
210
0.0
220
0.0
230
1.0
 40
0.4102564102564113
 41
1.570796326794896
 42
1.985414383726928
  0
LINE
  5
1ADC
330
1A
100
AcDbEntity
  8
1
100
AcDbLine
 10
110.8828649561546
 20
37.43258600291483
 30
0.0
 11
109.7306028220737
 21
36.34266582259988
 31
0.0
  0
LINE
  5
1ADD
330
1A
100
AcDbEntity
  8
1
100
AcDbLine
 10
110.8828649561546
 20
51.39363788388073
 30
0.0
 11
109.7306028220737
 21
52.48355806419567
 31
0.0
  0
LINE
  5
1ADE
330
1A
100
AcDbEntity
  8
1
100
AcDbLine
 10
110.781385912187
 20
49.76710224655017
 30
0.0
 11
110.781385912187
 21
39.05912164024448
 31
0.0
  0
LINE
  5
1ADF
330
1A
100
AcDbEntity
  8
1
100
AcDbLine
 10
168.6799068682194
 20
51.39363788388073
 30
0.0
 11
169.8321690023003
 21
52.48355806419567
 31
0.0
  0
LINE
  5
1AE0
330
1A
100
AcDbEntity
  8
1
100
AcDbLine
 10
168.6799068682194
 20
37.43258600291483
 30
0.0
 11
169.8321690023003
 21
36.34266582259988
 31
0.0
  0
ARC
  5
1AE1
330
1A
100
AcDbEntity
  8
1
100
AcDbCircle
 10
166.781385912187
 20
39.05912164024539
 30
0.0
 40
2.0
100
AcDbArc
 50
280.2354526034772
 51
0.0
  0
ARC
  5
1AE2
330
1A
100
AcDbEntity
  8
1
100
AcDbCircle
 10
166.781385912187
 20
49.76710224655107
 30
0.0
 40
2.0
100
AcDbArc
 50
0.0
 51
79.76454739646228
  0
LINE
  5
1AE3
330
1A
100
AcDbEntity
  8
1
100
AcDbLine
 10
120.281385912187
 20
36.41311194339778
 30
0.0
 11
159.281385912187
 21
36.41311194339778
 31
0.0
  0
LINE
  5
1AE4
330
1A
100
AcDbEntity
  8
1
100
AcDbLine
 10
159.281385912187
 20
52.41311194339778
 30
0.0
 11
120.281385912187
 21
52.41311194339778
 31
0.0
  0
LINE
  5
1AE5
330
1A
100
AcDbEntity
  8
1
100
AcDbLine
 10
168.781385912187
 20
39.05912164024448
 30
0.0
 11
168.781385912187
 21
49.76710224655017
 31
0.0
  0
ARC
  5
1AE6
330
1A
100
AcDbEntity
  8
1
100
AcDbCircle
 10
112.781385912187
 20
49.76710224655107
 30
0.0
 40
2.0
100
AcDbArc
 50
100.2354526035377
 51
180.0
  0
ARC
  5
1AE7
330
1A
100
AcDbEntity
  8
1
100
AcDbCircle
 10
112.781385912187
 20
39.05912164024539
 30
0.0
 40
2.0
100
AcDbArc
 50
180.0
 51
259.7645473964622
  0
LINE
  5
1AF4
330
1A
100
AcDbEntity
  8
1
100
AcDbLine
 10
214.7813859121879
 20
188.4817245569165
 30
0.0
 11
182.6803653977549
 21
188.4817245569165
 31
0.0
  0
LINE
  5
1AF5
330
1A
100
AcDbEntity
  8
1
100
AcDbLine
 10
182.7813859121879
 20
158.4817245569165
 30
0.0
 11
214.7813859121879
 21
158.4817245569165
 31
0.0
  0
LINE
  5
1AFF
330
1A
100
AcDbEntity
  8
1
100
AcDbLine
 10
106.781385912187
 20
190.9817245569165
 30
0.0
 11
104.781385912187
 21
190.9817245569165
 31
0.0
  0
LINE
  5
1B00
330
1A
100
AcDbEntity
  8
1
100
AcDbLine
 10
108.281385912187
 20
190.9817245569165
 30
0.0
 11
106.781385912187
 21
190.9817245569165
 31
0.0
  0
LINE
  5
1B01
330
1A
100
AcDbEntity
  8
1
100
AcDbLine
 10
107.7617706699165
 20
194.9817245569165
 30
0.0
 11
108.281385912187
 21
194.6817245569164
 31
0.0
  0
LINE
  5
1B02
330
1A
100
AcDbEntity
  8
1
100
AcDbLine
 10
108.281385912187
 20
194.6817245569164
 30
0.0
 11
108.281385912187
 21
190.9817245569165
 31
0.0
  0
LINE
  5
1B03
330
1A
100
AcDbEntity
  8
1
100
AcDbLine
 10
104.781385912187
 20
190.9817245569165
 30
0.0
 11
102.781385912187
 21
190.9817245569165
 31
0.0
  0
LINE
  5
1B04
330
1A
100
AcDbEntity
  8
1
100
AcDbLine
 10
109.7813859121897
 20
270.5576937768846
 30
0.0
 11
110.2813859121897
 21
271.0576937768846
 31
0.0
  0
LINE
  5
1B05
330
1A
100
AcDbEntity
  8
1
100
AcDbLine
 10
110.2813859121888
 20
307.0576937768846
 30
0.0
 11
109.7813859121888
 21
307.5576937768846
 31
0.0
  0
ARC
  5
1B06
330
1A
100
AcDbEntity
  8
1
100
AcDbCircle
 10
107.9726759074592
 20
164.381724556918
 30
0.0
 40
1.0
100
AcDbArc
 50
17.35402463627064
 51
90.0
  0
LINE
  5
1B07
330
1A
100
AcDbEntity
  8
1
100
AcDbLine
 10
110.2473597850939
 20
160.4553470713317
 30
0.0
 11
108.9271558854934
 21
164.6799995500532
 31
0.0
  0
LINE
  5
1B08
330
1A
100
AcDbEntity
  8
1
100
AcDbLine
 10
178.7813859121879
 20
165.3817245569171
 30
0.0
 11
139.7813859121879
 21
165.3817245569171
 31
0.0
  0
LINE
  5
1B09
330
1A
100
AcDbEntity
  8
1
100
AcDbLine
 10
178.7813859121879
 20
165.4817245569165
 30
0.0
 11
178.7813859121879
 21
165.3817245569171
 31
0.0
  0
LINE
  5
1B0A
330
1A
100
AcDbEntity
  8
1
100
AcDbLine
 10
139.7813859121879
 20
165.4817245569165
 30
0.0
 11
178.7813859121879
 21
165.4817245569165
 31
0.0
  0
ARC
  5
1B0B
330
1A
100
AcDbEntity
  8
1
100
AcDbCircle
 10
167.311004085408
 20
161.0817245569178
 30
0.0
 40
2.1
100
AcDbArc
 50
270.0
 51
342.6459753637293
  0
LINE
  5
1B0C
330
1A
100
AcDbEntity
  8
1
100
AcDbLine
 10
169.315412039281
 20
160.4553470713317
 30
0.0
 11
170.6356159388815
 21
164.6799995500532
 31
0.0
  0
ARC
  5
1B0D
330
1A
100
AcDbEntity
  8
1
100
AcDbCircle
 10
171.5900959169166
 20
164.381724556918
 30
0.0
 40
1.0
100
AcDbArc
 50
90.0
 51
162.6459753637293
  0
LINE
  5
1B0E
330
1A
100
AcDbEntity
  8
1
100
AcDbLine
 10
167.311004085408
 20
158.9817245569165
 30
0.0
 11
139.7813859121879
 21
158.9817245569165
 31
0.0
  0
LINE
  5
1B0F
330
1A
100
AcDbEntity
  8
1
100
AcDbLine
 10
112.2517677389678
 20
158.9817245569165
 30
0.0
 11
139.7813859121879
 21
158.9817245569165
 31
0.0
  0
LINE
  5
1B10
330
1A
100
AcDbEntity
  8
1
100
AcDbLine
 10
178.7813859121879
 20
165.3817245569171
 30
0.0
 11
178.7813859121879
 21
165.4817245569165
 31
0.0
  0
ARC
  5
1B11
330
1A
100
AcDbEntity
  8
1
100
AcDbCircle
 10
112.2517677389678
 20
161.0817245569178
 30
0.0
 40
2.1
100
AcDbArc
 50
197.3540246362706
 51
270.0
  0
LINE
  5
1B12
330
1A
100
AcDbEntity
  8
1
100
AcDbLine
 10
110.2813859121888
 20
307.0576937768846
 30
0.0
 11
110.2813859121897
 21
271.0576937768846
 31
0.0
  0
LINE
  5
1B13
330
1A
100
AcDbEntity
  8
1
100
AcDbLine
 10
109.2813859121879
 20
188.4817245569165
 30
0.0
 11
109.2813859121879
 21
190.9817245569165
 31
0.0
  0
ARC
  5
1B28
330
1A
100
AcDbEntity
  8
1
100
AcDbCircle
 10
177.7813859121879
 20
193.4817245569165
 30
0.0
 40
7.0
100
AcDbArc
 50
225.5846914027929
 51
314.415308597207
  0
ARC
  5
1B29
330
1A
100
AcDbEntity
  8
1
100
AcDbCircle
 10
180.7813859121879
 20
163.4817245569165
 30
0.0
 40
2.0
100
AcDbArc
 50
0.0
 51
90.0
  0
LINE
  5
1B2A
330
1A
100
AcDbEntity
  8
1
100
AcDbLine
 10
172.8824064266218
 20
309.0576937768855
 30
0.0
 11
172.8824064266218
 21
269.0576937768855
 31
0.0
  0
LINE
  5
1B2B
330
1A
100
AcDbEntity
  8
1
100
AcDbLine
 10
182.6803653977549
 20
309.0576937768855
 30
0.0
 11
182.6803653977549
 21
269.0576937768855
 31
0.0
  0
LINE
  5
1B2D
330
1A
100
AcDbEntity
  8
1
100
AcDbLine
 10
182.7813859121879
 20
158.4817245569165
 30
0.0
 11
182.7813859121879
 21
163.4817245569165
 31
0.0
  0
LINE
  5
1B37
330
1A
100
AcDbEntity
  8
1
100
AcDbLine
 10
214.7813859121879
 20
158.4817245569165
 30
0.0
 11
214.7813859121879
 21
188.4817245569165
 31
0.0
  0
LINE
  5
1B38
330
1A
100
AcDbEntity
  8
1
100
AcDbLine
 10
214.7813859121879
 20
309.0576937768855
 30
0.0
 11
214.7813859121879
 21
269.0576937768855
 31
0.0
  0
LINE
  5
1F94
330
1A
100
AcDbEntity
  8
1
100
AcDbLine
 10
55.28138591218885
 20
183.4817245568947
 30
0.0
 11
54.78138591218885
 21
182.9817245568947
 31
0.0
  0
LINE
  5
1F95
330
1A
100
AcDbEntity
  8
1
100
AcDbLine
 10
64.28138591218612
 20
183.4817245568929
 30
0.0
 11
64.78138591218613
 21
182.9817245568929
 31
0.0
  0
LINE
  5
1F96
330
1A
100
AcDbEntity
  8
1
100
AcDbLine
 10
54.78138591218703
 20
171.9817245568947
 30
0.0
 11
55.28138591218703
 21
171.4817245568947
 31
0.0
  0
LINE
  5
1F97
330
1A
100
AcDbEntity
  8
1
100
AcDbLine
 10
64.28138591218885
 20
171.4817245568938
 30
0.0
 11
64.78138591218885
 21
171.9817245568938
 31
0.0
  0
LINE
  5
22B0
330
1A
100
AcDbEntity
  8
CENTER
 48
1.5
100
AcDbLine
 10
66.78138591218703
 20
177.4817245568929
 30
0.0
 11
22.55807316741083
 21
177.4817245568929
 31
0.0
  0
SPLINE
  5
22C3
330
1A
100
AcDbEntity
  8
1
100
AcDbSpline
210
0.0
220
0.0
230
1.0
 70
     8
 71
     3
 72
    10
 73
     6
 74
     4
 42
0.0000000001
 43
0.0000000001
 44
0.0000000001
 40
0.0
 40
0.0
 40
0.0
 40
0.0
 40
1.9313207915829
 40
4.372631914729431
 40
6.303952706312661
 40
6.303952706312661
 40
6.303952706312661
 40
6.303952706312661
 10
30.85363093292744
 20
180.2817245569421
 30
0.0
 10
31.27155422440409
 20
179.6594823024452
 30
0.0
 10
32.21775887884723
 20
178.2506866468656
 30
0.0
 10
29.48950298700765
 20
176.7127624670192
 30
0.0
 10
30.43570764145079
 20
175.3039668114397
 30
0.0
 10
30.85363093292835
 20
174.6817245569418
 30
0.0
 11
30.85363093292744
 21
180.2817245569421
 31
0.0
 11
31.55363093292726
 21
178.481724556942
 31
0.0
 11
30.15363093292762
 21
176.481724556942
 31
0.0
 11
30.85363093292835
 21
174.6817245569418
 31
0.0
  0
SPLINE
  5
2554
330
1A
100
AcDbEntity
  8
1
100
AcDbSpline
210
0.0
220
0.0
230
1.0
 70
     8
 71
     3
 72
    10
 73
     6
 74
     4
 42
0.0000000001
 43
0.0000000001
 44
0.0000000001
 40
0.0
 40
0.0
 40
0.0
 40
0.0
 40
1.9313207915829
 40
4.372631914729431
 40
6.303952706312661
 40
6.303952706312661
 40
6.303952706312661
 40
6.303952706312661
 10
30.85363093292471
 20
291.8576937769376
 30
0.0
 10
31.27155422440137
 20
291.2354515224397
 30
0.0
 10
32.2177588788445
 20
289.8266558668601
 30
0.0
 10
29.48950298700401
 20
288.2887316870155
 30
0.0
 10
30.43570764144897
 20
286.8799360314351
 30
0.0
 10
30.85363093292562
 20
286.2576937769372
 30
0.0
 11
30.85363093292471
 21
291.8576937769376
 31
0.0
 11
31.55363093292453
 21
290.0576937769374
 31
0.0
 11
30.15363093292489
 21
288.0576937769374
 31
0.0
 11
30.85363093292562
 21
286.2576937769372
 31
0.0
  0
LINE
  5
2555
330
1A
100
AcDbEntity
  8
1
100
AcDbLine
 10
54.78138591218339
 20
286.2576937769372
 30
0.0
 11
30.85363093292562
 21
286.2576937769372
 31
0.0
  0
LINE
  5
2556
330
1A
100
AcDbEntity
  8
1
100
AcDbLine
 10
54.78138591218521
 20
291.8576937769376
 30
0.0
 11
30.85363093292471
 21
291.8576937769376
 31
0.0
  0
SPLINE
  5
2557
330
1A
100
AcDbEntity
  8
1
100
AcDbSpline
210
0.0
220
0.0
230
1.0
 70
     8
 71
     3
 72
    10
 73
     6
 74
     4
 42
0.0000000001
 43
0.0000000001
 44
0.0000000001
 40
0.0
 40
0.0
 40
0.0
 40
0.0
 40
1.9313207915829
 40
4.372631914729431
 40
6.303952706312661
 40
6.303952706312661
 40
6.303952706312661
 40
6.303952706312661
 10
30.85363093292471
 20
47.21311194343525
 30
0.0
 10
31.27155422440137
 20
46.59086968893734
 30
0.0
 10
32.2177588788445
 20
45.18207403335781
 30
0.0
 10
29.48950298700401
 20
43.64414985351141
 30
0.0
 10
30.43570764144897
 20
42.23535419793279
 30
0.0
 10
30.85363093292562
 20
41.61311194343489
 30
0.0
 11
30.85363093292471
 21
47.21311194343525
 31
0.0
 11
31.55363093292453
 21
45.41311194343506
 31
0.0
 11
30.15363093292489
 21
43.41311194343506
 31
0.0
 11
30.85363093292562
 21
41.61311194343489
 31
0.0
  0
LINE
  5
2558
330
1A
100
AcDbEntity
  8
1
100
AcDbLine
 10
54.78138591218339
 20
41.61311194343489
 30
0.0
 11
30.85363093292562
 21
41.61311194343489
 31
0.0
  0
LINE
  5
2559
330
1A
100
AcDbEntity
  8
1
100
AcDbLine
 10
54.78138591218521
 20
47.21311194343525
 30
0.0
 11
30.85363093292471
 21
47.21311194343525
 31
0.0
  0
ARC
  5
26E3
330
1A
100
AcDbEntity
  8
1
100
AcDbCircle
 10
154.7813859121879
 20
181.2817245569167
 30
0.0
 40
5.0
100
AcDbArc
 50
291.2512439756635
 51
157.6890764593933
  0
ARC
  5
26E4
330
1A
100
AcDbEntity
  8
1
 48
10.0
100
AcDbCircle
 10
145.7813859121879
 20
176.4817245569165
 30
0.0
 40
8.0
100
AcDbArc
 50
56.85298702105063
 51
138.5903778907205
  0
ARC
  5
26E5
330
1A
100
AcDbEntity
  8
1
 48
10.0
100
AcDbCircle
 10
133.7813859121879
 20
176.4817245569165
 30
0.0
 40
8.0
100
AcDbArc
 50
41.40962210927951
 51
123.1470129789493
  0
ARC
  5
26E6
330
1A
100
AcDbEntity
  8
1
100
AcDbCircle
 10
124.7813859121879
 20
181.2817245569167
 30
0.0
 40
5.0
100
AcDbArc
 50
22.31092354060662
 51
248.7487560243364
  0
ARC
  5
26E7
330
1A
100
AcDbEntity
  8
1
100
AcDbCircle
 10
124.7813859121879
 20
171.9617245569161
 30
0.0
 40
5.0
100
AcDbArc
 50
111.2512439756635
 51
334.9746528135418
  0
ARC
  5
26E8
330
1A
100
AcDbEntity
  8
1
 48
10.0
100
AcDbCircle
 10
133.7813859121879
 20
176.4817245569165
 30
0.0
 40
8.0
100
AcDbArc
 50
236.0358171487871
 51
318.5903778907204
  0
ARC
  5
26E9
330
1A
100
AcDbEntity
  8
1
 48
10.0
100
AcDbCircle
 10
145.7813859121879
 20
176.4817245569165
 30
0.0
 40
8.0
100
AcDbArc
 50
221.4096221092794
 51
303.9641828512128
  0
ARC
  5
26EA
330
1A
100
AcDbEntity
  8
1
100
AcDbCircle
 10
154.7813859121879
 20
171.9617245569161
 30
0.0
 40
5.0
100
AcDbArc
 50
205.0253471864581
 51
68.74875602433643
  0
CIRCLE
  5
26EC
330
1A
100
AcDbEntity
  8
1
100
AcDbCircle
 10
188.7813859121879
 20
279.0576937768855
 30
0.0
 40
3.25
  0
CIRCLE
  5
26EF
330
1A
100
AcDbEntity
  8
1
 62
     9
100
AcDbCircle
 10
188.7813859121879
 20
279.0576937768855
 30
0.0
 40
4.0
  0
CIRCLE
  5
26F2
330
1A
100
AcDbEntity
  8
1
 62
     9
100
AcDbCircle
 10
188.7813859121879
 20
299.0576937768855
 30
0.0
 40
4.0
  0
CIRCLE
  5
26F3
330
1A
100
AcDbEntity
  8
1
100
AcDbCircle
 10
188.7813859121879
 20
299.0576937768855
 30
0.0
 40
3.25
  0
CIRCLE
  5
26F4
330
1A
100
AcDbEntity
  8
1
100
AcDbCircle
 10
208.7813859121879
 20
279.0576937768855
 30
0.0
 40
3.25
  0
CIRCLE
  5
26F7
330
1A
100
AcDbEntity
  8
1
 62
     9
100
AcDbCircle
 10
208.7813859121879
 20
279.0576937768855
 30
0.0
 40
4.0
  0
CIRCLE
  5
26FA
330
1A
100
AcDbEntity
  8
1
 62
     9
100
AcDbCircle
 10
208.7813859121879
 20
299.0576937768855
 30
0.0
 40
4.0
  0
CIRCLE
  5
26FB
330
1A
100
AcDbEntity
  8
1
100
AcDbCircle
 10
208.7813859121879
 20
299.0576937768855
 30
0.0
 40
3.25
  0
CIRCLE
  5
26FD
330
1A
100
AcDbEntity
  8
1
100
AcDbCircle
 10
70.78138591218794
 20
34.41311194338322
 30
0.0
 40
3.25
  0
CIRCLE
  5
2700
330
1A
100
AcDbEntity
  8
1
 62
     9
100
AcDbCircle
 10
70.78138591218794
 20
34.41311194338322
 30
0.0
 40
4.0
  0
CIRCLE
  5
2701
330
1A
100
AcDbEntity
  8
1
100
AcDbCircle
 10
90.78138591218793
 20
34.41311194338322
 30
0.0
 40
3.25
  0
CIRCLE
  5
2704
330
1A
100
AcDbEntity
  8
1
 62
     9
100
AcDbCircle
 10
90.78138591218793
 20
34.41311194338322
 30
0.0
 40
4.0
  0
CIRCLE
  5
2705
330
1A
100
AcDbEntity
  8
1
100
AcDbCircle
 10
90.78138591218793
 20
54.41311194338322
 30
0.0
 40
3.25
  0
CIRCLE
  5
2708
330
1A
100
AcDbEntity
  8
1
 62
     9
100
AcDbCircle
 10
90.78138591218793
 20
54.41311194338322
 30
0.0
 40
4.0
  0
CIRCLE
  5
270B
330
1A
100
AcDbEntity
  8
1
 62
     9
100
AcDbCircle
 10
70.78138591218794
 20
54.41311194338322
 30
0.0
 40
4.0
  0
CIRCLE
  5
270C
330
1A
100
AcDbEntity
  8
1
100
AcDbCircle
 10
70.78138591218794
 20
54.41311194338322
 30
0.0
 40
3.25
  0
CIRCLE
  5
270E
330
1A
100
AcDbEntity
  8
1
100
AcDbCircle
 10
188.7813859121879
 20
54.41311194338322
 30
0.0
 40
3.25
  0
CIRCLE
  5
270F
330
1A
100
AcDbEntity
  8
1
100
AcDbCircle
 10
208.7813859121879
 20
54.41311194338322
 30
0.0
 40
3.25
  0
CIRCLE
  5
2710
330
1A
100
AcDbEntity
  8
1
100
AcDbCircle
 10
208.7813859121879
 20
34.41311194338322
 30
0.0
 40
3.25
  0
CIRCLE
  5
2711
330
1A
100
AcDbEntity
  8
1
100
AcDbCircle
 10
188.7813859121879
 20
34.41311194338322
 30
0.0
 40
3.25
  0
LINE
  5
2762
330
1A
100
AcDbEntity
  8
CENTER
 62
     9
100
AcDbLine
 10
65.78138591218794
 20
54.41311194338322
 30
0.0
 11
75.78138591218794
 21
54.41311194338322
 31
0.0
  0
LINE
  5
2763
330
1A
100
AcDbEntity
  8
CENTER
 62
     9
100
AcDbLine
 10
70.78138591218794
 20
49.41311194338322
 30
0.0
 11
70.78138591218794
 21
59.41311194338322
 31
0.0
  0
LINE
  5
27F0
330
1A
100
AcDbEntity
  8
1
  6
HIDDEN
 62
     8
 48
1.5
100
AcDbLine
 10
66.78138591218794
 20
158.4817245569165
 30
0.0
 11
66.78138591218794
 21
170.4817245569165
 31
0.0
  0
LINE
  5
27F1
330
1A
100
AcDbEntity
  8
1
  6
HIDDEN
 62
     8
 48
1.5
100
AcDbLine
 10
74.78138591218794
 20
170.4817245569174
 30
0.0
 11
74.78138591218794
 21
158.4817245569165
 31
0.0
  0
LINE
  5
27F2
330
1A
100
AcDbEntity
  8
1
  6
HIDDEN
 48
1.5
100
AcDbLine
 10
67.53138591218704
 20
158.4817245569165
 30
0.0
 11
67.53138591218794
 21
174.4817245569165
 31
0.0
  0
LINE
  5
27F3
330
1A
100
AcDbEntity
  8
1
  6
HIDDEN
 48
1.5
100
AcDbLine
 10
74.03138591218703
 20
158.4817245569165
 30
0.0
 11
74.03138591218795
 21
174.4817245569165
 31
0.0
  0
LINE
  5
27F4
330
1A
100
AcDbEntity
  8
1
 62
     8
 48
1.5
100
AcDbLine
 10
74.03138591218795
 20
171.2317245569165
 30
0.0
 11
74.78138591218794
 21
170.4817245569165
 31
0.0
  0
LINE
  5
27F5
330
1A
100
AcDbEntity
  8
1
  6
HIDDEN
 62
     8
 48
1.5
100
AcDbLine
 10
67.53138591218794
 20
171.2317245569156
 30
0.0
 11
74.03138591218885
 21
171.2317245569156
 31
0.0
  0
LINE
  5
27F6
330
1A
100
AcDbEntity
  8
1
 62
     8
 48
1.5
100
AcDbLine
 10
66.78138591218794
 20
170.4817245569165
 30
0.0
 11
67.53138591218794
 21
171.2317245569165
 31
0.0
  0
LINE
  5
27F7
330
1A
100
AcDbEntity
  8
1
  6
HIDDEN
 62
     8
 48
1.5
100
AcDbLine
 10
66.78138591218885
 20
170.4817245569165
 30
0.0
 11
74.78138591218794
 21
170.4817245569165
 31
0.0
  0
LINE
  5
27F8
330
1A
100
AcDbEntity
  8
1
  6
HIDDEN
 48
1.5
100
AcDbLine
 10
67.53138591218794
 20
174.4817245569165
 30
0.0
 11
70.78138591218794
 21
176.3581129317826
 31
0.0
  0
LINE
  5
27F9
330
1A
100
AcDbEntity
  8
1
  6
HIDDEN
 62
     8
 48
1.5
100
AcDbLine
 10
67.53138591218794
 20
174.4817245569165
 30
0.0
 11
74.03138591218795
 21
174.4817245569165
 31
0.0
  0
LINE
  5
27FA
330
1A
100
AcDbEntity
  8
1
  6
HIDDEN
 48
1.5
100
AcDbLine
 10
74.03138591218885
 20
174.4817245569165
 30
0.0
 11
70.78138591218794
 21
176.3581129317826
 31
0.0
  0
LINE
  5
27FB
330
1A
100
AcDbEntity
  8
1
  6
HIDDEN
 48
1.5
100
AcDbLine
 10
94.03138591218885
 20
174.4817245569165
 30
0.0
 11
90.78138591218793
 21
176.3581129317826
 31
0.0
  0
LINE
  5
27FC
330
1A
100
AcDbEntity
  8
1
  6
HIDDEN
 62
     8
 48
1.5
100
AcDbLine
 10
87.53138591218794
 20
174.4817245569165
 30
0.0
 11
94.03138591218795
 21
174.4817245569165
 31
0.0
  0
LINE
  5
27FD
330
1A
100
AcDbEntity
  8
1
  6
HIDDEN
 48
1.5
100
AcDbLine
 10
87.53138591218794
 20
174.4817245569165
 30
0.0
 11
90.78138591218793
 21
176.3581129317826
 31
0.0
  0
LINE
  5
27FE
330
1A
100
AcDbEntity
  8
1
  6
HIDDEN
 62
     8
 48
1.5
100
AcDbLine
 10
86.78138591218885
 20
170.4817245569165
 30
0.0
 11
94.78138591218794
 21
170.4817245569165
 31
0.0
  0
LINE
  5
27FF
330
1A
100
AcDbEntity
  8
1
 62
     8
 48
1.5
100
AcDbLine
 10
86.78138591218795
 20
170.4817245569165
 30
0.0
 11
87.53138591218794
 21
171.2317245569165
 31
0.0
  0
LINE
  5
2800
330
1A
100
AcDbEntity
  8
1
  6
HIDDEN
 62
     8
 48
1.5
100
AcDbLine
 10
87.53138591218794
 20
171.2317245569156
 30
0.0
 11
94.03138591218885
 21
171.2317245569156
 31
0.0
  0
LINE
  5
2801
330
1A
100
AcDbEntity
  8
1
 62
     8
 48
1.5
100
AcDbLine
 10
94.03138591218795
 20
171.2317245569165
 30
0.0
 11
94.78138591218794
 21
170.4817245569165
 31
0.0
  0
LINE
  5
2802
330
1A
100
AcDbEntity
  8
1
  6
HIDDEN
 48
1.5
100
AcDbLine
 10
94.03138591218704
 20
158.4817245569165
 30
0.0
 11
94.03138591218795
 21
174.4817245569165
 31
0.0
  0
LINE
  5
2803
330
1A
100
AcDbEntity
  8
1
  6
HIDDEN
 48
1.5
100
AcDbLine
 10
87.53138591218704
 20
158.4817245569165
 30
0.0
 11
87.53138591218794
 21
174.4817245569165
 31
0.0
  0
LINE
  5
2804
330
1A
100
AcDbEntity
  8
1
  6
HIDDEN
 62
     8
 48
1.5
100
AcDbLine
 10
94.78138591218794
 20
170.4817245569174
 30
0.0
 11
94.78138591218794
 21
158.4817245569165
 31
0.0
  0
LINE
  5
2805
330
1A
100
AcDbEntity
  8
1
  6
HIDDEN
 62
     8
 48
1.5
100
AcDbLine
 10
86.78138591218795
 20
158.4817245569165
 30
0.0
 11
86.78138591218795
 21
170.4817245569165
 31
0.0
  0
LINE
  5
2806
330
1A
100
AcDbEntity
  8
CENTER
 48
1.5
100
AcDbLine
 10
90.78138591218793
 20
157.1186067268281
 30
0.0
 11
90.78138591218793
 21
177.6545140258695
 31
0.0
  0
LINE
  5
2808
330
1A
100
AcDbEntity
  8
1
  6
HIDDEN
 62
     8
 48
1.5
100
AcDbLine
 10
192.7813859121888
 20
188.4817245569174
 30
0.0
 11
192.7813859121888
 21
173.4817245569174
 31
0.0
  0
LINE
  5
2809
330
1A
100
AcDbEntity
  8
1
  6
HIDDEN
 62
     8
 48
1.5
100
AcDbLine
 10
184.7813859121888
 20
173.4817245569165
 30
0.0
 11
184.7813859121888
 21
188.4817245569174
 31
0.0
  0
LINE
  5
280A
330
1A
100
AcDbEntity
  8
1
  6
HIDDEN
 48
1.5
100
AcDbLine
 10
192.0313859121897
 20
188.4817245569174
 30
0.0
 11
192.0313859121879
 21
158.4817245569165
 31
0.0
  0
LINE
  5
280B
330
1A
100
AcDbEntity
  8
1
  6
HIDDEN
 48
1.5
100
AcDbLine
 10
185.5313859121897
 20
188.4817245569174
 30
0.0
 11
185.5313859121879
 21
158.4817245569165
 31
0.0
  0
LINE
  5
280C
330
1A
100
AcDbEntity
  8
1
 62
     8
 48
1.5
100
AcDbLine
 10
185.5313859121888
 20
172.7317245569174
 30
0.0
 11
184.7813859121888
 21
173.4817245569174
 31
0.0
  0
LINE
  5
280D
330
1A
100
AcDbEntity
  8
1
  6
HIDDEN
 62
     8
 48
1.5
100
AcDbLine
 10
192.0313859121888
 20
172.7317245569183
 30
0.0
 11
185.5313859121879
 21
172.7317245569183
 31
0.0
  0
LINE
  5
280E
330
1A
100
AcDbEntity
  8
1
 62
     8
 48
1.5
100
AcDbLine
 10
192.7813859121888
 20
173.4817245569174
 30
0.0
 11
192.0313859121888
 21
172.7317245569174
 31
0.0
  0
LINE
  5
280F
330
1A
100
AcDbEntity
  8
1
  6
HIDDEN
 62
     8
 48
1.5
100
AcDbLine
 10
192.7813859121879
 20
173.4817245569174
 30
0.0
 11
184.7813859121888
 21
173.4817245569174
 31
0.0
  0
LINE
  5
2813
330
1A
100
AcDbEntity
  8
CENTER
 48
1.5
100
AcDbLine
 10
188.7813859121888
 20
189.8448423870059
 30
0.0
 11
188.7813859121888
 21
157.1186245569169
 31
0.0
  0
LINE
  5
2814
330
1A
100
AcDbEntity
  8
1
  6
HIDDEN
 62
     8
 48
1.5
100
AcDbLine
 10
212.7813859121888
 20
188.4817245569174
 30
0.0
 11
212.7813859121888
 21
173.4817245569174
 31
0.0
  0
LINE
  5
2815
330
1A
100
AcDbEntity
  8
1
  6
HIDDEN
 62
     8
 48
1.5
100
AcDbLine
 10
204.7813859121888
 20
173.4817245569165
 30
0.0
 11
204.7813859121888
 21
188.4817245569174
 31
0.0
  0
LINE
  5
2816
330
1A
100
AcDbEntity
  8
1
 62
     8
 48
1.5
100
AcDbLine
 10
205.5313859121888
 20
172.7317245569174
 30
0.0
 11
204.7813859121888
 21
173.4817245569174
 31
0.0
  0
LINE
  5
2817
330
1A
100
AcDbEntity
  8
1
  6
HIDDEN
 62
     8
 48
1.5
100
AcDbLine
 10
212.0313859121888
 20
172.7317245569183
 30
0.0
 11
205.5313859121879
 21
172.7317245569183
 31
0.0
  0
LINE
  5
2818
330
1A
100
AcDbEntity
  8
1
 62
     8
 48
1.5
100
AcDbLine
 10
212.7813859121888
 20
173.4817245569174
 30
0.0
 11
212.0313859121888
 21
172.7317245569174
 31
0.0
  0
LINE
  5
2819
330
1A
100
AcDbEntity
  8
1
  6
HIDDEN
 62
     8
 48
1.5
100
AcDbLine
 10
212.7813859121879
 20
173.4817245569174
 30
0.0
 11
204.7813859121888
 21
173.4817245569174
 31
0.0
  0
LINE
  5
281A
330
1A
100
AcDbEntity
  8
1
  6
HIDDEN
 48
1.5
100
AcDbLine
 10
205.5313859121897
 20
188.4817245569174
 30
0.0
 11
205.5313859121879
 21
158.4817245569165
 31
0.0
  0
LINE
  5
281B
330
1A
100
AcDbEntity
  8
1
  6
HIDDEN
 48
1.5
100
AcDbLine
 10
212.0313859121897
 20
188.4817245569174
 30
0.0
 11
212.0313859121879
 21
158.4817245569165
 31
0.0
  0
LINE
  5
281C
330
1A
100
AcDbEntity
  8
CENTER
 48
1.5
100
AcDbLine
 10
208.7813859121888
 20
189.8448423870059
 30
0.0
 11
208.7813859121888
 21
157.1186245569169
 31
0.0
  0
LINE
  5
281D
330
1A
100
AcDbEntity
  8
CENTER
 62
     9
100
AcDbLine
 10
188.7813859121879
 20
50.16311194338323
 30
0.0
 11
188.7813859121879
 21
58.66311194338322
 31
0.0
  0
LINE
  5
281E
330
1A
100
AcDbEntity
  8
CENTER
 62
     9
100
AcDbLine
 10
184.5313859121879
 20
54.41311194338322
 30
0.0
 11
193.0313859121879
 21
54.41311194338322
 31
0.0
  0
LINE
  5
2839
330
1A
100
AcDbEntity
  8
CENTER
 62
     9
100
AcDbLine
 10
85.78138591218793
 20
54.41311194338322
 30
0.0
 11
95.78138591218793
 21
54.41311194338322
 31
0.0
  0
LINE
  5
283A
330
1A
100
AcDbEntity
  8
CENTER
 62
     9
100
AcDbLine
 10
90.78138591218793
 20
49.41311194338322
 30
0.0
 11
90.78138591218793
 21
59.41311194338322
 31
0.0
  0
LINE
  5
283B
330
1A
100
AcDbEntity
  8
CENTER
 62
     9
100
AcDbLine
 10
90.78138591218793
 20
29.41311194338322
 30
0.0
 11
90.78138591218793
 21
39.41311194338322
 31
0.0
  0
LINE
  5
283C
330
1A
100
AcDbEntity
  8
CENTER
 62
     9
100
AcDbLine
 10
85.78138591218793
 20
34.41311194338322
 30
0.0
 11
95.78138591218793
 21
34.41311194338322
 31
0.0
  0
LINE
  5
283D
330
1A
100
AcDbEntity
  8
CENTER
 62
     9
100
AcDbLine
 10
65.78138591218794
 20
34.41311194338322
 30
0.0
 11
75.78138591218794
 21
34.41311194338322
 31
0.0
  0
LINE
  5
283E
330
1A
100
AcDbEntity
  8
CENTER
 62
     9
100
AcDbLine
 10
70.78138591218794
 20
29.41311194338322
 30
0.0
 11
70.78138591218794
 21
39.41311194338322
 31
0.0
  0
LINE
  5
285A
330
1A
100
AcDbEntity
  8
CENTER
 62
     9
100
AcDbLine
 10
203.7813859121879
 20
299.0576937768855
 30
0.0
 11
213.7813859121879
 21
299.0576937768855
 31
0.0
  0
LINE
  5
285B
330
1A
100
AcDbEntity
  8
CENTER
 62
     9
100
AcDbLine
 10
208.7813859121879
 20
294.0576937768856
 30
0.0
 11
208.7813859121879
 21
304.0576937768855
 31
0.0
  0
LINE
  5
285C
330
1A
100
AcDbEntity
  8
CENTER
 62
     9
100
AcDbLine
 10
188.7813859121879
 20
294.0576937768856
 30
0.0
 11
188.7813859121879
 21
304.0576937768855
 31
0.0
  0
LINE
  5
285D
330
1A
100
AcDbEntity
  8
CENTER
 62
     9
100
AcDbLine
 10
183.7813859121879
 20
299.0576937768855
 30
0.0
 11
193.7813859121879
 21
299.0576937768855
 31
0.0
  0
LINE
  5
285E
330
1A
100
AcDbEntity
  8
CENTER
 62
     9
100
AcDbLine
 10
188.7813859121879
 20
274.0576937768855
 30
0.0
 11
188.7813859121879
 21
284.0576937768855
 31
0.0
  0
LINE
  5
285F
330
1A
100
AcDbEntity
  8
CENTER
 62
     9
100
AcDbLine
 10
183.7813859121879
 20
279.0576937768855
 30
0.0
 11
193.7813859121879
 21
279.0576937768855
 31
0.0
  0
LINE
  5
2860
330
1A
100
AcDbEntity
  8
CENTER
 62
     9
100
AcDbLine
 10
203.7813859121879
 20
279.0576937768855
 30
0.0
 11
213.7813859121879
 21
279.0576937768855
 31
0.0
  0
LINE
  5
2861
330
1A
100
AcDbEntity
  8
CENTER
 62
     9
100
AcDbLine
 10
208.7813859121879
 20
274.0576937768855
 30
0.0
 11
208.7813859121879
 21
284.0576937768855
 31
0.0
  0
LINE
  5
28A5
330
1A
100
AcDbEntity
  8
CENTER
 62
     9
100
AcDbLine
 10
204.5313859121879
 20
54.41311194338322
 30
0.0
 11
213.0313859121879
 21
54.41311194338322
 31
0.0
  0
LINE
  5
28A6
330
1A
100
AcDbEntity
  8
CENTER
 62
     9
100
AcDbLine
 10
208.7813859121879
 20
50.16311194338323
 30
0.0
 11
208.7813859121879
 21
58.66311194338322
 31
0.0
  0
LINE
  5
28A7
330
1A
100
AcDbEntity
  8
CENTER
 62
     9
100
AcDbLine
 10
208.7813859121879
 20
30.16311194338323
 30
0.0
 11
208.7813859121879
 21
38.66311194338322
 31
0.0
  0
LINE
  5
28A8
330
1A
100
AcDbEntity
  8
CENTER
 62
     9
100
AcDbLine
 10
204.5313859121879
 20
34.41311194338322
 30
0.0
 11
213.0313859121879
 21
34.41311194338322
 31
0.0
  0
LINE
  5
28A9
330
1A
100
AcDbEntity
  8
CENTER
 62
     9
100
AcDbLine
 10
184.5313859121879
 20
34.41311194338322
 30
0.0
 11
193.0313859121879
 21
34.41311194338322
 31
0.0
  0
LINE
  5
28AA
330
1A
100
AcDbEntity
  8
CENTER
 62
     9
100
AcDbLine
 10
188.7813859121879
 20
30.16311194338323
 30
0.0
 11
188.7813859121879
 21
38.66311194338322
 31
0.0
  0
LINE
  5
2BED
330
1A
100
AcDbEntity
  8
1
 62
     8
100
AcDbLine
 10
170.781385912187
 20
37.41311194339778
 30
0.0
 11
170.781385912187
 21
51.41311194339778
 31
0.0
  0
ARC
  5
2BEE
330
1A
100
AcDbEntity
  8
1
 62
     8
100
AcDbCircle
 10
168.781385912187
 20
51.41311194339778
 30
0.0
 40
2.0
100
AcDbArc
 50
0.0
 51
90.0
  0
LINE
  5
2BEF
330
1A
100
AcDbEntity
  8
1
 62
     8
100
AcDbLine
 10
168.781385912187
 20
53.41311194339778
 30
0.0
 11
110.781385912187
 21
53.41311194339778
 31
0.0
  0
ARC
  5
2BF0
330
1A
100
AcDbEntity
  8
1
 62
     8
100
AcDbCircle
 10
110.781385912187
 20
51.41311194339778
 30
0.0
 40
2.0
100
AcDbArc
 50
90.0
 51
180.0
  0
LINE
  5
2BF1
330
1A
100
AcDbEntity
  8
1
 62
     8
100
AcDbLine
 10
108.781385912187
 20
51.41311194339778
 30
0.0
 11
108.781385912187
 21
37.41311194339778
 31
0.0
  0
ARC
  5
2BF2
330
1A
100
AcDbEntity
  8
1
 62
     8
100
AcDbCircle
 10
110.781385912187
 20
37.41311194339778
 30
0.0
 40
2.0
100
AcDbArc
 50
180.0
 51
270.0
  0
LINE
  5
2BF3
330
1A
100
AcDbEntity
  8
1
 62
     8
100
AcDbLine
 10
110.781385912187
 20
35.41311194339778
 30
0.0
 11
168.781385912187
 21
35.41311194339778
 31
0.0
  0
ARC
  5
2BF4
330
1A
100
AcDbEntity
  8
1
 62
     8
100
AcDbCircle
 10
168.781385912187
 20
37.41311194339778
 30
0.0
 40
2.0
100
AcDbArc
 50
270.0
 51
0.0
  0
LINE
  5
2BF5
330
1A
100
AcDbEntity
  8
1
100
AcDbLine
 10
178.781385912187
 20
25.81311194339741
 30
0.0
 11
178.781385912187
 21
63.01311194339723
 31
0.0
  0
ARC
  5
2BF6
330
1A
100
AcDbEntity
  8
1
100
AcDbCircle
 10
178.3813859121855
 20
63.01311194339723
 30
0.0
 40
0.4000000000014552
100
AcDbArc
 50
0.0
 51
89.99999999986973
  0
LINE
  5
2BF7
330
1A
100
AcDbEntity
  8
1
100
AcDbLine
 10
178.3813859121864
 20
63.41311194339778
 30
0.0
 11
101.1813859121866
 21
63.41311194339778
 31
0.0
  0
ARC
  5
2BF8
330
1A
100
AcDbEntity
  8
1
100
AcDbCircle
 10
101.1813859121866
 20
63.01311194339814
 30
0.0
 40
0.3999999999996362
100
AcDbArc
 50
90.0
 51
180.0000000001302
  0
LINE
  5
2BF9
330
1A
100
AcDbEntity
  8
1
100
AcDbLine
 10
100.781385912187
 20
63.01311194339723
 30
0.0
 11
100.781385912187
 21
25.81311194339741
 31
0.0
  0
ARC
  5
2BFA
330
1A
100
AcDbEntity
  8
1
100
AcDbCircle
 10
101.1813859121866
 20
25.81311194339741
 30
0.0
 40
0.3999999999996362
100
AcDbArc
 50
180.0
 51
270.0
  0
LINE
  5
2BFB
330
1A
100
AcDbEntity
  8
1
100
AcDbLine
 10
101.1813859121866
 20
25.41311194339778
 30
0.0
 11
178.3813859121864
 21
25.41311194339778
 31
0.0
  0
ARC
  5
2BFC
330
1A
100
AcDbEntity
  8
1
100
AcDbCircle
 10
178.3813859121864
 20
25.81311194339741
 30
0.0
 40
0.3999999999996362
100
AcDbArc
 50
270.0
 51
0.0
  0
CIRCLE
  5
2BFD
330
1A
100
AcDbEntity
  8
1
100
AcDbCircle
 10
78.78138591218885
 20
276.0576937768846
 30
0.0
 40
3.5
  0
CIRCLE
  5
2BFE
330
1A
100
AcDbEntity
  8
1
100
AcDbCircle
 10
78.78138591218885
 20
276.0576937768846
 30
0.0
 40
2.980384757729336
  0
LINE
  5
2BFF
330
1A
100
AcDbEntity
  8
1
100
AcDbLine
 10
80.28138591218885
 20
275.1916683731006
 30
0.0
 11
80.28138591218885
 21
276.9237191806687
 31
0.0
  0
LINE
  5
2C00
330
1A
100
AcDbEntity
  8
1
100
AcDbLine
 10
78.78138591218885
 20
274.3256429693155
 30
0.0
 11
80.28138591218885
 21
275.1916683731006
 31
0.0
  0
LINE
  5
2C01
330
1A
100
AcDbEntity
  8
1
100
AcDbLine
 10
77.28138591218885
 20
275.1916683731006
 30
0.0
 11
78.78138591218885
 21
274.3256429693155
 31
0.0
  0
LINE
  5
2C02
330
1A
100
AcDbEntity
  8
1
100
AcDbLine
 10
77.28138591218885
 20
276.9237191806687
 30
0.0
 11
77.28138591218885
 21
275.1916683731006
 31
0.0
  0
LINE
  5
2C03
330
1A
100
AcDbEntity
  8
1
100
AcDbLine
 10
78.78138591218885
 20
277.7897445844537
 30
0.0
 11
77.28138591218885
 21
276.9237191806687
 31
0.0
  0
LINE
  5
2C04
330
1A
100
AcDbEntity
  8
1
100
AcDbLine
 10
80.28138591218885
 20
276.9237191806687
 30
0.0
 11
78.78138591218885
 21
277.7897445844537
 31
0.0
  0
CIRCLE
  5
2C05
330
1A
100
AcDbEntity
  8
1
100
AcDbCircle
 10
104.7813859121879
 20
276.0576937768855
 30
0.0
 40
3.5
  0
CIRCLE
  5
2C06
330
1A
100
AcDbEntity
  8
1
100
AcDbCircle
 10
104.7813859121879
 20
276.0576937768855
 30
0.0
 40
2.980384757729336
  0
LINE
  5
2C07
330
1A
100
AcDbEntity
  8
1
100
AcDbLine
 10
106.2813859121879
 20
275.1916683731014
 30
0.0
 11
106.2813859121879
 21
276.9237191806696
 31
0.0
  0
LINE
  5
2C08
330
1A
100
AcDbEntity
  8
1
100
AcDbLine
 10
104.7813859121879
 20
274.3256429693165
 30
0.0
 11
106.2813859121879
 21
275.1916683731014
 31
0.0
  0
LINE
  5
2C09
330
1A
100
AcDbEntity
  8
1
100
AcDbLine
 10
103.2813859121879
 20
275.1916683731014
 30
0.0
 11
104.7813859121879
 21
274.3256429693165
 31
0.0
  0
LINE
  5
2C0A
330
1A
100
AcDbEntity
  8
1
100
AcDbLine
 10
103.2813859121879
 20
276.9237191806696
 30
0.0
 11
103.2813859121879
 21
275.1916683731014
 31
0.0
  0
LINE
  5
2C0B
330
1A
100
AcDbEntity
  8
1
100
AcDbLine
 10
104.7813859121879
 20
277.7897445844546
 30
0.0
 11
103.2813859121879
 21
276.9237191806696
 31
0.0
  0
LINE
  5
2C0C
330
1A
100
AcDbEntity
  8
1
100
AcDbLine
 10
106.2813859121879
 20
276.9237191806696
 30
0.0
 11
104.7813859121879
 21
277.7897445844546
 31
0.0
  0
CIRCLE
  5
2C0D
330
1A
100
AcDbEntity
  8
1
100
AcDbCircle
 10
78.78138591218794
 20
302.0576937768855
 30
0.0
 40
3.5
  0
CIRCLE
  5
2C0E
330
1A
100
AcDbEntity
  8
1
100
AcDbCircle
 10
78.78138591218794
 20
302.0576937768855
 30
0.0
 40
2.980384757729336
  0
LINE
  5
2C0F
330
1A
100
AcDbEntity
  8
1
100
AcDbLine
 10
80.28138591218795
 20
301.1916683731015
 30
0.0
 11
80.28138591218795
 21
302.9237191806696
 31
0.0
  0
LINE
  5
2C10
330
1A
100
AcDbEntity
  8
1
100
AcDbLine
 10
78.78138591218794
 20
300.3256429693164
 30
0.0
 11
80.28138591218795
 21
301.1916683731015
 31
0.0
  0
LINE
  5
2C11
330
1A
100
AcDbEntity
  8
1
100
AcDbLine
 10
77.28138591218794
 20
301.1916683731015
 30
0.0
 11
78.78138591218794
 21
300.3256429693164
 31
0.0
  0
LINE
  5
2C12
330
1A
100
AcDbEntity
  8
1
100
AcDbLine
 10
77.28138591218794
 20
302.9237191806696
 30
0.0
 11
77.28138591218794
 21
301.1916683731015
 31
0.0
  0
LINE
  5
2C13
330
1A
100
AcDbEntity
  8
1
100
AcDbLine
 10
78.78138591218794
 20
303.7897445844546
 30
0.0
 11
77.28138591218794
 21
302.9237191806696
 31
0.0
  0
LINE
  5
2C14
330
1A
100
AcDbEntity
  8
1
100
AcDbLine
 10
80.28138591218795
 20
302.9237191806696
 30
0.0
 11
78.78138591218794
 21
303.7897445844546
 31
0.0
  0
CIRCLE
  5
2C15
330
1A
100
AcDbEntity
  8
1
100
AcDbCircle
 10
104.7813859121879
 20
302.0576937768855
 30
0.0
 40
3.5
  0
CIRCLE
  5
2C16
330
1A
100
AcDbEntity
  8
1
100
AcDbCircle
 10
104.7813859121879
 20
302.0576937768855
 30
0.0
 40
2.980384757729336
  0
LINE
  5
2C17
330
1A
100
AcDbEntity
  8
1
100
AcDbLine
 10
106.2813859121879
 20
301.1916683731015
 30
0.0
 11
106.2813859121879
 21
302.9237191806696
 31
0.0
  0
LINE
  5
2C18
330
1A
100
AcDbEntity
  8
1
100
AcDbLine
 10
104.7813859121879
 20
300.3256429693164
 30
0.0
 11
106.2813859121879
 21
301.1916683731015
 31
0.0
  0
LINE
  5
2C19
330
1A
100
AcDbEntity
  8
1
100
AcDbLine
 10
103.2813859121879
 20
301.1916683731015
 30
0.0
 11
104.7813859121879
 21
300.3256429693164
 31
0.0
  0
LINE
  5
2C1A
330
1A
100
AcDbEntity
  8
1
100
AcDbLine
 10
103.2813859121879
 20
302.9237191806696
 30
0.0
 11
103.2813859121879
 21
301.1916683731015
 31
0.0
  0
LINE
  5
2C1B
330
1A
100
AcDbEntity
  8
1
100
AcDbLine
 10
104.7813859121879
 20
303.7897445844546
 30
0.0
 11
103.2813859121879
 21
302.9237191806696
 31
0.0
  0
LINE
  5
2C1C
330
1A
100
AcDbEntity
  8
1
100
AcDbLine
 10
106.2813859121879
 20
302.9237191806696
 30
0.0
 11
104.7813859121879
 21
303.7897445844546
 31
0.0
  0
VIEWPORT
  5
22
330
17
100
AcDbEntity
 67
     1
  8
0
100
AcDbViewport
 10
270.4845710943374
 20
136.1477474921638
 30
0.0
 40
575.7206454712926
 41
359.3580977008311
 68
     1
 69
     1
1001
ACAD
1000
MVIEW
1002
{
1070
    16
1010
0.0
1020
0.0
1030
0.0
1010
0.0
1020
0.0
1030
1.0
1040
0.0
1040
359.3580977008311
1040
270.4845710943374
1040
136.1477474921638
1040
50.0
1040
0.0
1040
0.0
1070
     0
1070
   100
1070
     1
1070
     0
1070
     0
1070
     0
1070
     0
1070
     0
1040
0.0
1040
0.0
1040
0.0
1040
1.0
1040
1.0
1040
10.0
1040
10.0
1070
     0
1002
{
1002
}
1002
}
  0
VIEWPORT
  5
2CF
330
17
100
AcDbEntity
 67
     1
  8
DEFPOINTS
100
AcDbViewport
 10
212.5
 20
149.4999999999999
 30
0.0
 40
385.0
 41
264.9999999999999
 68
     2
 69
     2
1001
ACAD
1000
MVIEW
1002
{
1070
    16
1010
0.0
1020
0.0
1030
0.0
1010
0.0
1020
0.0
1030
1.0
1040
0.0
1040
421.8204892003565
1040
159.4812218268989
1040
159.1596893556779
1040
50.0
1040
0.0
1040
0.0
1070
     0
1070
   100
1070
     1
1070
     0
1070
     0
1070
     0
1070
     0
1070
     1
1040
0.0
1040
0.0
1040
0.0
1040
168.0
1040
168.0
1040
0.0
1040
0.0
1070
     0
1002
{
1002
}
1002
}
  0
ENDSEC
  0
SECTION
  2
OBJECTS
  0
DICTIONARY
  5
C
330
0
100
AcDbDictionary
  3
ACAD_GROUP
350
D
  3
ACAD_LAYOUT
350
1660
  3
ACAD_MLINESTYLE
350
E
  3
ACAD_PLOTSETTINGS
350
1661
  3
ACAD_PLOTSTYLENAME
350
165E
  3
ACADDIM
350
248F
  3
ACDBVARIABLEDICTIONARY
350
22AE
  3
CONTENTDICTIONARY
350
234
  3
ACDBHEADERROUNDTRIPXREC
350
2C84
  0
DICTIONARY
  5
1E6D
330
1A
100
AcDbDictionary
280
     1
  3
ACAD_LAYOUTSELFREF
360
2CA5
  0
DICTIONARY
  5
1E6B
330
17
100
AcDbDictionary
280
     1
  3
ACAD_LAYOUTSELFREF
360
2CA4
  0
DICTIONARY
  5
D
102
{ACAD_REACTORS
330
C
102
}
330
C
100
AcDbDictionary
  3
*A1
350
36C
  3
*A2
350
377
  3
*A3
350
419
  3
*A4
350
41A
  3
*A5
350
621
  3
*A6
350
630
  3
*A7
350
682
  3
*A8
350
84A
  0
DICTIONARY
  5
1660
102
{ACAD_REACTORS
330
C
102
}
330
C
100
AcDbDictionary
  0
DICTIONARY
  5
E
102
{ACAD_REACTORS
330
C
102
}
330
C
100
AcDbDictionary
  3
STANDARD
350
13
  0
DICTIONARY
  5
1661
102
{ACAD_REACTORS
330
C
102
}
330
C
100
AcDbDictionary
  3
A3FORMNX710
350
1F2A
  0
ACDBDICTIONARYWDFLT
  5
165E
102
{ACAD_REACTORS
330
C
102
}
330
C
100
AcDbDictionary
281
     1
  3
Normal
350
165F
100
AcDbDictionaryWithDefault
340
165F
  0
XRECORD
  5
248F
102
{ACAD_REACTORS
330
C
102
}
330
C
100
AcDbXrecord
 90
   990106
  3

 60
     0
 61
     0
 62
     4
 63
     4
 64
     1
 65
     0
 66
     0
 67
     3
 68
     1
 69
     0
 70
     0
 71
     0
 72
     0
 40
0.0
170
     2
340
2551
  0
DICTIONARY
  5
22AE
102
{ACAD_REACTORS
330
C
102
}
330
C
100
AcDbDictionary
  3
SORTENTS
350
22AF
  0
DICTIONARY
  5
234
102
{ACAD_REACTORS
330
C
102
}
330
C
100
AcDbDictionary
  0
DICTIONARY
  5
2C84
102
{ACAD_REACTORS
330
C
102
}
330
C
100
AcDbDictionary
  3
TSTACKALIGN
350
2C85
  3
TSTACKSIZE
350
2C86
  3
HYPERLINKBASE
350
2C87
  3
STYLESHEET
350
2C88
  3
LAYOUTDICT
350
2C89
  3
PLOTSETDICT
350
2C8A
  3
PLOTSTYLNAMDICT
350
2C8B
  3
LWETCUNION
350
2C8C
  3
INSUNITS
350
2C8D
  3
CEPSNTYPE
350
2C8E
  3
FINGERPRINTGUID
350
2C8F
  3
VERSIONGUID
350
2C90
  3
PSVPSCALE
350
2C91
  3
PUCSORTHOREF
350
2C92
  3
PUCSORTHOVIEW
350
2C93
  3
PUCSBASE
350
2C94
  3
PUCSORGTOP
350
2C95
  3
PUCSORGBOTTOM
350
2C96
  3
PUCSORGLEFT
350
2C97
  3
PUCSORGRIGHT
350
2C98
  3
PUCSORGFRONT
350
2C99
  3
PUCSORGBACK
350
2C9A
  3
UCSORTHOREF
350
2C9B
  3
UCSORTHOVIEW
350
2C9C
  3
UCSBASE
350
2C9D
  3
UCSORGTOP
350
2C9E
  3
UCSORGBOTTOM
350
2C9F
  3
UCSORGLEFT
350
2CA0
  3
UCSORGRIGHT
350
2CA1
  3
UCSORGFRONT
350
2CA2
  3
UCSORGBACK
350
2CA3
  0
XRECORD
  5
2CA5
102
{ACAD_REACTORS
330
1E6D
102
}
330
1E6D
100
AcDbXrecord
340
1A
  0
XRECORD
  5
2CA4
102
{ACAD_REACTORS
330
1E6B
102
}
330
1E6B
100
AcDbXrecord
340
17
  0
GROUP
  5
36C
102
{ACAD_REACTORS
330
D
102
}
330
D
100
AcDbGroup
300

 70
     1
 71
     1
  0
GROUP
  5
377
102
{ACAD_REACTORS
330
D
102
}
330
D
100
AcDbGroup
300

 70
     1
 71
     1
  0
GROUP
  5
419
102
{ACAD_REACTORS
330
D
102
}
330
D
100
AcDbGroup
300

 70
     1
 71
     1
  0
GROUP
  5
41A
102
{ACAD_REACTORS
330
D
102
}
330
D
100
AcDbGroup
300

 70
     1
 71
     1
  0
GROUP
  5
621
102
{ACAD_REACTORS
330
D
102
}
330
D
100
AcDbGroup
300

 70
     1
 71
     1
  0
GROUP
  5
630
102
{ACAD_REACTORS
330
D
102
}
330
D
100
AcDbGroup
300

 70
     1
 71
     1
  0
GROUP
  5
682
102
{ACAD_REACTORS
330
D
102
}
330
D
100
AcDbGroup
300

 70
     1
 71
     1
  0
GROUP
  5
84A
102
{ACAD_REACTORS
330
D
102
}
330
D
100
AcDbGroup
300

 70
     1
 71
     1
  0
MLINESTYLE
  5
13
102
{ACAD_REACTORS
330
E
102
}
330
E
100
AcDbMlineStyle
  2
STANDARD
 70
     0
  3

 62
     0
 51
90.0
 52
90.0
 71
     2
 49
0.5
 62
   256
  6
BYLAYER
 49
-0.5
 62
   256
  6
BYLAYER
  0
PLOTSETTINGS
  5
1F2A
102
{ACAD_REACTORS
330
1661
102
}
330
1661
100
AcDbPlotSettings
  1
A3formNX710
  2
RICOH IPSiO NX710
  4
A3
  6

 40
5.831416606903076
 41
4.307413101196289
 42
8.244415283203125
 43
5.789093017578125
 44
296.9683227539062
 45
419.9889831542968
 46
0.0
 47
0.0
 48
0.0
 49
0.0
140
0.0
141
0.0
142
1.0
143
0.999993956865126
 70
   688
 72
     1
 73
     1
 74
     2
  7
monochrome.ctb
 75
     0
147
1.000006043171393
148
0.0
149
0.0
  0
ACDBPLACEHOLDER
  5
165F
102
{ACAD_REACTORS
330
165E
102
}
330
165E
100
AcDbPlaceHolder
280
     0
  0
DICTIONARYVAR
  5
22AF
102
{ACAD_REACTORS
330
22AE
102
}
330
22AE
100
DictionaryVariables
280
     0
  1
96
  0
XRECORD
  5
2C85
102
{ACAD_REACTORS
330
2C84
102
}
330
2C84
100
AcDbXrecord
 90
        1
  0
XRECORD
  5
2C86
102
{ACAD_REACTORS
330
2C84
102
}
330
2C84
100
AcDbXrecord
 90
       70
  0
XRECORD
  5
2C87
102
{ACAD_REACTORS
330
2C84
102
}
330
2C84
100
AcDbXrecord
  1

  0
XRECORD
  5
2C88
102
{ACAD_REACTORS
330
2C84
102
}
330
2C84
100
AcDbXrecord
  1

  0
XRECORD
  5
2C89
102
{ACAD_REACTORS
330
2C84
102
}
330
2C84
100
AcDbXrecord
340
1660
  0
XRECORD
  5
2C8A
102
{ACAD_REACTORS
330
2C84
102
}
330
2C84
100
AcDbXrecord
340
1661
  0
XRECORD
  5
2C8B
102
{ACAD_REACTORS
330
2C84
102
}
330
2C84
100
AcDbXrecord
340
165E
  0
XRECORD
  5
2C8C
102
{ACAD_REACTORS
330
2C84
102
}
330
2C84
100
AcDbXrecord
 90
    31261
  0
XRECORD
  5
2C8D
102
{ACAD_REACTORS
330
2C84
102
}
330
2C84
100
AcDbXrecord
 90
        0
  0
XRECORD
  5
2C8E
102
{ACAD_REACTORS
330
2C84
102
}
330
2C84
100
AcDbXrecord
 90
        0
  0
XRECORD
  5
2C8F
102
{ACAD_REACTORS
330
2C84
102
}
330
2C84
100
AcDbXrecord
  1
{EE503B12-8F09-11D4-BE4C-00402655F364}
  0
XRECORD
  5
2C90
102
{ACAD_REACTORS
330
2C84
102
}
330
2C84
100
AcDbXrecord
  1
{5BF19B53-A4BC-41BC-9563-A8FC1CFD3229}
  0
XRECORD
  5
2C91
102
{ACAD_REACTORS
330
2C84
102
}
330
2C84
100
AcDbXrecord
 40
0.0
  0
XRECORD
  5
2C92
102
{ACAD_REACTORS
330
2C84
102
}
330
2C84
100
AcDbXrecord
340
0
  0
XRECORD
  5
2C93
102
{ACAD_REACTORS
330
2C84
102
}
330
2C84
100
AcDbXrecord
 70
     0
  0
XRECORD
  5
2C94
102
{ACAD_REACTORS
330
2C84
102
}
330
2C84
100
AcDbXrecord
340
0
  0
XRECORD
  5
2C95
102
{ACAD_REACTORS
330
2C84
102
}
330
2C84
100
AcDbXrecord
 10
0.0
 20
0.0
 30
0.0
  0
XRECORD
  5
2C96
102
{ACAD_REACTORS
330
2C84
102
}
330
2C84
100
AcDbXrecord
 10
0.0
 20
0.0
 30
0.0
  0
XRECORD
  5
2C97
102
{ACAD_REACTORS
330
2C84
102
}
330
2C84
100
AcDbXrecord
 10
0.0
 20
0.0
 30
0.0
  0
XRECORD
  5
2C98
102
{ACAD_REACTORS
330
2C84
102
}
330
2C84
100
AcDbXrecord
 10
0.0
 20
0.0
 30
0.0
  0
XRECORD
  5
2C99
102
{ACAD_REACTORS
330
2C84
102
}
330
2C84
100
AcDbXrecord
 10
0.0
 20
0.0
 30
0.0
  0
XRECORD
  5
2C9A
102
{ACAD_REACTORS
330
2C84
102
}
330
2C84
100
AcDbXrecord
 10
0.0
 20
0.0
 30
0.0
  0
XRECORD
  5
2C9B
102
{ACAD_REACTORS
330
2C84
102
}
330
2C84
100
AcDbXrecord
340
0
  0
XRECORD
  5
2C9C
102
{ACAD_REACTORS
330
2C84
102
}
330
2C84
100
AcDbXrecord
 70
     0
  0
XRECORD
  5
2C9D
102
{ACAD_REACTORS
330
2C84
102
}
330
2C84
100
AcDbXrecord
340
0
  0
XRECORD
  5
2C9E
102
{ACAD_REACTORS
330
2C84
102
}
330
2C84
100
AcDbXrecord
 10
0.0
 20
0.0
 30
0.0
  0
XRECORD
  5
2C9F
102
{ACAD_REACTORS
330
2C84
102
}
330
2C84
100
AcDbXrecord
 10
0.0
 20
0.0
 30
0.0
  0
XRECORD
  5
2CA0
102
{ACAD_REACTORS
330
2C84
102
}
330
2C84
100
AcDbXrecord
 10
0.0
 20
0.0
 30
0.0
  0
XRECORD
  5
2CA1
102
{ACAD_REACTORS
330
2C84
102
}
330
2C84
100
AcDbXrecord
 10
0.0
 20
0.0
 30
0.0
  0
XRECORD
  5
2CA2
102
{ACAD_REACTORS
330
2C84
102
}
330
2C84
100
AcDbXrecord
 10
0.0
 20
0.0
 30
0.0
  0
XRECORD
  5
2CA3
102
{ACAD_REACTORS
330
2C84
102
}
330
2C84
100
AcDbXrecord
 10
0.0
 20
0.0
 30
0.0
  0
ENDSEC
  0
EOF
