  0
SECTION
  2
HEADER
  9
$ACADVER
  1
AC1009
  9
$INSBASE
 10
0.0
 20
0.0
 30
0.0
  9
$EXTMIN
 10
133.15223508272871
 20
73.633189649183805
 30
0.0
  9
$EXTMAX
 10
737.60182075157445
 20
570.62803653133301
 30
0.0
  9
$LIMMIN
 10
0.0
 20
0.0
  9
$LIMMAX
 10
10000.0
 20
10000.0
  9
$ORTHOMODE
 70
     1
  9
$REGENMODE
 70
     1
  9
$FILLMODE
 70
     1
  9
$QTEXTMODE
 70
     0
  9
$MIRRTEXT
 70
     1
  9
$DRAGMODE
 70
     2
  9
$LTSCALE
 40
1.0
  9
$OSMODE
 70
    32
  9
$ATTMODE
 70
     1
  9
$TEXTSIZE
 40
2.0
  9
$TRACEWID
 40
1.0
  9
$TEXTSTYLE
  7
AD-STANDARD
  9
$CLAYER
  8
0
  9
$CELTYPE
  6
BYLAYER
  9
$CECOLOR
 62
   256
  9
$DIMSCALE
 40
2.0
  9
$DIMASZ
 40
2.5
  9
$DIMEXO
 40
1.0
  9
$DIMDLI
 40
0.38
  9
$DIMRND
 40
0.0
  9
$DIMDLE
 40
0.0
  9
$DIMEXE
 40
2.0
  9
$DIMTP
 40
0.0
  9
$DIMTM
 40
0.0
  9
$DIMTXT
 40
3.5
  9
$DIMCEN
 40
-2.0
  9
$DIMTSZ
 40
0.0
  9
$DIMTOL
 70
     0
  9
$DIMLIM
 70
     0
  9
$DIMTIH
 70
     0
  9
$DIMTOH
 70
     0
  9
$DIMSE1
 70
     0
  9
$DIMSE2
 70
     0
  9
$DIMTAD
 70
     1
  9
$DIMZIN
 70
     8
  9
$DIMBLK
  1

  9
$DIMASO
 70
     1
  9
$DIMSHO
 70
     1
  9
$DIMPOST
  1

  9
$DIMAPOST
  1

  9
$DIMALT
 70
     0
  9
$DIMALTD
 70
     2
  9
$DIMALTF
 40
25.399999999999999
  9
$DIMLFAC
 40
1.0
  9
$DIMTOFL
 70
     1
  9
$DIMTVP
 40
0.0
  9
$DIMTIX
 70
     0
  9
$DIMSOXD
 70
     0
  9
$DIMSAH
 70
     0
  9
$DIMBLK1
  1

  9
$DIMBLK2
  1

  9
$DIMSTYLE
  2
AD-STANDARD
  9
$DIMCLRD
 70
     9
  9
$DIMCLRE
 70
     9
  9
$DIMCLRT
 70
     2
  9
$DIMTFAC
 40
1.0
  9
$DIMGAP
 40
0.5
  9
$LUNITS
 70
     2
  9
$LUPREC
 70
     4
  9
$SKETCHINC
 40
1.0
  9
$FILLETRAD
 40
0.5
  9
$AUNITS
 70
     0
  9
$AUPREC
 70
     0
  9
$MENU
  1
.
  9
$ELEVATION
 40
0.0
  9
$PELEVATION
 40
0.0
  9
$THICKNESS
 40
0.0
  9
$LIMCHECK
 70
     0
  9
$BLIPMODE
 70
     0
  9
$CHAMFERA
 40
0.0
  9
$CHAMFERB
 40
0.0
  9
$SKPOLY
 70
     0
  9
$TDCREATE
 40
2451428.3861848381
  9
$TDUPDATE
 40
2453973.802012824
  9
$TDINDWG
 40
2.0424671874999998
  9
$TDUSRTIMER
 40
2.0424671874999998
  9
$USRTIMER
 70
     1
  9
$ANGBASE
 50
0.0
  9
$ANGDIR
 70
     0
  9
$PDMODE
 70
     0
  9
$PDSIZE
 40
0.0
  9
$PLINEWID
 40
0.0
  9
$COORDS
 70
     1
  9
$SPLFRAME
 70
     0
  9
$SPLINETYPE
 70
     6
  9
$SPLINESEGS
 70
     8
  9
$ATTDIA
 70
     0
  9
$ATTREQ
 70
     1
  9
$HANDLING
 70
 10241
  9
$HANDSEED
  5
7BD0
  9
$SURFTAB1
 70
     6
  9
$SURFTAB2
 70
     6
  9
$SURFTYPE
 70
     6
  9
$SURFU
 70
     6
  9
$SURFV
 70
     6
  9
$UCSNAME
  2

  9
$UCSORG
 10
0.0
 20
0.0
 30
0.0
  9
$UCSXDIR
 10
1.0
 20
0.0
 30
0.0
  9
$UCSYDIR
 10
0.0
 20
1.0
 30
0.0
  9
$PUCSNAME
  2

  9
$PUCSORG
 10
0.0
 20
0.0
 30
0.0
  9
$PUCSXDIR
 10
1.0
 20
0.0
 30
0.0
  9
$PUCSYDIR
 10
0.0
 20
1.0
 30
0.0
  9
$USERI1
 70
     0
  9
$USERI2
 70
     0
  9
$USERI3
 70
     0
  9
$USERI4
 70
     0
  9
$USERI5
 70
     0
  9
$USERR1
 40
0.0
  9
$USERR2
 40
0.0
  9
$USERR3
 40
0.0
  9
$USERR4
 40
0.0
  9
$USERR5
 40
0.0
  9
$WORLDVIEW
 70
     1
  9
$SHADEDGE
 70
     3
  9
$SHADEDIF
 70
    70
  9
$TILEMODE
 70
     1
  9
$MAXACTVP
 70
    16
  9
$PLIMCHECK
 70
     0
  9
$PEXTMIN
 10
20.000000000000028
 20
16.99999999999994
 30
0.0
  9
$PEXTMAX
 10
404.99999999999977
 20
281.99999999999989
 30
0.0
  9
$PLIMMIN
 10
-7.14373779296875
 20
-7.1437497138977051
  9
$PLIMMAX
 10
413.01458740234369
 20
289.98332548141479
  9
$UNITMODE
 70
     0
  9
$VISRETAIN
 70
     0
  9
$PLINEGEN
 70
     0
  9
$PSLTSCALE
 70
     0
  0
ENDSEC
  0
SECTION
  2
TABLES
  0
TABLE
  2
VPORT
 70
     6
  0
VPORT
  2
*ACTIVE
 70
     0
 10
0.0
 20
0.0
 11
1.0
 21
1.0
 12
488.58979132456352
 22
305.1528636552311
 13
0.0
 23
0.0
 14
168.0
 24
168.0
 15
0.0
 25
0.0
 16
0.0
 26
0.0
 36
1.0
 17
0.0
 27
0.0
 37
0.0
 40
731.79183730648481
 41
1.6020806241872561
 42
50.0
 43
0.0
 44
0.0
 50
0.0
 51
0.0
 71
     0
 72
   100
 73
     1
 74
     0
 75
     0
 76
     0
 77
     0
 78
     1
  0
ENDTAB
  0
TABLE
  2
LTYPE
 70
     3
  0
LTYPE
  2
CONTINUOUS
 70
     0
  3
Solid line
 72
    65
 73
     0
 40
0.0
  0
LTYPE
  2
CENTER
 70
     0
  3
____ _ ____ _ ____ _ ____ _ ____ _ ____ _ ____ 
 72
    65
 73
     4
 40
2.0
 49
1.25
 49
-0.25
 49
0.25
 49
-0.25
  0
ENDTAB
  0
TABLE
  2
LAYER
 70
     8
  0
LAYER
  2
0
 70
     0
 62
     7
  6
CONTINUOUS
  0
LAYER
  2
DEFPOINTS
 70
     0
 62
     7
  6
CONTINUOUS
  0
LAYER
  2
CENTER
 70
     0
 62
     9
  6
CENTER
  0
LAYER
  2
1
 70
     0
 62
     7
  6
CONTINUOUS
  0
ENDTAB
  0
TABLE
  2
STYLE
 70
     5
  0
STYLE
  2
STANDARD
 70
     0
 40
0.0
 41
0.8
 50
0.0
 71
     0
 42
84.175084175084166
  3
TXT
  4
bigfont.shx
  0
STYLE
  2
AD-STANDARD
 70
     0
 40
0.0
 41
0.8
 50
0.0
 71
     0
 42
2.0
  3
C:\Program Files\AutoCAD LT\romans.shx
  4
bigfont.shx
  0
ENDTAB
  0
TABLE
  2
VIEW
 70
     0
  0
ENDTAB
  0
TABLE
  2
UCS
 70
     0
  0
ENDTAB
  0
TABLE
  2
APPID
 70
     5
  0
APPID
  2
ACAD
 70
     0
  0
APPID
  2
CONTENTTABDATA
 70
     0
  0
APPID
  2
CONTENTCURRENTTAB
 70
     0
  0
APPID
  2
CONTENTBLOCKDESCRIPTION
 70
     0
  0
APPID
  2
CONTENTBLOCKICON
 70
     0
  0
ENDTAB
  0
TABLE
  2
DIMSTYLE
 70
     2
  0
DIMSTYLE
  2
STANDARD
 70
     0
  3

  4

  5

  6

  7

 40
1.0
 41
0.18
 42
0.0625
 43
0.38
 44
0.18
 45
0.0
 46
0.0
 47
0.0
 48
0.0
140
0.18
141
0.09
142
0.0
143
25.399999999999999
144
1.0
145
0.0
146
1.0
147
0.09
 71
     0
 72
     0
 73
     1
 74
     1
 75
     0
 76
     0
 77
     0
 78
     0
170
     0
171
     2
172
     0
173
     0
174
     0
175
     0
176
     0
177
     0
178
     0
  0
DIMSTYLE
  2
AD-STANDARD
 70
     0
  3

  4

  5

  6

  7

 40
2.0
 41
2.5
 42
1.0
 43
0.38
 44
2.0
 45
0.0
 46
0.0
 47
0.0
 48
0.0
140
3.5
141
-2.0
142
0.0
143
25.399999999999999
144
1.0
145
0.0
146
1.0
147
0.5
 71
     0
 72
     0
 73
     0
 74
     0
 75
     0
 76
     0
 77
     1
 78
     8
170
     0
171
     2
172
     1
173
     0
174
     0
175
     0
176
     9
177
     9
178
     2
  0
ENDTAB
  0
ENDSEC
  0
SECTION
  2
BLOCKS
  0
BLOCK
  8
0
  2
$MODEL_SPACE
 70
     0
 10
0.0
 20
0.0
 30
0.0
  3
$MODEL_SPACE
  1

  0
ENDBLK
  5
1C
  8
0
  0
BLOCK
 67
     1
  8
0
  2
$PAPER_SPACE
 70
     0
 10
0.0
 20
0.0
 30
0.0
  3
$PAPER_SPACE
  1

  0
ENDBLK
  5
19
 67
     1
  8
0
  0
BLOCK
  8
0
  2
SWS08
 70
     0
 10
0.0
 20
0.0
 30
0.0
  3
SWS08
  1

  0
LINE
  5
6F35
  8
0
 10
-2.0
 20
7.6999999999999877
 30
0.0
 11
-2.0
 21
-7.7000000000000171
 31
0.0
  0
LINE
  5
6F36
  8
0
 10
0.0
 20
7.6999999999999877
 30
0.0
 11
0.0
 21
-7.7000000000000171
 31
0.0
  0
LINE
  5
6F37
  8
0
 10
0.0
 20
-7.7000000000000171
 30
0.0
 11
-2.0
 21
-7.7000000000000171
 31
0.0
  0
LINE
  5
6F38
  8
0
 10
-2.0
 20
-0.6820596645951582
 30
0.0
 11
-0.0000000000000284
 21
-0.1461612797329224
 31
0.0
  0
LINE
  5
6F39
  8
0
 10
-1.9999999999999709
 20
0.1461612797328939
 30
0.0
 11
0.0
 21
0.6820596645951298
 31
0.0
  0
LINE
  5
6F3A
  8
0
 10
0.0
 20
7.6999999999999877
 30
0.0
 11
-2.0
 21
7.6999999999999877
 31
0.0
  0
ENDBLK
  5
6F3C
  8
0
  0
BLOCK
  8
0
  2
*U42
 70
     1
 10
0.0
 20
0.0
 30
0.0
  3
*U42
  1

  0
LINE
  5
7B64
  8
0
 10
72.5
 20
17.0
 30
0.0
 11
105.7
 21
17.0
 31
0.0
  0
TEXT
  5
7B65
  8
0
 10
72.5
 20
17.5
 30
0.0
 40
2.5
  1
 次の寸法は適用範囲外とする｡
 41
0.8
  7
AD-STANDARD
  0
LINE
  5
7B66
  8
0
 10
72.5
 20
12.83333333333333
 30
0.0
 11
92.157142857142858
 21
12.83333333333333
 31
0.0
  0
TEXT
  5
7B67
  8
0
 10
72.5
 20
13.33333333333333
 30
0.0
 40
2.5
  1
  1.突起部の寸法
 41
0.8
  7
AD-STANDARD
  0
LINE
  5
7B68
  8
0
 10
72.5
 20
8.6666666666666679
 30
0.0
 11
106.55714285714279
 21
8.6666666666666679
 31
0.0
  0
TEXT
  5
7B69
  8
0
 10
72.5
 20
9.1666666666666679
 30
0.0
 40
2.5
  1
  2.塗装等の表面処理面の寸法
 41
0.8
  7
AD-STANDARD
  0
LINE
  5
7B6A
  8
0
 10
72.5
 20
4.5
 30
0.0
 11
99.357142857142861
 21
4.5
 31
0.0
  0
TEXT
  5
7B6B
  8
0
 10
72.5
 20
5.0
 30
0.0
 40
2.5
  1
  3.組立て部の合計寸法
 41
0.8
  7
AD-STANDARD
  0
LINE
  5
7B6C
  8
0
 10
72.5
 20
0.3333333333333357
 30
0.0
 11
96.957142857142856
 21
0.3333333333333357
 31
0.0
  0
TEXT
  5
7B6D
  8
0
 10
72.5
 20
0.8333333333333357
 30
0.0
 40
2.5
  1
  4.面取り部分の寸法
 41
0.8
  7
AD-STANDARD
  0
ENDBLK
  5
7B6F
  8
0
  0
BLOCK
  8
0
  2
*U43
 70
     1
 10
0.0
 20
0.0
 30
0.0
  3
*U43
  1

  0
TEXT
  5
7B71
  8
0
 62
     2
 10
-1834.475410954142
 20
359.1088103108047
 30
0.0
 40
7.0
  1
200
 41
0.8
  7
AD-STANDARD
  0
TEXT
  5
7B72
  8
0
 62
     2
 10
-1818.475410954142
 20
360.15881031080471
 30
0.0
 40
4.9000000000000004
  1
±1
 41
0.8
  7
AD-STANDARD
  0
ENDBLK
  5
7B74
  8
0
  0
BLOCK
  8
0
  2
*U44
 70
     1
 10
0.0
 20
0.0
 30
0.0
  3
*U44
  1

  0
TEXT
  5
7B76
  8
0
 62
     2
 10
-1692.4819261534101
 20
246.3543513077795
 30
0.0
 40
7.0
  1
150
 50
90.0
 41
0.8
  7
AD-STANDARD
  0
TEXT
  5
7B77
  8
0
 62
     2
 10
-1693.5319261534089
 20
262.3543513077795
 30
0.0
 40
4.9000000000000004
  1
±1
 50
90.0
 41
0.8
  7
AD-STANDARD
  0
ENDBLK
  5
7B79
  8
0
  0
BLOCK
  8
0
  2
*U45
 70
     1
 10
0.0
 20
0.0
 30
0.0
  3
*U45
  1

  0
TEXT
  5
7B7B
  8
0
 62
     2
 10
-2161.4643353407891
 20
32.33709596252163
 30
0.0
 40
7.0
  1
199
 50
90.0
 41
0.8
  7
AD-STANDARD
  0
TEXT
  5
7B7C
  8
0
 62
     2
 10
-2162.5143353407889
 20
48.33709596252163
 30
0.0
 40
4.9000000000000004
  1
±1
 50
90.0
 41
0.8
  7
AD-STANDARD
  0
ENDBLK
  5
7B7E
  8
0
  0
BLOCK
  8
0
  2
*U46
 70
     1
 10
0.0
 20
0.0
 30
0.0
  3
*U46
  1

  0
TEXT
  5
7BAE
  8
0
 62
     2
 10
-1294.762560769547
 20
-220.9174737977232
 30
0.0
 40
7.0
  1
120
 41
0.8
  7
AD-STANDARD
  0
TEXT
  5
7BAF
  8
0
 62
     2
 10
-1278.762560769547
 20
-219.86747379772319
 30
0.0
 40
4.9000000000000004
  1
±0.5
 41
0.8
  7
AD-STANDARD
  0
ENDBLK
  5
7BB1
  8
0
  0
BLOCK
  8
0
  2
*U47
 70
     1
 10
0.0
 20
0.0
 30
0.0
  3
*U47
  1

  0
TEXT
  5
7BB3
  8
0
 62
     2
 10
-1103.9314314972989
 20
-333.9394771218611
 30
0.0
 40
7.0
  1
120
 50
90.0
 41
0.8
  7
AD-STANDARD
  0
TEXT
  5
7BB4
  8
0
 62
     2
 10
-1104.9814314972989
 20
-317.9394771218611
 30
0.0
 40
4.9000000000000004
  1
±0.5
 50
90.0
 41
0.8
  7
AD-STANDARD
  0
ENDBLK
  5
7BB6
  8
0
  0
BLOCK
  8
0
  2
*U48
 70
     1
 10
0.0
 20
0.0
 30
0.0
  3
*U48
  1

  0
TEXT
  5
7BB8
  8
0
 62
     2
 10
-1083.8775661345101
 20
-609.72270782659245
 30
0.0
 40
7.0
  1
225
 50
90.0
 41
0.8
  7
AD-STANDARD
  0
TEXT
  5
7BB9
  8
0
 62
     2
 10
-1084.92756613451
 20
-593.72270782659257
 30
0.0
 40
4.9000000000000004
  1
±1
 50
90.0
 41
0.8
  7
AD-STANDARD
  0
ENDBLK
  5
7BBB
  8
0
  0
BLOCK
  8
0
  2
*U49
 70
     1
 10
0.0
 20
0.0
 30
0.0
  3
*U49
  1

  0
TEXT
  5
7BBD
  8
0
 62
     2
 10
-1294.3625607695469
 20
-732.34281893901903
 30
0.0
 40
7.0
  1
300
 41
0.8
  7
AD-STANDARD
  0
TEXT
  5
7BBE
  8
0
 62
     2
 10
-1278.3625607695469
 20
-731.29281893901896
 30
0.0
 40
4.9000000000000004
  1
±2.2
 41
0.8
  7
AD-STANDARD
  0
ENDBLK
  5
7BC0
  8
0
  0
BLOCK
  8
0
  2
*U50
 70
     1
 10
0.0
 20
0.0
 30
0.0
  3
*U50
  1

  0
TEXT
  5
7BC2
  8
0
 62
     2
 10
-1294.3625607695469
 20
-464.28416726755131
 30
0.0
 40
7.0
  1
270
 41
0.8
  7
AD-STANDARD
  0
TEXT
  5
7BC3
  8
0
 62
     2
 10
-1278.3625607695469
 20
-463.23416726755119
 30
0.0
 40
4.9000000000000004
  1
±2.2
 41
0.8
  7
AD-STANDARD
  0
ENDBLK
  5
7BC5
  8
0
  0
BLOCK
  8
0
  2
*U51
 70
     1
 10
0.0
 20
0.0
 30
0.0
  3
*U51
  1

  0
TEXT
  5
7BC7
  8
0
 62
     2
 10
-1065.21230878148
 20
-333.9394771218611
 30
0.0
 40
7.0
  1
160
 50
90.0
 41
0.8
  7
AD-STANDARD
  0
TEXT
  5
7BC8
  8
0
 62
     2
 10
-1066.26230878148
 20
-317.9394771218611
 30
0.0
 40
4.9000000000000004
  1
±1.8
 50
90.0
 41
0.8
  7
AD-STANDARD
  0
ENDBLK
  5
7BCA
  8
0
  0
BLOCK
  8
0
  2
*U52
 70
     1
 10
0.0
 20
0.0
 30
0.0
  3
*U52
  1

  0
TEXT
  5
7BCC
  8
0
 62
     2
 10
-1083.8775661345101
 20
-333.93947712186099
 30
0.0
 40
7.0
  1
130
 50
90.0
 41
0.8
  7
AD-STANDARD
  0
TEXT
  5
7BCD
  8
0
 62
     2
 10
-1084.92756613451
 20
-317.93947712186099
 30
0.0
 40
4.9000000000000004
  1
±1.8
 50
90.0
 41
0.8
  7
AD-STANDARD
  0
ENDBLK
  5
7BCF
  8
0
  0
ENDSEC
  0
SECTION
  2
ENTITIES
  0
LINE
  5
7234
  8
1
 10
533.70699028189586
 20
175.9761319741535
 30
0.0
 11
551.20699028189233
 21
175.9761319741535
 31
0.0
  0
LINE
  5
7235
  8
1
 10
539.70699028189642
 20
175.97613197424579
 30
0.0
 11
546.70699028189631
 21
175.97613197424579
 31
0.0
  0
LINE
  5
7236
  8
1
 10
530.70699028189949
 20
176.97613197416621
 30
0.0
 11
598.61652445677566
 21
176.97613197416621
 31
0.0
  0
LINE
  5
7237
  8
1
 10
530.11982170781198
 20
286.97613197423959
 30
0.0
 11
545.61982170781187
 21
286.97613197423982
 31
0.0
  0
LINE
  5
723C
  8
1
 10
546.17145637596263
 20
256.21166588017587
 30
0.0
 11
532.47145637602011
 21
242.5116658802325
 31
0.0
  0
LINE
  5
723D
  8
1
 10
705.56425948243464
 20
317.97613197424153
 30
0.0
 11
439.8497210813502
 21
317.97613197423618
 31
0.0
  0
LINE
  5
723E
  8
1
 10
720.52933871294135
 20
92.976131974241738
 30
0.0
 11
424.88464185085729
 21
92.97613197423675
 31
0.0
  0
LINE
  5
723F
  8
1
 10
702.24997255700191
 20
299.9761319742409
 30
0.0
 11
443.16400800678321
 21
299.97613197423613
 31
0.0
  0
LINE
  5
7240
  8
1
 10
721.37524297172479
 20
110.97613197423991
 30
0.0
 11
424.0387375920659
 21
110.97613197423721
 31
0.0
  0
LINE
  5
7241
  8
1
 10
518.70699028189597
 20
126.9761319742408
 30
0.0
 11
626.70699028189597
 21
126.97613197423939
 31
0.0
  0
LINE
  5
7242
  8
1
 10
541.70699028189642
 20
167.97613197424619
 30
0.0
 11
603.70699028189586
 21
167.9761319742444
 31
0.0
  0
LINE
  5
7243
  8
1
 10
541.70699028189642
 20
169.4761319742463
 30
0.0
 11
603.70699028189642
 21
169.4761319742444
 31
0.0
  0
LINE
  5
7244
  8
1
 10
537.20699028189642
 20
150.47613197424619
 30
0.0
 11
608.20699028189586
 21
150.47613197424579
 31
0.0
  0
LINE
  5
7245
  8
1
 10
538.20699028189642
 20
162.4761319742463
 30
0.0
 11
607.20699028189642
 21
162.4761319742463
 31
0.0
  0
LINE
  5
7246
  8
1
 10
526.00699028188058
 20
179.47613197402251
 30
0.0
 11
619.40699028190761
 21
179.47613197417169
 31
0.0
  0
LINE
  5
7247
  8
1
 10
619.40699028192387
 20
181.17613197424879
 30
0.0
 11
526.00699028189888
 21
181.17613197424879
 31
0.0
  0
LINE
  5
7248
  8
1
 10
626.70699028189381
 20
111.97613197423991
 30
0.0
 11
518.70699028189597
 21
111.9761319742381
 31
0.0
  0
LINE
  5
7249
  8
1
 10
616.7069902818962
 20
298.97613197423988
 30
0.0
 11
528.70699028189574
 21
298.97613197423829
 31
0.0
  0
LINE
  5
724A
  8
1
 10
528.70699028189586
 20
286.97613197424079
 30
0.0
 11
616.70699028189586
 21
286.97613197423959
 31
0.0
  0
LINE
  5
724B
  8
1
 10
527.00699028190252
 20
181.67613197424791
 30
0.0
 11
527.00699028190979
 21
192.34366729141649
 31
0.0
  0
ARC
  5
724C
  8
1
 10
439.09962908689113
 20
182.97615076182251
 30
0.0
 40
5.0
 50
90.0
 51
172.60040712556059
  0
ARC
  5
724D
  8
1
 10
496.31435147690081
 20
182.97615076182251
 30
0.0
 40
5.0
 50
7.3995928744393646
 51
90.0
  0
LINE
  5
724E
  8
1
 10
423.2841727404072
 20
108.5044750465751
 30
0.0
 11
422.88768771575508
 21
97.150629457754135
 31
0.0
  0
ARC
  5
724F
  8
1
 10
428.28112687550259
 20
108.3299775630628
 30
0.0
 40
5.0
 50
148.04649664322139
 51
177.9999999999965
  0
ARC
  5
7250
  8
1
 10
420.05790911048138
 20
114.00152527101901
 30
0.0
 40
5.0
 50
322.76549764503648
 51
352.60040712556059
  0
ARC
  5
7251
  8
1
 10
427.88464185085053
 20
96.976131974241753
 30
0.0
 40
4.9999999999999032
 50
177.9999999999965
 51
233.13010235414811
  0
LINE
  5
7252
  8
1
 10
434.14126869919818
 20
183.62009351219669
 30
0.0
 11
425.0162694981741
 21
113.3575825206451
 31
0.0
  0
ARC
  5
7253
  8
1
 10
526.50699028190252
 20
181.67613197424791
 30
0.0
 40
0.5
 50
270.0
 51
359.99999999994782
  0
LINE
  5
7254
  8
1
 10
526.00699028188058
 20
179.47613197417709
 30
0.0
 11
526.00699028188058
 21
179.97613197417709
 31
0.0
  0
LINE
  5
7255
  8
1
 10
526.5069902818733
 20
179.47613197417709
 30
0.0
 11
526.00699028188058
 21
179.47613197417709
 31
0.0
  0
ARC
  5
7256
  8
1
 10
526.5069902818733
 20
178.97613197417709
 30
0.0
 40
0.5
 50
0.0
 51
90.0
  0
LINE
  5
7257
  8
1
 10
526.00699028189888
 20
181.17613197424879
 30
0.0
 11
526.00699028189695
 21
179.97613197424991
 31
0.0
  0
LINE
  5
7258
  8
1
 10
530.70699028189586
 20
176.9761319741535
 30
0.0
 11
529.00699028187876
 21
176.97613197415259
 31
0.0
  0
ARC
  5
7259
  8
1
 10
530.70699028189949
 20
175.47613197415171
 30
0.0
 40
1.5
 50
66.135074583881718
 51
90.0
  0
ARC
  5
725A
  8
1
 10
529.00699028187705
 20
178.97613197415259
 30
0.0
 40
2.0
 50
180.0
 51
270.0
  0
ARC
  5
725B
  8
1
 10
533.70699028189961
 20
177.9761319741535
 30
0.0
 40
2.0
 50
246.1350745838817
 51
270.0
  0
ARC
  5
725C
  8
1
 10
539.70699028189688
 20
175.47613197424579
 30
0.0
 40
0.5
 50
90.0
 51
180.0
  0
LINE
  5
725D
  8
1
 10
539.20699028189642
 20
171.97613197424579
 30
0.0
 11
539.20699028189642
 21
175.47613197424579
 31
0.0
  0
ARC
  5
725E
  8
1
 10
541.70699028189642
 20
165.4761319742463
 30
0.0
 40
2.5
 50
90.0
 51
180.0
  0
ARC
  5
725F
  8
1
 10
542.45699028189676
 20
168.7261319742463
 30
0.0
 40
0.75
 50
270.0
 51
90.0
  0
LINE
  5
7260
  8
1
 10
538.20699028189642
 20
162.4761319742463
 30
0.0
 11
536.20699028189642
 21
162.4761319742463
 31
0.0
  0
LINE
  5
7261
  8
1
 10
539.20699028189642
 20
163.4761319742463
 30
0.0
 11
539.20699028189642
 21
165.4761319742463
 31
0.0
  0
ARC
  5
7262
  8
1
 10
538.20699028189642
 20
163.47613197424579
 30
0.0
 40
1.0
 50
270.0
 51
0.0
  0
ARC
  5
7263
  8
1
 10
541.70699028189642
 20
171.97613197424579
 30
0.0
 40
2.5
 50
180.0
 51
270.0
  0
LINE
  5
7264
  8
1
 10
532.89782661224785
 20
176.1471283777316
 30
0.0
 11
531.31386303413569
 21
176.8478846714676
 31
0.0
  0
ARC
  5
7265
  8
1
 10
515.0996290868909
 20
115.976131974239
 30
0.0
 40
5.0
 50
187.39959287443929
 51
270.0
  0
ARC
  5
7266
  8
1
 10
526.57996851855432
 20
105.9761319742381
 30
0.0
 40
5.0
 50
2.0000000000034981
 51
90.0
  0
LINE
  5
7267
  8
1
 10
531.57692265364972
 20
106.1506294577509
 30
0.0
 11
531.89120957907539
 21
97.150629457750952
 31
0.0
  0
ARC
  5
7268
  8
1
 10
526.89425544397989
 20
96.976131974238342
 30
0.0
 40
4.9999999999999032
 50
306.86989764584138
 51
2.0000000000034981
  0
LINE
  5
7277
  8
1
 10
518.70699028189597
 20
126.9761319742408
 30
0.0
 11
518.70699028189597
 21
111.9761319742408
 31
0.0
  0
ARC
  5
7278
  8
1
 10
534.70699028189688
 20
150.97613197424579
 30
0.0
 40
0.5
 50
180.0
 51
270.0
  0
LINE
  5
7279
  8
1
 10
537.20699028189642
 20
150.47613197424619
 30
0.0
 11
534.70699028189642
 21
150.47613197424619
 31
0.0
  0
LINE
  5
727A
  8
1
 10
534.20699028189631
 20
150.9761319742463
 30
0.0
 11
534.20699028189631
 21
160.4761319742463
 31
0.0
  0
LINE
  5
727B
  8
1
 10
536.70699028189506
 20
150.47613197424619
 30
0.0
 11
536.70699028189426
 21
138.57613197423979
 31
0.0
  0
ARC
  5
727C
  8
1
 10
515.70699028189574
 20
115.9761319742381
 30
0.0
 40
5.0
 50
270.0
 51
306.8698976458374
  0
ARC
  5
727D
  8
1
 10
498.51972511981393
 20
96.976131974243117
 30
0.0
 40
4.9999999999999032
 50
177.9999999999965
 51
233.13010235414811
  0
LINE
  5
727E
  8
1
 10
493.83705791014432
 20
106.1506294577554
 30
0.0
 11
493.52277098471848
 21
97.150629457755485
 31
0.0
  0
ARC
  5
727F
  8
1
 10
498.83401204523989
 20
105.9761319742431
 30
0.0
 40
5.0
 50
90.0
 51
177.9999999999965
  0
LINE
  5
7280
  8
1
 10
510.14126869919801
 20
115.332189223865
 30
0.0
 11
501.27271186459342
 21
183.62009351219669
 31
0.0
  0
ARC
  5
7281
  8
1
 10
536.20699028189676
 20
160.47613197424579
 30
0.0
 40
2.0
 50
90.0
 51
180.0
  0
LINE
  5
7282
  8
1
 10
495.70699028189591
 20
192.47615076182251
 30
0.0
 11
439.70699028189603
 21
192.47615076182251
 31
0.0
  0
LINE
  5
7283
  8
1
 10
496.31435147690081
 20
187.97615076182251
 30
0.0
 11
439.09962908689113
 21
187.97615076182251
 31
0.0
  0
ARC
  5
7284
  8
1
 10
443.16400800678321
 20
304.97613197423618
 30
0.0
 40
5.0
 50
182.00000000000341
 51
270.0
  0
ARC
  5
7285
  8
1
 10
445.8529072576473
 20
227.97613197424141
 30
0.0
 40
5.0
 50
182.00000000000341
 51
270.0
  0
LINE
  5
7286
  8
1
 10
444.70699028189591
 20
216.47615076182259
 30
0.0
 11
441.1488778991731
 21
214.4218736198506
 31
0.0
  0
ARC
  5
7287
  8
1
 10
447.78840599485369
 20
204.71936611907651
 30
0.0
 40
11.75678464274613
 50
55.615752531961313
 51
124.38424746803859
  0
LINE
  5
7288
  8
1
 10
441.1488778991731
 20
214.4218736198506
 30
0.0
 11
441.1488778991731
 21
192.47615076182251
 31
0.0
  0
LINE
  5
7289
  8
1
 10
439.70699028189603
 20
192.47615076182251
 30
0.0
 11
439.70699028189603
 21
187.97615076182251
 31
0.0
  0
LINE
  5
728A
  8
1
 10
439.70699028189603
 20
232.97613197424141
 30
0.0
 11
440.67525568869451
 21
232.97613197424141
 31
0.0
  0
LINE
  5
728B
  8
1
 10
439.70699028189603
 20
237.47613197424141
 30
0.0
 11
439.70699028189603
 21
232.97613197424141
 31
0.0
  0
LINE
  5
728C
  8
1
 10
440.51811222598172
 20
237.47613197424141
 30
0.0
 11
439.70699028189603
 21
237.47613197424141
 31
0.0
  0
LINE
  5
728D
  8
1
 10
437.85276694626162
 20
313.80163449072887
 30
0.0
 11
440.85595312255191
 21
227.8016344907289
 31
0.0
  0
ARC
  5
728E
  8
1
 10
442.84972108135707
 20
313.9761319742413
 30
0.0
 40
5.0
 50
126.86989764584141
 51
182.00000000000341
  0
LINE
  5
728F
  8
1
 10
530.33711730084474
 20
199.4513624460194
 30
0.0
 11
527.67686326298758
 21
194.84366729141371
 31
0.0
  0
ARC
  5
7290
  8
1
 10
532.00699028190968
 20
192.34366729141189
 30
0.0
 40
5.0
 50
149.99999999998491
 51
179.9999999999479
  0
ARC
  5
7291
  8
1
 10
524.27306347152648
 20
294.97613197423942
 30
0.0
 40
5.0
 50
90.0
 51
174.80557109225811
  0
LINE
  5
7292
  8
1
 10
519.29359743918803
 20
295.42881070445202
 30
0.0
 11
513.1203831246039
 21
227.52345324402879
 31
0.0
  0
ARC
  5
7293
  8
1
 10
508.1409170922654
 20
227.97613197424141
 30
0.0
 40
5.0
 50
270.0
 51
354.80557109225799
  0
LINE
  5
7294
  8
1
 10
531.89120957907539
 20
313.80163449072069
 30
0.0
 11
531.57692265364972
 21
304.80163449072018
 31
0.0
  0
ARC
  5
7295
  8
1
 10
526.57996851855398
 20
304.97613197423283
 30
0.0
 40
5.0
 50
270.0
 51
357.99999999999648
  0
ARC
  5
7296
  8
1
 10
526.89425544398046
 20
313.9761319742334
 30
0.0
 40
4.9999999999994991
 50
357.99999999999648
 51
53.130102354148171
  0
ARC
  5
72A0
  8
1
 10
525.70699028189574
 20
294.97613197423999
 30
0.0
 40
5.0
 50
53.1301023541156
 51
90.0
  0
ARC
  5
72A1
  8
1
 10
536.00699028195345
 20
238.97613197429999
 30
0.0
 40
5.0
 50
134.99999999999071
 51
179.9999999999479
  0
ARC
  5
72A2
  8
1
 10
526.00699028192253
 20
201.95136244601861
 30
0.0
 40
5.0
 50
329.99999999998488
 51
359.99999999994782
  0
LINE
  5
72A3
  8
1
 10
531.00699028195345
 20
238.9761319743036
 30
0.0
 11
531.00699028192275
 21
201.95136244601451
 31
0.0
  0
LINE
  5
72A4
  8
1
 10
528.70699028189574
 20
298.9761319742409
 30
0.0
 11
528.70699028189586
 21
286.9761319742409
 31
0.0
  0
LINE
  5
72A5
  8
1
 10
494.26510266461878
 20
214.4218736198506
 30
0.0
 11
494.26510266461878
 21
192.47615076182251
 31
0.0
  0
LINE
  5
72A6
  8
1
 10
480.98604647325732
 20
214.4218736198506
 30
0.0
 11
480.98604647325732
 21
192.47615076182251
 31
0.0
  0
LINE
  5
72A7
  8
1
 10
454.42793409053462
 20
214.4218736198506
 30
0.0
 11
454.42793409053462
 21
192.47615076182251
 31
0.0
  0
LINE
  5
72A8
  8
1
 10
495.70699028189591
 20
192.47615076182251
 30
0.0
 11
495.70699028189591
 21
187.97615076182251
 31
0.0
  0
LINE
  5
72A9
  8
1
 10
452.70699028189608
 20
216.47615076182259
 30
0.0
 11
452.70699028189608
 21
222.97613197424141
 31
0.0
  0
LINE
  5
72AA
  8
1
 10
482.70699028189568
 20
216.47615076182259
 30
0.0
 11
482.70699028189568
 21
222.97613197424141
 31
0.0
  0
LINE
  5
72AB
  8
1
 10
490.70699028189591
 20
216.47615076182259
 30
0.0
 11
444.70699028189591
 21
216.47615076182259
 31
0.0
  0
ARC
  5
72AC
  8
1
 10
467.7069902818962
 20
172.53042790379541
 30
0.0
 40
43.945722858027153
 50
72.412046226009537
 51
107.58795377399041
  0
ARC
  5
72AD
  8
1
 10
487.62557456893808
 20
204.71936611907651
 30
0.0
 40
11.75678464274613
 50
55.615752531961313
 51
124.38424746803859
  0
LINE
  5
72AE
  8
1
 10
490.70699028189591
 20
216.47615076182259
 30
0.0
 11
494.26510266461878
 21
214.4218736198506
 31
0.0
  0
LINE
  5
72AF
  8
1
 10
493.52277098471848
 20
313.80163449072518
 30
0.0
 11
493.83705791014432
 21
304.80163449072478
 31
0.0
  0
ARC
  5
72B0
  8
1
 10
498.51972511981347
 20
313.97613197423777
 30
0.0
 40
4.9999999999994991
 50
126.86989764585179
 51
182.00000000000341
  0
LINE
  5
72B1
  8
1
 10
508.1409170922654
 20
222.97613197424141
 30
0.0
 11
445.8529072576473
 21
222.97613197424141
 31
0.0
  0
ARC
  5
72B2
  8
1
 10
498.83401204523989
 20
304.97613197423732
 30
0.0
 40
5.0
 50
182.00000000000341
 51
270.0
  0
ARC
  5
72B3
  8
1
 10
706.31435147690104
 20
182.97615076182251
 30
0.0
 40
5.0
 50
7.3995928744393646
 51
90.0
  0
ARC
  5
72B4
  8
1
 10
649.09962908689113
 20
182.97615076182251
 30
0.0
 40
5.0
 50
90.0
 51
172.60040712556059
  0
LINE
  5
72B5
  8
1
 10
618.40699028192216
 20
181.6761319742424
 30
0.0
 11
618.40699028191489
 21
192.34366729141649
 31
0.0
  0
ARC
  5
72B6
  8
1
 10
646.57996851855205
 20
105.9761319742431
 30
0.0
 40
5.0
 50
2.0000000000034981
 51
90.0
  0
LINE
  5
72B7
  8
1
 10
619.40699028190761
 20
179.47613197417169
 30
0.0
 11
619.40699028190761
 21
179.97613197417169
 31
0.0
  0
ARC
  5
72B8
  8
1
 10
618.906990281915
 20
178.9761319741699
 30
0.0
 40
0.5
 50
90.0
 51
180.0
  0
LINE
  5
72B9
  8
1
 10
619.40699028192387
 20
181.17613197424339
 30
0.0
 11
619.4069902819258
 21
179.9761319742444
 31
0.0
  0
ARC
  5
72BA
  8
1
 10
618.90699028192228
 20
181.6761319742424
 30
0.0
 40
0.5
 50
180.0000000000521
 51
270.0
  0
ARC
  5
72BB
  8
1
 10
614.70699028190529
 20
175.47613197416621
 30
0.0
 40
1.5
 50
90.0
 51
113.8649254161182
  0
ARC
  5
72BC
  8
1
 10
616.40699028191148
 20
178.97613197416621
 30
0.0
 40
2.0
 50
270.0
 51
0.0
  0
ARC
  5
72BD
  8
1
 10
611.70699028189983
 20
177.97613197416621
 30
0.0
 40
2.0
 50
270.0
 51
293.86492541611818
  0
ARC
  5
72BE
  8
1
 10
605.7069902818962
 20
175.47613197424579
 30
0.0
 40
0.5
 50
0.0
 51
90.0
  0
LINE
  5
72BF
  8
1
 10
606.20699028189597
 20
171.97613197424579
 30
0.0
 11
606.20699028189597
 21
175.47613197424579
 31
0.0
  0
ARC
  5
72C0
  8
1
 10
602.9569902818962
 20
168.72613197424491
 30
0.0
 40
0.75
 50
90.0
 51
270.0
  0
ARC
  5
72C1
  8
1
 10
603.7069902818962
 20
165.47613197424491
 30
0.0
 40
2.5
 50
359.99999999998693
 51
90.0
  0
ARC
  5
72C2
  8
1
 10
607.20699028189665
 20
163.47613197424579
 30
0.0
 40
1.0
 50
180.0
 51
270.0
  0
LINE
  5
72C3
  8
1
 10
606.20699028189597
 20
163.4761319742463
 30
0.0
 11
606.20699028189642
 21
165.4761319742463
 31
0.0
  0
LINE
  5
72C4
  8
1
 10
607.20699028189642
 20
162.47613197424579
 30
0.0
 11
609.20699028189586
 21
162.47613197424579
 31
0.0
  0
ARC
  5
72C5
  8
1
 10
603.70699028189665
 20
171.97613197424491
 30
0.0
 40
2.5
 50
270.0
 51
0.0
  0
LINE
  5
72C6
  8
1
 10
612.51615395154772
 20
176.14712837774431
 30
0.0
 11
614.10011752966705
 21
176.84788467148221
 31
0.0
  0
ARC
  5
72C7
  8
1
 10
630.31435147690104
 20
115.976131974239
 30
0.0
 40
5.0
 50
270.0
 51
352.60040712556059
  0
LINE
  5
72CD
  8
1
 10
604.79415885598007
 20
126.97613197423991
 30
0.0
 11
620.29415885598007
 21
126.97613197423971
 31
0.0
  0
LINE
  5
72D6
  8
1
 10
626.70699028189597
 20
126.97613197423991
 30
0.0
 11
626.70699028189597
 21
111.9761319742408
 31
0.0
  0
ARC
  5
72D7
  8
1
 10
610.70699028189665
 20
150.97613197424579
 30
0.0
 40
0.5
 50
270.0
 51
0.0
  0
LINE
  5
72D8
  8
1
 10
608.20699028189586
 20
150.47613197424579
 30
0.0
 11
610.70699028189597
 21
150.47613197424579
 31
0.0
  0
LINE
  5
72D9
  8
1
 10
611.20699028189597
 20
150.97613197424579
 30
0.0
 11
611.20699028189597
 21
160.47613197424579
 31
0.0
  0
LINE
  5
72DA
  8
1
 10
608.70699028189495
 20
150.47613197424579
 30
0.0
 11
608.70699028189415
 21
138.57613197423979
 31
0.0
  0
ARC
  5
72DB
  8
1
 10
629.7069902818962
 20
115.9761319742381
 30
0.0
 40
5.0
 50
233.1301023541624
 51
270.0
  0
ARC
  5
72DC
  8
1
 10
618.51972511981194
 20
96.976131974238342
 30
0.0
 40
4.9999999999999032
 50
177.9999999999965
 51
233.13010235414811
  0
LINE
  5
72DD
  8
1
 10
613.83705791014222
 20
106.1506294577509
 30
0.0
 11
613.52277098471654
 21
97.150629457750952
 31
0.0
  0
ARC
  5
72DE
  8
1
 10
618.83401204523761
 20
105.9761319742381
 30
0.0
 40
5.0
 50
90.0
 51
177.9999999999965
  0
LINE
  5
72DF
  8
1
 10
635.2727118645937
 20
115.332189223865
 30
0.0
 11
644.14126869919835
 21
183.62009351219669
 31
0.0
  0
ARC
  5
72E0
  8
1
 10
609.20699028189665
 20
160.47613197424579
 30
0.0
 40
2.0
 50
0.0
 51
90.0
  0
LINE
  5
72E1
  8
1
 10
546.70699028189631
 20
175.97613197424579
 30
0.0
 11
598.70699028189597
 21
175.97613197424579
 31
0.0
  0
LINE
  5
72E2
  8
1
 10
551.20699028189233
 20
162.47613197424539
 30
0.0
 11
594.20699028189597
 21
162.47613197424261
 31
0.0
  0
LINE
  5
72F0
  8
1
 10
598.61652445676839
 20
176.97613197416621
 30
0.0
 11
616.40699028191125
 21
176.97613197416621
 31
0.0
  0
LINE
  5
72F1
  8
1
 10
605.70699028189586
 20
175.97613197424579
 30
0.0
 11
598.70699028189597
 21
175.97613197424579
 31
0.0
  0
LINE
  5
72F2
  8
1
 10
551.20699028189051
 20
175.97613197416621
 30
0.0
 11
611.70699028189961
 21
175.97613197416621
 31
0.0
  0
ARC
  5
72F3
  8
1
 10
725.35607145331039
 20
114.00152527101901
 30
0.0
 40
5.0
 50
187.39959287443929
 51
217.23450235496341
  0
ARC
  5
72F4
  8
1
 10
717.13285368828917
 20
108.3299775630628
 30
0.0
 40
5.0
 50
2.0000000000034981
 51
31.953503356778519
  0
ARC
  5
72F5
  8
1
 10
717.52933871294147
 20
96.976131974241753
 30
0.0
 40
4.9999999999999032
 50
306.86989764584138
 51
2.0000000000034981
  0
LINE
  5
72F6
  8
1
 10
722.12980782338491
 20
108.5044750465751
 30
0.0
 11
722.52629284803675
 21
97.150629457754135
 31
0.0
  0
LINE
  5
72F7
  8
1
 10
651.57692265364767
 20
106.1506294577554
 30
0.0
 11
651.89120957907335
 21
97.150629457755485
 31
0.0
  0
ARC
  5
72F8
  8
1
 10
646.89425544397795
 20
96.976131974243117
 30
0.0
 40
4.9999999999999032
 50
306.86989764584138
 51
2.0000000000034981
  0
LINE
  5
72F9
  8
1
 10
711.27271186459393
 20
183.62009351219669
 30
0.0
 11
720.39771106561807
 21
113.3575825206451
 31
0.0
  0
ARC
  5
72FA
  8
1
 10
646.579968518545
 20
304.97613197423732
 30
0.0
 40
5.0
 50
270.0
 51
357.99999999999648
  0
LINE
  5
72FB
  8
1
 10
637.27306347152671
 20
222.9761319742415
 30
0.0
 11
699.56107330614464
 21
222.97613197424141
 31
0.0
  0
LINE
  5
72FC
  8
1
 10
613.5227709847095
 20
313.80163449072069
 30
0.0
 11
613.83705791013506
 21
304.80163449072018
 31
0.0
  0
ARC
  5
72FD
  8
1
 10
618.83401204523068
 20
304.97613197423283
 30
0.0
 40
5.0
 50
182.00000000000341
 51
270.0
  0
ARC
  5
72FE
  8
1
 10
618.51972511980443
 20
313.9761319742334
 30
0.0
 40
4.9999999999994991
 50
126.86989764585179
 51
182.00000000000341
  0
LINE
  5
72FF
  8
1
 10
615.07686326297994
 20
199.4513624460194
 30
0.0
 11
617.7371173008371
 21
194.84366729141371
 31
0.0
  0
ARC
  5
7300
  8
1
 10
613.40699028191511
 20
192.34366729141189
 30
0.0
 40
5.0
 50
0.0000000000521102
 51
30.000000000015081
  0
ARC
  5
7301
  8
1
 10
637.27306347152671
 20
227.97613197424141
 30
0.0
 40
5.0
 50
185.19442890774189
 51
270.0
  0
ARC
  5
7302
  8
1
 10
621.14091709226568
 20
294.97613197423942
 30
0.0
 40
5.0
 50
5.1944289077418819
 51
90.0
  0
ARC
  5
730A
  8
1
 10
619.70699028189608
 20
294.97613197423999
 30
0.0
 40
5.0
 50
90.0
 51
126.8698976458374
  0
ARC
  5
730B
  8
1
 10
609.40699028183872
 20
238.97613197429999
 30
0.0
 40
5.0
 50
0.0000000000521102
 51
45.000000000009209
  0
ARC
  5
730C
  8
1
 10
619.40699028190227
 20
201.95136244601861
 30
0.0
 40
5.0
 50
180.0000000000521
 51
210.00000000001509
  0
LINE
  5
730D
  8
1
 10
614.40699028190761
 20
207.67613197415159
 30
0.0
 11
614.40699028187476
 21
238.97613197430459
 31
0.0
  0
LINE
  5
730E
  8
1
 10
614.40699028190386
 20
201.9513624460167
 30
0.0
 11
614.40699028190033
 21
207.6761319741525
 31
0.0
  0
LINE
  5
7317
  8
1
 10
616.7069902818962
 20
298.9761319742409
 30
0.0
 11
616.70699028189586
 21
286.97613197423959
 31
0.0
  0
LINE
  5
7318
  8
1
 10
626.12038312460413
 20
295.42881070445202
 30
0.0
 11
632.29359743918815
 21
227.52345324402879
 31
0.0
  0
ARC
  5
7319
  8
1
 10
572.70699028191075
 20
213.7681366852465
 30
0.0
 40
21.424469393830019
 50
218.29524487041209
 51
321.7047551296244
  0
LINE
  5
731B
  8
1
 10
533.78007574563765
 20
286.97613197423959
 30
0.0
 11
533.78007574563765
 21
285.37613197423929
 31
0.0
  0
ARC
  5
731C
  8
1
 10
559.88565475391943
 20
203.50016210078209
 30
0.0
 40
5.0
 50
180.0
 51
216.9998817881303
  0
ARC
  5
731D
  8
1
 10
549.7069902818962
 20
252.67613197424251
 30
0.0
 40
5.0
 50
90.0
 51
134.99999999999071
  0
ARC
  5
731E
  8
1
 10
555.30699028189474
 20
258.87613197424957
 30
0.0
 40
0.4
 50
270.0
 51
0.0
  0
LINE
  5
731F
  8
1
 10
553.70699028189586
 20
258.47613197424909
 30
0.0
 11
553.70699028189586
 21
257.67613197424441
 31
0.0
  0
LINE
  5
7320
  8
1
 10
555.70699028189586
 20
263.97613197424732
 30
0.0
 11
555.70699028189586
 21
258.87613197424872
 31
0.0
  0
ARC
  5
7321
  8
1
 10
559.88565475393762
 20
203.50016210078121
 30
0.0
 40
5.0
 50
180.0
 51
216.9998817880834
  0
ARC
  5
7322
  8
1
 10
559.88565475391943
 20
233.97613197430371
 30
0.0
 40
5.0
 50
90.0
 51
180.0
  0
LINE
  5
7323
  8
1
 10
554.88565475393921
 20
203.50016210078121
 30
0.0
 11
554.88565475393921
 21
233.9050641624388
 31
0.0
  0
LINE
  5
7324
  8
1
 10
546.70699028189586
 20
264.97613197424732
 30
0.0
 11
547.70699028189597
 21
263.97613197424732
 31
0.0
  0
LINE
  5
7325
  8
1
 10
546.70699028189586
 20
275.3761319742398
 30
0.0
 11
546.70699028189586
 21
264.97613197424732
 31
0.0
  0
LINE
  5
7326
  8
1
 10
549.28007574563765
 20
286.97613197423959
 30
0.0
 11
549.28007574563765
 21
285.37613197423968
 31
0.0
  0
ARC
  5
7327
  8
1
 10
585.52832580986569
 20
203.500162100784
 30
0.0
 40
5.0
 50
323.00011821201821
 51
0.0
  0
ARC
  5
7328
  8
1
 10
590.10699028189401
 20
258.87613197424957
 30
0.0
 40
0.4
 50
180.0
 51
270.0
  0
LINE
  5
7329
  8
1
 10
591.70699028189586
 20
258.47613197424909
 30
0.0
 11
591.70699028189779
 21
257.67613197425072
 31
0.0
  0
LINE
  5
732A
  8
1
 10
589.70699028189597
 20
263.97613197424732
 30
0.0
 11
589.70699028189597
 21
258.87613197424872
 31
0.0
  0
ARC
  5
732B
  8
1
 10
585.52832580988388
 20
203.500162100784
 30
0.0
 40
5.0
 50
323.00011821191652
 51
0.0
  0
ARC
  5
732C
  8
1
 10
585.5283258098674
 20
233.97613197430371
 30
0.0
 40
5.0
 50
0.0
 51
90.0
  0
LINE
  5
732D
  8
1
 10
590.52832580988365
 20
203.500162100784
 30
0.0
 11
590.52832580988365
 21
233.9050641624388
 31
0.0
  0
ARC
  5
732E
  8
1
 10
595.70699028189426
 20
252.67613197424251
 30
0.0
 40
5.0
 50
45.000000000009209
 51
90.0
  0
LINE
  5
732F
  8
1
 10
598.70699028189597
 20
264.97613197424732
 30
0.0
 11
597.70699028189597
 21
263.97613197424732
 31
0.0
  0
LINE
  5
7330
  8
1
 10
598.70699028189597
 20
275.37613197424002
 30
0.0
 11
598.70699028189597
 21
264.97613197424732
 31
0.0
  0
INSERT
  5
7331
  8
1
  2
SWS08
 10
541.53007574563765
 20
283.37613197423968
 30
0.0
 50
270.0
  0
LINE
  5
7332
  8
1
 10
549.28007574563765
 20
285.37613197423929
 30
0.0
 11
533.78007574563765
 21
285.37613197423968
 31
0.0
  0
LINE
  5
7333
  8
1
 10
549.28007574563765
 20
286.97613197423959
 30
0.0
 11
533.78007574563765
 21
286.97613197423959
 31
0.0
  0
LINE
  5
7334
  8
1
 10
595.70699028189233
 20
257.67613197424981
 30
0.0
 11
549.70699028189586
 21
257.6761319742435
 31
0.0
  0
LINE
  5
7335
  8
1
 10
547.70699028189597
 20
263.97613197424732
 30
0.0
 11
597.70699028189597
 21
263.97613197424732
 31
0.0
  0
LINE
  5
7336
  8
1
 10
598.70699028189597
 20
264.97613197424732
 30
0.0
 11
546.70699028189586
 21
264.97613197424732
 31
0.0
  0
LINE
  5
7337
  8
1
 10
559.8856547539192
 20
238.9761319743036
 30
0.0
 11
585.52832580986728
 21
238.97613197430459
 31
0.0
  0
LINE
  5
7338
  8
1
 10
553.70699028189586
 20
258.47613197424732
 30
0.0
 11
591.70699028189586
 21
258.47613197424909
 31
0.0
  0
LINE
  5
7339
  8
1
 10
561.93038067810369
 20
201.95136244601591
 30
0.0
 11
583.84756953862336
 21
201.95136244601591
 31
0.0
  0
LINE
  5
733A
  8
1
  6
CONTINUOUS
 10
534.88391446590504
 20
283.37613197423968
 30
0.0
 11
547.88391446590504
 21
283.37613197423968
 31
0.0
  0
LINE
  5
733B
  8
1
  6
CONTINUOUS
 10
535.74994027347384
 20
275.3761319742398
 30
0.0
 11
547.01788865833566
 21
275.3761319742398
 31
0.0
  0
LINE
  5
733C
  8
1
  6
CONTINUOUS
 10
547.88391446590504
 20
283.37613197423968
 30
0.0
 11
547.88391446590504
 21
275.8761319742398
 31
0.0
  0
LINE
  5
733D
  8
1
  6
CONTINUOUS
 10
544.63391446590504
 20
275.8761319742398
 30
0.0
 11
547.88391446590504
 21
275.8761319742398
 31
0.0
  0
LINE
  5
733E
  8
1
  6
CONTINUOUS
 10
547.88391446590504
 20
275.8761319742398
 30
0.0
 11
547.01788865833566
 21
275.3761319742398
 31
0.0
  0
LINE
  5
733F
  8
1
  6
CONTINUOUS
 10
534.88391446590504
 20
275.8761319742398
 30
0.0
 11
538.13391446590504
 21
275.8761319742398
 31
0.0
  0
LINE
  5
7340
  8
1
  6
CONTINUOUS
 10
534.88391446590504
 20
275.8761319742398
 30
0.0
 11
535.74994027347384
 21
275.3761319742398
 31
0.0
  0
LINE
  5
7341
  8
1
  6
CONTINUOUS
 10
534.88391446590504
 20
283.37613197423968
 30
0.0
 11
534.88391446590504
 21
275.8761319742398
 31
0.0
  0
LINE
  5
7344
  8
1
 10
615.29415885598007
 20
286.97613197423959
 30
0.0
 11
599.79415885598007
 21
286.97613197423982
 31
0.0
  0
LINE
  5
7348
  8
1
 10
599.24252418782737
 20
256.21166588017587
 30
0.0
 11
612.94252418777
 21
242.5116658802325
 31
0.0
  0
ARC
  5
7349
  8
1
 10
702.24997255700168
 20
304.97613197423618
 30
0.0
 40
5.0
 50
270.0
 51
357.99999999999648
  0
LINE
  5
734A
  8
1
 10
651.89120957906619
 20
313.80163449072518
 30
0.0
 11
651.57692265364062
 21
304.80163449072478
 31
0.0
  0
ARC
  5
734B
  8
1
 10
646.89425544397125
 20
313.97613197423777
 30
0.0
 40
4.9999999999994991
 50
357.99999999999648
 51
53.130102354148171
  0
LINE
  5
734C
  8
1
 10
704.26510266461867
 20
214.4218736198506
 30
0.0
 11
704.26510266461901
 21
192.47615076182251
 31
0.0
  0
LINE
  5
734D
  8
1
 10
705.7069902818962
 20
192.47615076182251
 30
0.0
 11
705.7069902818962
 21
187.97615076182251
 31
0.0
  0
ARC
  5
734E
  8
1
 10
702.56425948243475
 20
313.9761319742413
 30
0.0
 40
5.0
 50
357.99999999999648
 51
53.130102354158581
  0
LINE
  5
734F
  8
1
 10
707.56121361753026
 20
313.80163449072882
 30
0.0
 11
704.55802744124026
 21
227.8016344907289
 31
0.0
  0
LINE
  5
7350
  8
1
 10
705.70699028189586
 20
237.47613197424141
 30
0.0
 11
705.70699028189586
 21
232.97613197424141
 31
0.0
  0
LINE
  5
7351
  8
1
 10
690.98604647325737
 20
214.4218736198506
 30
0.0
 11
690.9860464732576
 21
192.47615076182251
 31
0.0
  0
LINE
  5
7352
  8
1
 10
664.42793409053445
 20
214.4218736198506
 30
0.0
 11
664.42793409053445
 21
192.47615076182251
 31
0.0
  0
LINE
  5
7353
  8
1
 10
651.14887789917339
 20
214.4218736198506
 30
0.0
 11
651.14887789917304
 21
192.47615076182251
 31
0.0
  0
LINE
  5
7354
  8
1
 10
649.7069902818962
 20
192.47615076182251
 30
0.0
 11
649.7069902818962
 21
187.97615076182251
 31
0.0
  0
LINE
  5
7355
  8
1
 10
692.70699028189586
 20
216.47615076182259
 30
0.0
 11
692.70699028189586
 21
222.9761319742415
 31
0.0
  0
LINE
  5
7356
  8
1
 10
662.7069902818962
 20
216.47615076182259
 30
0.0
 11
662.7069902818962
 21
222.97613197424141
 31
0.0
  0
ARC
  5
7357
  8
1
 10
677.70699028189597
 20
172.53042790379541
 30
0.0
 40
43.945722858027153
 50
72.412046226009537
 51
107.58795377399041
  0
ARC
  5
7358
  8
1
 10
657.78840599485386
 20
204.71936611907651
 30
0.0
 40
11.75678464274613
 50
55.615752531961313
 51
124.38424746803859
  0
LINE
  5
7359
  8
1
 10
654.7069902818962
 20
216.47615076182259
 30
0.0
 11
651.14887789917339
 21
214.4218736198506
 31
0.0
  0
LINE
  5
735A
  8
1
 10
654.7069902818962
 20
216.47615076182259
 30
0.0
 11
700.70699028189586
 21
216.47615076182259
 31
0.0
  0
ARC
  5
735B
  8
1
 10
699.56107330614464
 20
227.97613197424141
 30
0.0
 40
5.0
 50
270.0
 51
357.99999999999648
  0
LINE
  5
735C
  8
1
 10
700.70699028189586
 20
216.47615076182259
 30
0.0
 11
704.26510266461867
 21
214.4218736198506
 31
0.0
  0
ARC
  5
735D
  8
1
 10
697.62557456893819
 20
204.71936611907651
 30
0.0
 40
11.75678464274613
 50
55.615752531961313
 51
124.38424746803859
  0
LINE
  5
735E
  8
1
 10
704.8958683378105
 20
237.47613197424141
 30
0.0
 11
705.70699028189586
 21
237.47613197424141
 31
0.0
  0
LINE
  5
735F
  8
1
 10
649.7069902818962
 20
192.47615076182251
 30
0.0
 11
705.7069902818962
 21
192.47615076182251
 31
0.0
  0
LINE
  5
7360
  8
1
 10
649.09962908689113
 20
187.97615076182251
 30
0.0
 11
706.31435147690104
 21
187.97615076182251
 31
0.0
  0
LINE
  5
7361
  8
1
 10
704.73872487509755
 20
232.97613197424141
 30
0.0
 11
705.70699028189586
 21
232.97613197424141
 31
0.0
  0
LINE
  5
7363
  8
1
 10
609.79411180711566
 20
550.01936267897361
 30
0.0
 11
535.61986875667685
 21
550.01936267897304
 31
0.0
  0
LINE
  5
7364
  8
1
 10
537.20188770972936
 20
425.01936267897389
 30
0.0
 11
608.21209285406303
 21
425.01936267897389
 31
0.0
  0
LINE
  5
7365
  8
1
 10
609.79411180711566
 20
420.0193626789731
 30
0.0
 11
583.00074028189283
 21
420.01936267897321
 31
0.0
  0
LINE
  5
7366
  8
1
 10
537.20188770972936
 20
545.01936267897304
 30
0.0
 11
608.2120928540628
 21
545.01936267897304
 31
0.0
  0
LINE
  5
7367
  8
1
 10
442.70699028189711
 20
465.01936267897349
 30
0.0
 11
452.69588328296572
 21
465.01936267897349
 31
0.0
  0
LINE
  5
7368
  8
1
 10
442.7069902818975
 20
505.01936267897338
 30
0.0
 11
452.69588328296589
 21
505.01936267897338
 31
0.0
  0
LINE
  5
7369
  8
1
 10
467.7069902818962
 20
443.01936267897338
 30
0.0
 11
437.7069902818975
 21
443.01936267897338
 31
0.0
  0
LINE
  5
736A
  8
1
 10
467.7069902818962
 20
450.01936267897349
 30
0.0
 11
437.7069902818975
 21
450.01936267897349
 31
0.0
  0
POLYLINE
  5
736B
  8
1
 66
     1
 10
0.0
 20
0.0
 30
0.0
 70
     1
  0
VERTEX
  5
7B9F
  8
1
 10
480.98604647325732
 20
508.01936267897361
 30
0.0
  0
VERTEX
  5
7BA0
  8
1
 10
494.26510266461889
 20
485.01936267897361
 30
0.0
  0
VERTEX
  5
7BA1
  8
1
 10
480.9860464732576
 20
462.01936267897361
 30
0.0
  0
VERTEX
  5
7BA2
  8
1
 10
454.42793409053468
 20
462.01936267897349
 30
0.0
  0
VERTEX
  5
7BA3
  8
1
 10
441.14887789917333
 20
485.01936267897338
 30
0.0
  0
VERTEX
  5
7BA4
  8
1
 10
454.42793409053462
 20
508.01936267897349
 30
0.0
  0
SEQEND
  5
7BA5
  8
1
  0
LINE
  5
736C
  8
1
 10
488.21209285406479
 20
425.01936267897389
 30
0.0
 11
442.70699028189711
 21
425.01936267897361
 31
0.0
  0
LINE
  5
736D
  8
1
 10
467.70699028189591
 20
527.01936267897338
 30
0.0
 11
437.7069902818975
 21
527.01936267897338
 31
0.0
  0
LINE
  5
736E
  8
1
 10
467.70699028189591
 20
520.01936267897349
 30
0.0
 11
437.7069902818975
 21
520.01936267897349
 31
0.0
  0
LINE
  5
736F
  8
1
 10
488.21209285406479
 20
545.01936267897304
 30
0.0
 11
442.70699028189711
 21
545.01936267897315
 31
0.0
  0
ARC
  5
7370
  8
1
 10
467.7069902818962
 20
485.01936267897338
 30
0.0
 40
35.0
 50
270.0
 51
90.0
  0
ARC
  5
7371
  8
1
 10
467.7069902818962
 20
485.01936267897338
 30
0.0
 40
42.0
 50
270.0
 51
90.0
  0
ARC
  5
7372
  8
1
 10
467.7069902818962
 20
485.01936267897338
 30
0.0
 40
45.0
 50
131.81031489577009
 51
228.1896851042298
  0
ARC
  5
7373
  8
1
 10
467.7069902818962
 20
485.01936267897338
 30
0.0
 40
43.0
 50
134.2407187901907
 51
225.75928120980919
  0
LINE
  5
7374
  8
1
 10
437.7069902818975
 20
540.01936267897315
 30
0.0
 11
437.7069902818975
 21
510.01936267897338
 31
0.0
  0
ARC
  5
7375
  8
1
 10
442.70699028189711
 20
460.01936267897338
 30
0.0
 40
5.0
 50
90.0
 51
180.0
  0
ARC
  5
7376
  8
1
 10
442.7069902818975
 20
510.01936267897338
 30
0.0
 40
5.0
 50
180.0
 51
270.0
  0
LINE
  5
7377
  8
1
 10
437.70699028189711
 20
460.01936267897338
 30
0.0
 11
437.70699028189711
 21
430.01936267897389
 31
0.0
  0
ARC
  5
7378
  8
1
 10
442.70699028189711
 20
430.01936267897372
 30
0.0
 40
5.0
 50
180.0
 51
270.0
  0
ARC
  5
7379
  8
1
 10
442.70699028189711
 20
540.01936267897315
 30
0.0
 40
5.0
 50
90.0
 51
180.0
  0
CIRCLE
  5
7386
  8
1
 10
512.70699028189711
 20
545.01936267897315
 30
0.0
 40
9.0
  0
ARC
  5
7387
  8
1
 10
537.20188770972936
 20
550.01936267897304
 30
0.0
 40
5.0
 50
191.53695903281809
 51
270.0
  0
ARC
  5
7388
  8
1
 10
535.61986875667662
 20
555.01936267897304
 30
0.0
 40
5.0
 50
203.57817847819521
 51
270.0
  0
CIRCLE
  5
7389
  8
1
 10
467.7069902818962
 20
485.01936267897338
 30
0.0
 40
23.0
  0
ARC
  5
738A
  8
1
 10
488.21209285406479
 20
550.01936267897304
 30
0.0
 40
5.0
 50
270.0
 51
348.46304096718183
  0
ARC
  5
738B
  8
1
 10
512.70699028189711
 20
545.01936267897304
 30
0.0
 40
20.000000000000451
 50
11.53695903281813
 51
168.4630409671818
  0
ARC
  5
738C
  8
1
 10
535.61986875667662
 20
415.01936267897378
 30
0.0
 40
5.0
 50
90.0
 51
156.4218215218047
  0
ARC
  5
738D
  8
1
 10
512.70699028189711
 20
425.01936267897378
 30
0.0
 40
20.000000000000451
 50
191.53695903281809
 51
348.46304096718183
  0
ARC
  5
738E
  8
1
 10
488.21209285406479
 20
420.01936267897389
 30
0.0
 40
5.0
 50
11.53695903281813
 51
90.0
  0
CIRCLE
  5
738F
  8
1
 10
512.70699028189711
 20
425.01936267897361
 30
0.0
 40
9.0
  0
ARC
  5
7390
  8
1
 10
537.20188770972936
 20
420.01936267897389
 30
0.0
 40
5.0
 50
90.0
 51
168.4630409671818
  0
ARC
  5
7391
  8
1
 10
632.70699028189517
 20
545.01936267897304
 30
0.0
 40
20.000000000000512
 50
11.53695903281813
 51
168.4630409671818
  0
ARC
  5
7392
  8
1
 10
677.70699028189608
 20
485.01936267897338
 30
0.0
 40
42.0
 50
90.0
 51
270.0
  0
ARC
  5
7393
  8
1
 10
677.70699028189608
 20
485.01936267897338
 30
0.0
 40
35.0
 50
90.0
 51
270.0
  0
ARC
  5
7394
  8
1
 10
632.70699028189495
 20
425.01936267897361
 30
0.0
 40
20.000000000000451
 50
191.53695903281809
 51
348.46304096718183
  0
CIRCLE
  5
73C3
  8
1
 10
632.70699028189517
 20
545.01936267897304
 30
0.0
 40
9.0
  0
ARC
  5
73C4
  8
1
 10
608.2120928540628
 20
550.01936267897304
 30
0.0
 40
5.0
 50
270.0
 51
348.46304096718183
  0
ARC
  5
73C5
  8
1
 10
609.79411180711566
 20
555.01936267897338
 30
0.0
 40
5.0
 50
270.0
 51
336.42182152179282
  0
ARC
  5
73C6
  8
1
 10
609.79411180711554
 20
415.0193626789731
 30
0.0
 40
5.0
 50
23.57817847820715
 51
90.0
  0
CIRCLE
  5
73C7
  8
1
 10
632.70699028189517
 20
425.01936267897361
 30
0.0
 40
9.0
  0
ARC
  5
73C8
  8
1
 10
608.21209285406303
 20
420.01936267897389
 30
0.0
 40
5.0
 50
11.53695903281813
 51
90.0
  0
LINE
  5
73CA
  8
1
 10
707.70699028189426
 20
540.01936267897315
 30
0.0
 11
707.7069902818946
 21
510.01936267897372
 31
0.0
  0
LINE
  5
73CB
  8
1
 10
707.70699028189483
 20
460.01936267897372
 30
0.0
 11
707.70699028189495
 21
430.01936267897389
 31
0.0
  0
LINE
  5
73CC
  8
1
 10
702.70699028189483
 20
465.01936267897349
 30
0.0
 11
692.71809728082644
 21
465.01936267897349
 31
0.0
  0
LINE
  5
73CD
  8
1
 10
702.70699028189449
 20
505.01936267897372
 30
0.0
 11
692.71809728082644
 21
505.01936267897338
 31
0.0
  0
CIRCLE
  5
73CE
  8
1
 10
677.70699028189608
 20
485.01936267897338
 30
0.0
 40
23.0
  0
LINE
  5
73CF
  8
1
 10
657.20188770972754
 20
425.01936267897389
 30
0.0
 11
702.70699028189506
 21
425.01936267897361
 31
0.0
  0
LINE
  5
73D0
  8
1
 10
657.20188770972754
 20
545.01936267897304
 30
0.0
 11
702.70699028189506
 21
545.01936267897315
 31
0.0
  0
ARC
  5
73D1
  8
1
 10
657.20188770972754
 20
550.01936267897304
 30
0.0
 40
5.0
 50
191.53695903281809
 51
270.0
  0
ARC
  5
73D2
  8
1
 10
702.70699028189483
 20
460.01936267897338
 30
0.0
 40
5.0
 50
0.0
 51
90.0
  0
ARC
  5
73D3
  8
1
 10
702.70699028189449
 20
510.01936267897372
 30
0.0
 40
5.0
 50
270.0
 51
0.0
  0
LINE
  5
73D4
  8
1
 10
677.70699028189608
 20
443.01936267897338
 30
0.0
 11
707.7069902818946
 21
443.01936267897338
 31
0.0
  0
LINE
  5
73D5
  8
1
 10
677.70699028189608
 20
450.01936267897349
 30
0.0
 11
707.7069902818946
 21
450.01936267897349
 31
0.0
  0
LINE
  5
73D6
  8
1
 10
677.70699028189608
 20
520.01936267897349
 30
0.0
 11
707.7069902818946
 21
520.01936267897349
 31
0.0
  0
LINE
  5
73D7
  8
1
 10
677.70699028189608
 20
527.01936267897338
 30
0.0
 11
707.7069902818946
 21
527.01936267897338
 31
0.0
  0
ARC
  5
73D8
  8
1
 10
677.70699028189608
 20
485.01936267897338
 30
0.0
 40
45.0
 50
311.81031489577009
 51
48.189685104229817
  0
ARC
  5
73D9
  8
1
 10
677.70699028189608
 20
485.01936267897338
 30
0.0
 40
43.0
 50
314.24071879019073
 51
45.75928120980921
  0
POLYLINE
  5
73DA
  8
1
 66
     1
 10
0.0
 20
0.0
 30
0.0
 70
     1
  0
VERTEX
  5
7BA6
  8
1
 10
664.42793409053479
 20
508.01936267897361
 30
0.0
  0
VERTEX
  5
7BA7
  8
1
 10
651.14887789917339
 20
485.01936267897361
 30
0.0
  0
VERTEX
  5
7BA8
  8
1
 10
664.42793409053445
 20
462.01936267897361
 30
0.0
  0
VERTEX
  5
7BA9
  8
1
 10
690.98604647325737
 20
462.01936267897349
 30
0.0
  0
VERTEX
  5
7BAA
  8
1
 10
704.26510266461867
 20
485.01936267897338
 30
0.0
  0
VERTEX
  5
7BAB
  8
1
 10
690.9860464732576
 20
508.01936267897349
 30
0.0
  0
SEQEND
  5
7BAC
  8
1
  0
ARC
  5
73DB
  8
1
 10
702.70699028189517
 20
430.01936267897372
 30
0.0
 40
5.0
 50
270.0
 51
0.0
  0
ARC
  5
73DC
  8
1
 10
702.70699028189517
 20
540.01936267897315
 30
0.0
 40
5.0
 50
0.0
 51
90.0
  0
ARC
  5
73DD
  8
1
 10
657.20188770972754
 20
420.01936267897389
 30
0.0
 40
5.0
 50
90.0
 51
168.4630409671818
  0
ARC
  5
73DE
  8
1
 10
233.5506497952351
 20
249.7193473314953
 30
0.0
 40
11.75678464274613
 50
55.615752531961313
 51
124.38424746803859
  0
LINE
  5
73DF
  8
1
 10
228.63206550819311
 20
222.9761319742415
 30
0.0
 11
254.06599231856259
 21
222.97613197424121
 31
0.0
  0
ARC
  5
73E0
  8
1
 10
233.5506497952351
 20
204.71936611907651
 30
0.0
 40
11.75678464274613
 50
55.615752531961313
 51
124.38424746803859
  0
LINE
  5
73E1
  8
1
 10
135.8097170771459
 20
317.9761319742417
 30
0.0
 11
291.45441393924119
 21
317.97613197424079
 31
0.0
  0
LINE
  5
73E2
  8
1
 10
190.63206550819311
 20
261.4761319742413
 30
0.0
 11
236.63206550819311
 21
261.4761319742413
 31
0.0
  0
LINE
  5
73E3
  8
1
 10
185.63206550819311
 20
237.47613197424121
 30
0.0
 11
241.63206550819311
 21
237.47613197424121
 31
0.0
  0
LINE
  5
73E4
  8
1
 10
185.63206550819311
 20
192.47615076182271
 30
0.0
 11
241.63206550819311
 21
192.47615076182271
 31
0.0
  0
LINE
  5
73E5
  8
1
 10
185.02470431318801
 20
187.97615076182251
 30
0.0
 11
242.23942670319821
 21
187.97615076182271
 31
0.0
  0
LINE
  5
73E6
  8
1
 10
183.2372271694216
 20
232.9761319742415
 30
0.0
 11
244.02690384696501
 21
232.97613197424121
 31
0.0
  0
LINE
  5
73E7
  8
1
 10
187.0739531254703
 20
242.4761319742413
 30
0.0
 11
240.19017789091589
 21
242.4761319742413
 31
0.0
  0
LINE
  5
73E8
  8
1
 10
190.63206550819311
 20
216.47615076182271
 30
0.0
 11
236.63206550819311
 21
216.47615076182271
 31
0.0
  0
LINE
  5
73E9
  8
1
 10
291.45441393924102
 20
92.976131974240843
 30
0.0
 11
135.80971707714519
 21
92.976131974241298
 31
0.0
  0
LINE
  5
73EA
  8
1
 10
288.14012701381478
 20
110.9761319742408
 30
0.0
 11
139.12400400257161
 21
110.9761319742412
 31
0.0
  0
ARC
  5
73EB
  8
1
 10
185.02470431318801
 20
182.97615076182271
 30
0.0
 40
5.0
 50
90.0
 51
172.60040712556059
  0
LINE
  5
73EC
  8
1
 10
167.93206550820011
 20
181.1761319742497
 30
0.0
 11
167.93206550820739
 21
191.84366729141831
 31
0.0
  0
LINE
  5
73ED
  8
1
 10
166.9320655081965
 20
180.67613197425061
 30
0.0
 11
166.9320655081946
 21
179.4761319742517
 31
0.0
  0
ARC
  5
73EE
  8
1
 10
167.43206550817101
 20
178.47613197417891
 30
0.0
 40
0.5
 50
0.0
 51
90.0
  0
LINE
  5
73EF
  8
1
 10
167.43206550817101
 20
178.976131974179
 30
0.0
 11
166.93206550817831
 21
178.976131974179
 31
0.0
  0
LINE
  5
73F0
  8
1
 10
166.93206550817831
 20
178.976131974179
 30
0.0
 11
166.93206550817831
 21
179.47613197417891
 31
0.0
  0
ARC
  5
73F1
  8
1
 10
167.43206550820011
 20
181.1761319742497
 30
0.0
 40
0.5
 50
270.0
 51
359.99999999994782
  0
LINE
  5
73F2
  8
1
 10
177.2554405155033
 20
161.97613197424809
 30
0.0
 11
177.1320655081926
 21
161.97613197424809
 31
0.0
  0
ARC
  5
73F3
  8
1
 10
174.6320655081972
 20
177.47613197415529
 30
0.0
 40
2.0
 50
246.1350745838817
 51
270.0
  0
LINE
  5
73F4
  8
1
 10
173.82290183854539
 20
175.6471283777334
 30
0.0
 11
172.23893826043329
 21
176.3478846714695
 31
0.0
  0
ARC
  5
73F5
  8
1
 10
171.6320655081972
 20
174.9761319741535
 30
0.0
 40
1.5
 50
66.135074583881718
 51
90.0
  0
LINE
  5
73F6
  8
1
 10
171.63206550819351
 20
176.47613197415529
 30
0.0
 11
169.93206550817641
 21
176.47613197415441
 31
0.0
  0
LINE
  5
73F7
  8
1
 10
174.63206550819351
 20
175.47613197415529
 30
0.0
 11
179.00868684095519
 21
175.47613197415529
 31
0.0
  0
ARC
  5
73F8
  8
1
 10
169.93206550817459
 20
178.47613197415441
 30
0.0
 40
2.0
 50
180.0
 51
270.0
  0
LINE
  5
73F9
  8
1
 10
166.93206550817831
 20
178.9761319740243
 30
0.0
 11
179.46323218457991
 21
178.97613197404439
 31
0.0
  0
LINE
  5
73FA
  8
1
 10
171.6320655081972
 20
176.476131974168
 30
0.0
 11
179.13855693913951
 21
176.476131974168
 31
0.0
  0
LINE
  5
73FB
  8
1
 10
179.6840113515168
 20
180.67613197425061
 30
0.0
 11
166.9320655081965
 21
180.67613197425061
 31
0.0
  0
LINE
  5
73FC
  8
1
 10
175.13206550819311
 20
150.47613197424761
 30
0.0
 11
175.13206550819311
 21
159.97613197424761
 31
0.0
  0
LINE
  5
73FD
  8
1
 10
159.93206550819329
 20
127.5761319742416
 30
0.0
 11
159.93206550819329
 21
125.5761319742416
 31
0.0
  0
LINE
  5
73FE
  8
1
 10
167.48590422846041
 20
125.5761319742416
 30
0.0
 11
166.95000584359801
 21
127.5761319742416
 31
0.0
  0
LINE
  5
73FF
  8
1
 10
168.31412517278841
 20
125.5761319742416
 30
0.0
 11
167.778226787926
 21
127.57613197424141
 31
0.0
  0
LINE
  5
7400
  8
1
 10
159.93206550819329
 20
127.5761319742416
 30
0.0
 11
172.7879091380232
 21
127.5761319742416
 31
0.0
  0
LINE
  5
7401
  8
1
 10
159.93206550819329
 20
125.5761319742416
 30
0.0
 11
172.52816894165829
 21
125.57613197424141
 31
0.0
  0
ARC
  5
7402
  8
1
 10
174.20620210179999
 20
108.3299775630625
 30
0.0
 40
5.0
 50
148.04649664322139
 51
177.9999999999965
  0
ARC
  5
7403
  8
1
 10
165.9829843367788
 20
114.00152527101901
 30
0.0
 40
5.0
 50
322.76549764503648
 51
352.60040712556059
  0
LINE
  5
7404
  8
1
 10
159.63206550819311
 20
111.9761319742415
 30
0.0
 11
159.63206550819351
 21
123.9761319742415
 31
0.0
  0
LINE
  5
7405
  8
1
 10
159.88206550819311
 20
123.9761319742417
 30
0.0
 11
159.88206550819311
 21
125.5761319742416
 31
0.0
  0
LINE
  5
7406
  8
1
 10
159.88206550819311
 20
125.5761319742416
 30
0.0
 11
172.52816894165829
 21
125.5761319742416
 31
0.0
  0
LINE
  5
7407
  8
1
 10
159.88206550819311
 20
123.9761319742417
 30
0.0
 11
172.32037678456609
 21
123.9761319742415
 31
0.0
  0
ARC
  5
7408
  8
1
 10
156.63206550819311
 20
115.9761319742415
 30
0.0
 40
5.0
 50
270.0
 51
306.86989764584138
  0
LINE
  5
7409
  8
1
 10
170.5543935279768
 20
111.9761319742415
 30
0.0
 11
159.63206550819311
 21
111.9761319742415
 31
0.0
  0
LINE
  5
740A
  8
1
 10
172.32037678456609
 20
123.9761319742415
 30
0.0
 11
159.63206550819351
 21
123.9761319742415
 31
0.0
  0
LINE
  5
740B
  8
1
  6
CONTINUOUS
 10
172.7879091380232
 20
127.5761319742416
 30
0.0
 11
161.278226787926
 21
127.5761319742416
 31
0.0
  0
LINE
  5
740C
  8
1
  6
CONTINUOUS
 10
173.4122009803572
 20
135.5761319742416
 30
0.0
 11
162.14425259549529
 21
135.5761319742416
 31
0.0
  0
LINE
  5
740D
  8
1
  6
CONTINUOUS
 10
161.278226787926
 20
127.5761319742416
 30
0.0
 11
161.27822678792629
 21
135.0761319742416
 31
0.0
  0
LINE
  5
740E
  8
1
  6
CONTINUOUS
 10
164.52822678792629
 20
135.0761319742416
 30
0.0
 11
161.27822678792629
 21
135.0761319742416
 31
0.0
  0
LINE
  5
740F
  8
1
  6
CONTINUOUS
 10
161.27822678792629
 20
135.0761319742416
 30
0.0
 11
162.14425259549529
 21
135.5761319742416
 31
0.0
  0
LINE
  5
7410
  8
1
  6
CONTINUOUS
 10
173.76193487439241
 20
135.0761319742416
 30
0.0
 11
171.028226787926
 21
135.0761319742416
 31
0.0
  0
LINE
  5
7411
  8
1
  6
CONTINUOUS
 10
173.79794652892201
 20
135.35342178177751
 30
0.0
 11
173.4122009803572
 21
135.5761319742416
 31
0.0
  0
ARC
  5
7412
  8
1
 10
139.1240040025713
 20
105.976131974241
 30
0.0
 40
5.0
 50
90.0
 51
177.9999999999965
  0
LINE
  5
7413
  8
1
 10
134.12704986747619
 20
106.1506294577536
 30
0.0
 11
133.81276294205031
 21
97.150629457753666
 31
0.0
  0
ARC
  5
7414
  8
1
 10
138.80971707714519
 20
96.976131974240843
 30
0.0
 40
4.9999999999996581
 50
177.9999999999965
 51
233.13010235415851
  0
LINE
  5
7415
  8
1
 10
169.20924796670189
 20
108.5044750465751
 30
0.0
 11
168.8127629420496
 21
97.150629457753666
 31
0.0
  0
ARC
  5
7416
  8
1
 10
173.8097170771448
 20
96.976131974240843
 30
0.0
 40
4.9999999999996581
 50
177.9999999999965
 51
233.13010235415851
  0
ARC
  5
7417
  8
1
 10
175.6320655081926
 20
150.47613197424761
 30
0.0
 40
0.5
 50
180.0
 51
270.0
  0
LINE
  5
7418
  8
1
 10
175.6320655081926
 20
149.97613197424809
 30
0.0
 11
175.69699933731289
 21
149.97613197424809
 31
0.0
  0
LINE
  5
7419
  8
1
 10
170.94134472447141
 20
113.3575825206451
 30
0.0
 11
180.0663439254954
 21
183.62009351219669
 31
0.0
  0
ARC
  5
741A
  8
1
 10
177.1320655081926
 20
159.97613197424761
 30
0.0
 40
2.0
 50
90.0
 51
180.0
  0
LINE
  5
741B
  8
1
 10
226.91112169955471
 20
259.42185483226939
 30
0.0
 11
226.91112169955471
 21
242.4761319742413
 31
0.0
  0
LINE
  5
741C
  8
1
 10
228.63206550819311
 20
232.9761319742415
 30
0.0
 11
228.63206550819311
 21
216.47615076182271
 31
0.0
  0
LINE
  5
741D
  8
1
 10
228.63206550819311
 20
242.4761319742413
 30
0.0
 11
228.63206550819311
 21
237.47613197424121
 31
0.0
  0
LINE
  5
741E
  8
1
 10
226.91112169955471
 20
214.4218736198506
 30
0.0
 11
226.91112169955471
 21
192.47615076182271
 31
0.0
  0
LINE
  5
741F
  8
1
 10
200.3530093168317
 20
259.42185483226939
 30
0.0
 11
200.3530093168317
 21
242.4761319742413
 31
0.0
  0
LINE
  5
7420
  8
1
 10
187.0739531254703
 20
259.42185483226939
 30
0.0
 11
187.0739531254703
 21
242.4761319742413
 31
0.0
  0
LINE
  5
7421
  8
1
 10
162.03794508192479
 20
295.51145666319189
 30
0.0
 11
168.2186726654852
 21
227.5234532440285
 31
0.0
  0
LINE
  5
7422
  8
1
 10
171.92768164573539
 20
314.38650744694269
 30
0.0
 11
178.2540964294746
 21
237.56575650153971
 31
0.0
  0
ARC
  5
7423
  8
1
 10
166.94455090578819
 20
313.9761319742413
 30
0.0
 40
5.0
 50
4.707852244365351
 51
53.130102354148171
  0
ARC
  5
7424
  8
1
 10
158.80971707714519
 20
313.9761319742413
 30
0.0
 40
4.9999999999996581
 50
126.86989764584141
 51
182.00000000000341
  0
LINE
  5
7425
  8
1
 10
154.13185550889071
 20
304.66401892599242
 30
0.0
 11
153.81276294205051
 21
313.8016344907287
 31
0.0
  0
ARC
  5
7426
  8
1
 10
159.1288096439861
 20
304.83851640950502
 30
0.0
 40
4.9999999999999449
 50
182.00000000000341
 51
256.52627851676277
  0
ARC
  5
7427
  8
1
 10
157.05847904958631
 20
295.05877793297941
 30
0.0
 40
5.0
 50
5.1944289077418819
 51
79.568098646692945
  0
LINE
  5
7428
  8
1
 10
190.63206550819311
 20
261.4761319742413
 30
0.0
 11
187.0739531254703
 21
259.42185483226939
 31
0.0
  0
ARC
  5
7429
  8
1
 10
193.71348122115111
 20
249.7193473314953
 30
0.0
 40
11.75678464274613
 50
55.615752531961313
 51
124.38424746803859
  0
LINE
  5
742A
  8
1
 10
139.12400400257161
 20
299.97613197424118
 30
0.0
 11
157.96381281838049
 21
299.97613197423789
 31
0.0
  0
ARC
  5
742B
  8
1
 10
138.80971707714519
 20
313.9761319742417
 30
0.0
 40
4.9999999999996581
 50
126.86989764584141
 51
182.00000000000341
  0
LINE
  5
742C
  8
1
 10
134.12704986747619
 20
304.8016344907291
 30
0.0
 11
133.81276294205051
 21
313.8016344907291
 31
0.0
  0
ARC
  5
742D
  8
1
 10
139.1240040025713
 20
304.9761319742417
 30
0.0
 40
5.0
 50
182.00000000000341
 51
270.0
  0
LINE
  5
742E
  8
1
 10
198.63206550819311
 20
232.9761319742415
 30
0.0
 11
198.63206550819331
 21
216.47615076182271
 31
0.0
  0
LINE
  5
742F
  8
1
 10
198.63206550819311
 20
242.4761319742413
 30
0.0
 11
198.63206550819331
 21
237.47613197424121
 31
0.0
  0
ARC
  5
7430
  8
1
 10
188.63206550819311
 20
227.9761319742415
 30
0.0
 40
5.0
 50
270.0
 51
90.0
  0
ARC
  5
7431
  8
1
 10
173.19813869782359
 20
227.9761319742413
 30
0.0
 40
5.0
 50
185.19442890774189
 51
270.0
  0
ARC
  5
7432
  8
1
 10
183.2372271694216
 20
237.9761319742413
 30
0.0
 40
5.0
 50
184.7078522443783
 51
270.0
  0
LINE
  5
7433
  8
1
 10
185.63206550819311
 20
237.47613197424121
 30
0.0
 11
185.63206550819311
 21
232.97613197424121
 31
0.0
  0
ARC
  5
7434
  8
1
 10
193.71348122115111
 20
204.71936611907651
 30
0.0
 40
11.75678464274613
 50
55.615752531961313
 51
124.38424746803859
  0
LINE
  5
7435
  8
1
 10
190.63206550819311
 20
216.47615076182271
 30
0.0
 11
187.0739531254703
 21
214.4218736198506
 31
0.0
  0
LINE
  5
7436
  8
1
 10
185.63206550819311
 20
192.47615076182271
 30
0.0
 11
185.63206550819311
 21
187.97615076182271
 31
0.0
  0
LINE
  5
7437
  8
1
 10
187.0739531254703
 20
214.4218736198506
 30
0.0
 11
187.0739531254703
 21
192.47615076182271
 31
0.0
  0
LINE
  5
7438
  8
1
 10
200.3530093168319
 20
214.4218736198506
 30
0.0
 11
200.3530093168317
 21
192.47615076182271
 31
0.0
  0
LINE
  5
7439
  8
1
 10
195.8107299802368
 20
216.47615076182271
 30
0.0
 11
195.8107299802366
 21
222.9761319742415
 31
0.0
  0
LINE
  5
743A
  8
1
 10
171.93206550822009
 20
201.45136244601571
 30
0.0
 11
171.93206550822919
 21
212.17613197425149
 31
0.0
  0
ARC
  5
743B
  8
1
 10
166.93206550822009
 20
201.45136244602031
 30
0.0
 40
5.0
 50
329.99999999998488
 51
359.99999999994782
  0
LINE
  5
743C
  8
1
 10
171.2621925271423
 20
198.95136244602119
 30
0.0
 11
168.60193848928509
 21
194.34366729141561
 31
0.0
  0
ARC
  5
743D
  8
1
 10
172.93206550820739
 20
191.84366729141379
 30
0.0
 40
5.0
 50
149.99999999998491
 51
179.9999999999479
  0
LINE
  5
743E
  8
1
 10
171.93206550823811
 20
223.1390813564978
 30
0.0
 11
171.93206550822919
 21
212.17613197425149
 31
0.0
  0
LINE
  5
743F
  8
1
 10
173.19813869782359
 20
222.9761319742415
 30
0.0
 11
198.63206550819331
 21
222.9761319742415
 31
0.0
  0
ARC
  5
7440
  8
1
 10
213.63206550819311
 20
217.5304091162142
 30
0.0
 40
43.945722858027153
 50
72.412046226009537
 51
107.58795377399041
  0
ARC
  5
7441
  8
1
 10
213.63206550819311
 20
172.53042790379541
 30
0.0
 40
43.945722858027153
 50
72.412046226009537
 51
107.58795377399041
  0
ARC
  5
7443
  8
1
 10
242.23942670319821
 20
182.97615076182251
 30
0.0
 40
5.0
 50
7.3995928744393646
 51
90.0
  0
LINE
  5
7444
  8
1
 10
259.33206550822018
 20
181.17613197424421
 30
0.0
 11
259.33206550821291
 21
191.84366729141831
 31
0.0
  0
LINE
  5
7446
  8
1
 10
260.332065508222
 20
180.67613197425061
 30
0.0
 11
247.58011966486939
 21
180.67613197425061
 31
0.0
  0
LINE
  5
7447
  8
1
 10
248.2554441754296
 20
175.476131974168
 30
0.0
 11
252.6320655081976
 21
175.476131974168
 31
0.0
  0
ARC
  5
7448
  8
1
 10
259.83206550822018
 20
181.17613197424421
 30
0.0
 40
0.5
 50
180.0000000000521
 51
270.0
  0
LINE
  5
7449
  8
1
 10
260.332065508222
 20
180.67613197424521
 30
0.0
 11
260.33206550822382
 21
179.4761319742463
 31
0.0
  0
ARC
  5
744A
  8
1
 10
259.83206550821291
 20
178.47613197417169
 30
0.0
 40
0.5
 50
90.0
 51
180.0
  0
LINE
  5
744B
  8
1
 10
260.33206550820569
 20
178.97613197417351
 30
0.0
 11
260.33206550820569
 21
179.47613197417351
 31
0.0
  0
LINE
  5
744C
  8
1
 10
248.12557407724691
 20
176.476131974168
 30
0.0
 11
257.33206550820933
 21
176.476131974168
 31
0.0
  0
LINE
  5
744D
  8
1
 10
250.0086905008834
 20
161.97613197424761
 30
0.0
 11
250.13206550819359
 21
161.97613197424761
 31
0.0
  0
ARC
  5
744E
  8
1
 10
252.6320655081976
 20
177.476131974168
 30
0.0
 40
2.0
 50
270.0
 51
293.86492541611818
  0
LINE
  5
744F
  8
1
 10
253.44122917784571
 20
175.6471283777461
 30
0.0
 11
255.02519275596521
 21
176.347884671484
 31
0.0
  0
ARC
  5
7450
  8
1
 10
255.63206550820311
 20
174.976131974168
 30
0.0
 40
1.5
 50
90.0
 51
113.8649254161182
  0
ARC
  5
7451
  8
1
 10
257.33206550820933
 20
178.476131974168
 30
0.0
 40
2.0
 50
270.0
 51
0.0
  0
LINE
  5
7452
  8
1
 10
247.80089883179241
 20
178.9761319741535
 30
0.0
 11
260.33206550820569
 21
178.97613197417351
 31
0.0
  0
LINE
  5
7453
  8
1
 10
252.13206550819359
 20
150.47613197424761
 30
0.0
 11
252.13206550819359
 21
159.97613197424761
 31
0.0
  0
ARC
  5
7454
  8
1
 10
253.0579289145866
 20
108.3299775630623
 30
0.0
 40
5.0
 50
2.0000000000034981
 51
31.953503356778519
  0
ARC
  5
7455
  8
1
 10
261.28114667960779
 20
114.00152527101881
 30
0.0
 40
5.0
 50
187.39959287443929
 51
217.23450235496341
  0
LINE
  5
7456
  8
1
 10
258.63206550819109
 20
110.9761319742417
 30
0.0
 11
252.63206550819271
 21
110.9761319742412
 31
0.0
  0
LINE
  5
7457
  8
1
 10
267.63206550819308
 20
123.976131974241
 30
0.0
 11
254.94375423182029
 21
123.976131974241
 31
0.0
  0
LINE
  5
7458
  8
1
 10
267.63206550819308
 20
111.976131974241
 30
0.0
 11
267.63206550819348
 21
123.976131974241
 31
0.0
  0
ARC
  5
7459
  8
1
 10
270.63206550819308
 20
115.9761319742413
 30
0.0
 40
5.0
 50
233.13010235414811
 51
270.0
  0
LINE
  5
745A
  8
1
 10
267.6320655081945
 20
111.9761319742408
 30
0.0
 11
256.7097374884101
 21
111.9761319742408
 31
0.0
  0
ARC
  5
745B
  8
1
 10
288.45441393924102
 20
96.976131974240403
 30
0.0
 40
4.9999999999996581
 50
306.86989764584138
 51
2.0000000000034981
  0
LINE
  5
745C
  8
1
 10
293.13708114891023
 20
106.1506294577532
 30
0.0
 11
293.45136807433619
 21
97.150629457753226
 31
0.0
  0
ARC
  5
745D
  8
1
 10
288.14012701381478
 20
105.9761319742403
 30
0.0
 40
5.0
 50
2.0000000000034981
 51
90.0
  0
LINE
  5
745E
  8
1
 10
258.05488304968429
 20
108.5044750465751
 30
0.0
 11
258.45136807433681
 21
97.150629457753226
 31
0.0
  0
ARC
  5
745F
  8
1
 10
253.4544139392419
 20
96.976131974240403
 30
0.0
 40
4.9999999999996581
 50
306.86989764584138
 51
2.0000000000034981
  0
ARC
  5
7460
  8
1
 10
251.63206550819399
 20
150.47613197424761
 30
0.0
 40
0.5
 50
270.0
 51
0.0
  0
LINE
  5
7461
  8
1
 10
251.5671316790737
 20
149.97613197424761
 30
0.0
 11
251.63206550819399
 21
149.97613197424761
 31
0.0
  0
LINE
  5
7462
  8
1
 10
256.32278629191478
 20
113.3575825206448
 30
0.0
 11
247.19778709089081
 21
183.62009351219669
 31
0.0
  0
ARC
  5
7463
  8
1
 10
250.13206550819399
 20
159.97613197424761
 30
0.0
 40
2.0
 50
0.0
 51
90.0
  0
ARC
  5
7465
  8
1
 10
312.3320655081979
 20
215.676131974009
 30
0.0
 40
1.0
 50
270.0
 51
0.0
  0
ARC
  5
7466
  8
1
 10
312.3320655081979
 20
224.67613197400911
 30
0.0
 40
1.0
 50
0.0
 51
90.0
  0
LINE
  5
7467
  8
1
 10
313.3320655081979
 20
224.67613197400911
 30
0.0
 11
313.3320655081979
 21
215.67613197400919
 31
0.0
  0
LINE
  5
7468
  8
1
 10
328.28113045448021
 20
216.17613197425339
 30
0.0
 11
313.3320655081979
 21
216.17613197425339
 31
0.0
  0
LINE
  5
7469
  8
1
 10
328.28113045448021
 20
224.17613197425339
 30
0.0
 11
313.3320655081979
 21
224.17613197425339
 31
0.0
  0
LINE
  5
746A
  8
1
 10
240.19017789091589
 20
259.42185483226939
 30
0.0
 11
240.19017789091589
 21
242.4761319742413
 31
0.0
  0
LINE
  5
746B
  8
1
 10
255.336449370651
 20
314.38650744694252
 30
0.0
 11
249.01003458691179
 21
237.56575650153971
 31
0.0
  0
LINE
  5
746C
  8
1
 10
265.2261859344614
 20
295.51145666319189
 30
0.0
 11
259.04545835090101
 21
227.5234532440285
 31
0.0
  0
LINE
  5
746D
  8
1
 10
236.63206550819311
 20
261.4761319742413
 30
0.0
 11
240.19017789091589
 21
259.42185483226939
 31
0.0
  0
ARC
  5
746E
  8
1
 10
260.319580110598
 20
313.97613197424101
 30
0.0
 40
5.0
 50
126.86989764584141
 51
175.29214775562161
  0
ARC
  5
746F
  8
1
 10
270.20565196679991
 20
295.0587779329793
 30
0.0
 40
5.0
 50
100.431901353307
 51
174.80557109225811
  0
LINE
  5
7470
  8
1
 10
270.63206550819308
 20
299.97613197424079
 30
0.0
 11
288.63206550819348
 21
299.97613197424062
 31
0.0
  0
LINE
  5
7471
  8
1
 10
269.30031819800558
 20
299.97613197423772
 30
0.0
 11
288.14012701381478
 21
299.97613197424079
 31
0.0
  0
ARC
  5
7472
  8
1
 10
288.14012701381478
 20
304.97613197424113
 30
0.0
 40
5.0
 50
270.0
 51
357.99999999999648
  0
LINE
  5
7473
  8
1
 10
293.13708114891023
 20
304.8016344907287
 30
0.0
 11
293.45136807433619
 21
313.8016344907287
 31
0.0
  0
ARC
  5
7474
  8
1
 10
288.45441393924102
 20
313.9761319742413
 30
0.0
 40
4.9999999999996581
 50
357.99999999999648
 51
53.130102354158581
  0
ARC
  5
7475
  8
1
 10
268.45441393924102
 20
313.9761319742413
 30
0.0
 40
4.9999999999996581
 50
357.99999999999648
 51
53.130102354158581
  0
LINE
  5
7476
  8
1
 10
273.13227550749571
 20
304.66401892599242
 30
0.0
 11
273.45136807433607
 21
313.8016344907287
 31
0.0
  0
ARC
  5
7477
  8
1
 10
268.13532137240003
 20
304.8385164095049
 30
0.0
 40
4.9999999999999449
 50
283.47372148323711
 51
357.99999999999648
  0
ARC
  5
7478
  8
1
 10
238.63206550819311
 20
227.97613197424141
 30
0.0
 40
5.0
 50
90.0
 51
270.0
  0
LINE
  5
7479
  8
1
 10
236.63206550819311
 20
216.47615076182271
 30
0.0
 11
240.19017789091589
 21
214.4218736198506
 31
0.0
  0
LINE
  5
747A
  8
1
 10
240.19017789091589
 20
214.4218736198506
 30
0.0
 11
240.19017789091589
 21
192.47615076182271
 31
0.0
  0
LINE
  5
747B
  8
1
 10
231.4534010361817
 20
216.47615076182271
 30
0.0
 11
231.4534010361817
 21
222.9761319742415
 31
0.0
  0
ARC
  5
747C
  8
1
 10
244.02690384696501
 20
237.9761319742411
 30
0.0
 40
5.0
 50
270.0
 51
355.29214775562161
  0
ARC
  5
747D
  8
1
 10
254.06599231856259
 20
227.9761319742411
 30
0.0
 40
5.0
 50
270.0
 51
354.80557109225799
  0
LINE
  5
747E
  8
1
 10
241.63206550819311
 20
237.47613197424121
 30
0.0
 11
241.63206550819311
 21
232.97613197424121
 31
0.0
  0
LINE
  5
747F
  8
1
 10
241.63206550819311
 20
192.47615076182271
 30
0.0
 11
241.63206550819311
 21
187.97615076182271
 31
0.0
  0
LINE
  5
7480
  8
1
 10
256.00193848927802
 20
198.95136244602119
 30
0.0
 11
258.66219252713512
 21
194.34366729141561
 31
0.0
  0
ARC
  5
7481
  8
1
 10
254.33206550821291
 20
191.84366729141379
 30
0.0
 40
5.0
 50
0.0000000000521102
 51
30.000000000015081
  0
LINE
  5
7482
  8
1
 10
283.33206550820518
 20
212.1761319740101
 30
0.0
 11
283.83206550819841
 21
212.1761319740101
 31
0.0
  0
LINE
  5
7483
  8
1
 10
283.33206550820518
 20
228.17613197400999
 30
0.0
 11
283.83206550819841
 21
228.17613197400999
 31
0.0
  0
LINE
  5
7484
  8
1
 10
289.33206550819841
 20
216.30314862780159
 30
0.0
 11
286.8320655081983
 21
224.0491153202185
 31
0.0
  0
LINE
  5
7485
  8
1
 10
286.8320655081975
 20
216.30314862780159
 30
0.0
 11
289.33206550819841
 21
224.0491153202185
 31
0.0
  0
LINE
  5
7486
  8
1
 10
289.83206550819841
 20
227.6761319740101
 30
0.0
 11
289.33206550819841
 21
228.17613197400999
 31
0.0
  0
LINE
  5
7487
  8
1
 10
289.33206550819841
 20
212.1761319740101
 30
0.0
 11
289.83206550819841
 21
212.6761319740101
 31
0.0
  0
LINE
  5
7488
  8
1
 10
289.33206550819841
 20
224.0491153202185
 30
0.0
 11
289.83206550819739
 21
222.86871437757799
 31
0.0
  0
LINE
  5
7489
  8
1
 10
289.33206550819841
 20
216.30314862780159
 30
0.0
 11
289.83206550819739
 21
217.48354957044211
 31
0.0
  0
LINE
  5
748A
  8
1
 10
289.33206550819841
 20
224.0491153202185
 30
0.0
 11
289.33206550819841
 21
228.17613197400999
 31
0.0
  0
LINE
  5
748B
  8
1
 10
289.3320655081975
 20
212.1761319740101
 30
0.0
 11
289.33206550819841
 21
216.30314862780159
 31
0.0
  0
LINE
  5
748C
  8
1
 10
286.8320655081975
 20
227.1761319740101
 30
0.0
 11
283.8320655081975
 21
227.1761319740101
 31
0.0
  0
LINE
  5
748D
  8
1
 10
286.8320655081975
 20
213.1761319740101
 30
0.0
 11
283.8320655081975
 21
213.1761319740101
 31
0.0
  0
LINE
  5
748E
  8
1
 10
286.8320655081983
 20
212.1761319740101
 30
0.0
 11
289.33206550819841
 21
212.1761319740101
 31
0.0
  0
LINE
  5
748F
  8
1
 10
286.8320655081983
 20
228.17613197400999
 30
0.0
 11
289.33206550819841
 21
228.17613197400999
 31
0.0
  0
LINE
  5
7490
  8
1
 10
289.33206550819841
 20
224.0491153202185
 30
0.0
 11
286.8320655081983
 21
224.0491153202185
 31
0.0
  0
LINE
  5
7491
  8
1
 10
289.33206550819841
 20
216.30314862780159
 30
0.0
 11
286.8320655081975
 21
216.30314862780159
 31
0.0
  0
LINE
  5
7492
  8
1
 10
286.8320655081975
 20
212.1761319740101
 30
0.0
 11
286.8320655081983
 21
228.17613197400999
 31
0.0
  0
LINE
  5
7493
  8
1
 10
283.8320655081975
 20
212.1761319740101
 30
0.0
 11
283.83206550819841
 21
228.17613197400999
 31
0.0
  0
LINE
  5
7494
  8
1
 10
289.83206550819841
 20
212.6761319740101
 30
0.0
 11
289.83206550819841
 21
227.6761319740101
 31
0.0
  0
LINE
  5
7495
  8
1
 10
255.33206550820199
 20
201.45136244601841
 30
0.0
 11
255.33206550819841
 21
207.1761319741542
 31
0.0
  0
LINE
  5
7496
  8
1
 10
259.3320655081838
 20
231.1761319741515
 30
0.0
 11
259.37752005363939
 21
231.17613197414971
 31
0.0
  0
LINE
  5
7497
  8
1
 10
259.33206550819472
 20
209.17613197415241
 30
0.0
 11
257.33206550819841
 21
209.1761319741542
 31
0.0
  0
ARC
  5
7498
  8
1
 10
257.33206550819841
 20
207.176131974155
 30
0.0
 40
2.0
 50
89.999999999895778
 51
180.0000000000521
  0
ARC
  5
7499
  8
1
 10
260.33206550820017
 20
201.4513624460202
 30
0.0
 40
5.0
 50
180.0000000000521
 51
210.00000000001509
  0
LINE
  5
749A
  8
1
 10
259.33206550820557
 20
231.17613197414971
 30
0.0
 11
260.33206550820569
 21
231.17613197414971
 31
0.0
  0
LINE
  5
749B
  8
1
 10
259.33206550820557
 20
209.17613197414971
 30
0.0
 11
260.33206550820569
 21
209.17613197414971
 31
0.0
  0
LINE
  5
749C
  8
1
 10
267.33206550820557
 20
209.17613197414971
 30
0.0
 11
267.33206550820557
 21
231.17613197414971
 31
0.0
  0
LINE
  5
749D
  8
1
 10
283.33206550820569
 20
211.17808319551719
 30
0.0
 11
283.33206550820569
 21
229.17418075250291
 31
0.0
  0
LINE
  5
749E
  8
1
 10
267.33206550820557
 20
231.17613197414971
 30
0.0
 11
282.33206550786002
 21
230.23863197417151
 31
0.0
  0
LINE
  5
749F
  8
1
 10
267.33206550820557
 20
209.17613197414971
 30
0.0
 11
282.33206550820557
 21
210.11363197414869
 31
0.0
  0
LINE
  5
74A0
  8
1
 10
282.33206550820557
 20
210.11363197414971
 30
0.0
 11
282.33206550820557
 21
230.23863197414971
 31
0.0
  0
LINE
  5
74A1
  8
1
 62
     9
 10
267.33206550820557
 20
210.34039929337879
 30
0.0
 11
283.33206550820569
 21
211.34039929337879
 31
0.0
  0
LINE
  5
74A2
  8
1
 62
     9
 10
267.33206550820557
 20
230.0118646549206
 30
0.0
 11
283.33206550820569
 21
229.0118646549206
 31
0.0
  0
LINE
  5
74A3
  8
1
 10
283.33206550820569
 20
211.17808319551719
 30
0.0
 11
282.33206550820557
 21
210.11363197414971
 31
0.0
  0
LINE
  5
74A4
  8
1
 10
283.33206550791101
 20
229.1741807528158
 30
0.0
 11
282.33206550787821
 21
230.23863197415059
 31
0.0
  0
LINE
  5
74A5
  8
1
 62
     9
 10
267.33206550820557
 20
210.34039929337879
 30
0.0
 11
266.16779818897658
 21
209.17613197414971
 31
0.0
  0
LINE
  5
74A6
  8
1
 62
     9
 10
267.33206550820557
 20
230.01186465495331
 30
0.0
 11
266.16779818897658
 21
231.1761319741824
 31
0.0
  0
LINE
  5
74A7
  8
1
 10
260.33206550820569
 20
209.17613197414971
 30
0.0
 11
260.33206550820569
 21
231.17613197414971
 31
0.0
  0
LINE
  5
74A8
  8
1
 10
263.33206550820557
 20
209.17613197414971
 30
0.0
 11
263.33206550820557
 21
231.17613197414971
 31
0.0
  0
LINE
  5
74A9
  8
1
 10
263.33206550820557
 20
209.17613197414971
 30
0.0
 11
267.33206550820557
 21
209.17613197414971
 31
0.0
  0
LINE
  5
74AA
  8
1
 10
263.33206550820557
 20
231.17613197414971
 30
0.0
 11
267.33206550820557
 21
231.17613197414971
 31
0.0
  0
LINE
  5
74AB
  8
1
 10
263.33206550820557
 20
210.17613197414971
 30
0.0
 11
260.33206550820569
 21
210.17613197414971
 31
0.0
  0
LINE
  5
74AC
  8
1
 10
263.33206550831483
 20
230.17613197415059
 30
0.0
 11
260.33206550831483
 21
230.17613197418331
 31
0.0
  0
LINE
  5
74AD
  8
1
 10
259.33206550821473
 20
209.1761319741515
 30
0.0
 11
257.33206550822018
 21
209.17613197415329
 31
0.0
  0
LINE
  5
74AE
  8
1
 10
255.3320655082056
 20
207.17613197415329
 30
0.0
 11
255.332065508189
 21
223.13908135650851
 31
0.0
  0
LINE
  5
74AF
  8
1
 10
289.83206550819841
 20
225.67613197400919
 30
0.0
 11
312.3320655081979
 21
225.67613197400919
 31
0.0
  0
LINE
  5
74B0
  8
1
 10
289.83206550819841
 20
214.67613197400911
 30
0.0
 11
312.3320655081979
 21
214.67613197400911
 31
0.0
  0
LINE
  5
756C
  8
1
 10
563.70894150322624
 20
415.31936267926909
 30
0.0
 11
562.64449028189142
 21
416.31936267930359
 31
0.0
  0
LINE
  5
756D
  8
1
 10
581.70503906052465
 20
415.31936267897441
 30
0.0
 11
582.76949028189233
 21
416.31936267897453
 31
0.0
  0
LINE
  5
756E
  8
1
 62
     9
 10
563.2650076011214
 20
425.01936267897389
 30
0.0
 11
563.87125760112144
 21
415.31936267897441
 31
0.0
  0
LINE
  5
756F
  8
1
 62
     9
 10
582.14897296266315
 20
425.01936267897389
 30
0.0
 11
581.54272296266322
 21
415.31936267897441
 31
0.0
  0
LINE
  5
7570
  8
1
 10
582.76949028189233
 20
416.31936267897453
 30
0.0
 11
562.64449028189233
 21
416.31936267897453
 31
0.0
  0
LINE
  5
7571
  8
1
 10
583.31324028189249
 20
425.01936267897389
 30
0.0
 11
582.76949028189324
 21
416.31936267897453
 31
0.0
  0
LINE
  5
7572
  8
1
 10
562.10074028189217
 20
425.01936267897389
 30
0.0
 11
562.6444902818705
 21
416.31936267932178
 31
0.0
  0
LINE
  5
7573
  8
1
 10
581.70503906052465
 20
415.31936267897441
 30
0.0
 11
563.70894150353911
 21
415.31936267897441
 31
0.0
  0
LINE
  5
7574
  8
1
 10
576.7069902818223
 20
370.3702977326995
 30
0.0
 11
576.7069902818223
 21
385.31936267898158
 31
0.0
  0
LINE
  5
7575
  8
1
 10
568.70699028182219
 20
370.3702977326995
 30
0.0
 11
568.70699028182219
 21
385.31936267898158
 31
0.0
  0
LINE
  5
7576
  8
1
 10
580.70699028206548
 20
415.31936267897458
 30
0.0
 11
580.70699028206548
 21
414.81936267898118
 31
0.0
  0
LINE
  5
7577
  8
1
 10
564.70699028206548
 20
415.31936267897458
 30
0.0
 11
564.70699028206548
 21
414.81936267898118
 31
0.0
  0
LINE
  5
7578
  8
1
 10
567.20699028206639
 20
408.81936267898112
 30
0.0
 11
567.20699028206639
 21
386.31936267898158
 31
0.0
  0
LINE
  5
7579
  8
1
 10
578.2069902820665
 20
408.81936267898112
 30
0.0
 11
578.2069902820665
 21
386.31936267898158
 31
0.0
  0
ARC
  5
757A
  8
1
 10
577.20699028206673
 20
386.31936267898152
 30
0.0
 40
1.0
 50
270.0
 51
0.0
  0
ARC
  5
757B
  8
1
 10
568.20699028206673
 20
386.31936267898152
 30
0.0
 40
1.0
 50
180.0
 51
270.0
  0
LINE
  5
757C
  8
1
 10
568.20699028206639
 20
385.31936267898158
 30
0.0
 11
577.2069902820665
 21
385.31936267898158
 31
0.0
  0
LINE
  5
757F
  8
1
 10
565.20699028206548
 20
408.81936267898112
 30
0.0
 11
564.70699028206548
 21
409.31936267898112
 31
0.0
  0
LINE
  5
7580
  8
1
 10
580.70699028206548
 20
409.31936267898112
 30
0.0
 11
580.20699028206548
 21
408.81936267898112
 31
0.0
  0
LINE
  5
7581
  8
1
 10
568.83400693585713
 20
409.31936267898112
 30
0.0
 11
570.01440787849765
 21
408.81936267898209
 31
0.0
  0
LINE
  5
7582
  8
1
 10
576.57997362827405
 20
409.31936267898112
 30
0.0
 11
575.39957268563353
 21
408.81936267898209
 31
0.0
  0
LINE
  5
7583
  8
1
 10
568.83400693585713
 20
409.31936267898112
 30
0.0
 11
564.70699028206548
 21
409.31936267898112
 31
0.0
  0
LINE
  5
7584
  8
1
 10
580.70699028206548
 20
409.31936267898209
 30
0.0
 11
576.57997362827405
 21
409.31936267898112
 31
0.0
  0
LINE
  5
7585
  8
1
 10
565.70699028206559
 20
411.81936267898197
 30
0.0
 11
565.70699028206559
 21
414.81936267898197
 31
0.0
  0
LINE
  5
7586
  8
1
 10
579.70699028206559
 20
411.81936267898197
 30
0.0
 11
579.70699028206559
 21
414.81936267898197
 31
0.0
  0
LINE
  5
7587
  8
1
 10
580.70699028206548
 20
411.81936267898112
 30
0.0
 11
580.70699028206548
 21
409.31936267898112
 31
0.0
  0
LINE
  5
7588
  8
1
 10
564.70699028206548
 20
411.81936267898112
 30
0.0
 11
564.70699028206548
 21
409.31936267898112
 31
0.0
  0
LINE
  5
7589
  8
1
 10
568.83400693585713
 20
409.31936267898112
 30
0.0
 11
568.83400693585713
 21
411.81936267898112
 31
0.0
  0
LINE
  5
758A
  8
1
 10
576.57997362827405
 20
409.31936267898112
 30
0.0
 11
576.57997362827405
 21
411.81936267898197
 31
0.0
  0
LINE
  5
758B
  8
1
 10
580.70699028206548
 20
411.81936267898197
 30
0.0
 11
564.70699028206548
 21
411.81936267898112
 31
0.0
  0
LINE
  5
758C
  8
1
 10
580.70699028206548
 20
414.81936267898197
 30
0.0
 11
564.70699028206548
 21
414.81936267898118
 31
0.0
  0
LINE
  5
758D
  8
1
 10
580.20699028206548
 20
408.81936267898112
 30
0.0
 11
565.20699028206548
 21
408.81936267898112
 31
0.0
  0
LINE
  5
758E
  8
1
 10
562.41324028189251
 20
420.01936267897349
 30
0.0
 11
535.61986875667685
 21
420.01936267897361
 31
0.0
  0
LINE
  5
758F
  8
1
 10
526.00699028190365
 20
206.42613197426161
 30
0.0
 11
527.00699028190536
 21
206.42613197426161
 31
0.0
  0
LINE
  5
7590
  8
1
 10
526.00699028190775
 20
234.92613197426169
 30
0.0
 11
527.00699028190775
 21
234.92613197426169
 31
0.0
  0
LINE
  5
7591
  8
1
 10
526.00699028190365
 20
206.42613197426161
 30
0.0
 11
527.00699028190536
 21
206.42613197426161
 31
0.0
  0
LINE
  5
7592
  8
1
 10
526.00699028190365
 20
206.42613197426161
 30
0.0
 11
526.00699028190775
 21
234.92613197426169
 31
0.0
  0
ARC
  5
7593
  8
1
 10
529.00699028188717
 20
204.22613197426091
 30
0.0
 40
2.0
 50
359.99999999989581
 51
90.0
  0
ARC
  5
7594
  8
1
 10
529.00699028191684
 20
237.1261319742606
 30
0.0
 40
2.0
 50
270.0
 51
359.99999999989581
  0
LINE
  5
7595
  8
1
 10
529.0069902818891
 20
206.22613197426091
 30
0.0
 11
527.00699028189808
 21
206.22613197426091
 31
0.0
  0
LINE
  5
7596
  8
1
 10
529.00699028191502
 20
235.1261319742606
 30
0.0
 11
527.00699028191502
 21
235.12613197426239
 31
0.0
  0
CIRCLE
  5
7597
  8
1
 10
572.70699028189119
 20
220.67613197425169
 30
0.0
 40
8.8000000000000007
  0
CIRCLE
  5
7598
  8
1
 10
572.70699028189119
 20
220.67613197425169
 30
0.0
 40
9.8000000000000007
  0
CIRCLE
  5
7599
  8
1
 10
572.70699028189119
 20
220.67613197425169
 30
0.0
 40
11.0
  0
CIRCLE
  5
759A
  8
1
 10
572.70699028189301
 20
220.67613197425169
 30
0.0
 40
5.5
  0
CIRCLE
  5
759B
  8
1
 10
572.70699028189301
 20
220.67613197425169
 30
0.0
 40
4.0
  0
ARC
  5
759C
  8
1
 10
572.70699028189301
 20
220.67613197425169
 30
0.0
 40
7.5
 50
201.03946978130139
 51
338.96053021869852
  0
CIRCLE
  5
759D
  8
1
 10
572.70699028189301
 20
220.67613197425169
 30
0.0
 40
8.0
  0
LINE
  5
759E
  8
1
 10
579.70699028189301
 20
216.80314862804411
 30
0.0
 11
579.70699028189301
 21
224.54911532046009
 31
0.0
  0
LINE
  5
7672
  8
1
 10
158.132065508229
 20
215.67613197425189
 30
0.0
 11
159.132065508229
 21
215.67613197425189
 31
0.0
  0
LINE
  5
7673
  8
1
 10
158.132065508229
 20
208.67613197425189
 30
0.0
 11
158.132065508229
 21
215.67613197425189
 31
0.0
  0
LINE
  5
7674
  8
1
 10
159.132065508229
 20
208.67613197425189
 30
0.0
 11
158.132065508229
 21
208.67613197425189
 31
0.0
  0
LINE
  5
7675
  8
1
 10
159.132065508229
 20
215.67613197425189
 30
0.0
 11
159.132065508229
 21
208.67613197425189
 31
0.0
  0
LINE
  5
7676
  8
1
 10
159.132065508229
 20
216.67613197425189
 30
0.0
 11
159.93206550822919
 21
216.67613197425189
 31
0.0
  0
LINE
  5
7677
  8
1
 10
159.132065508229
 20
207.6761319742518
 30
0.0
 11
159.132065508229
 21
216.67613197425189
 31
0.0
  0
LINE
  5
7678
  8
1
 10
159.93206550822919
 20
207.6761319742518
 30
0.0
 11
159.132065508229
 21
207.6761319742518
 31
0.0
  0
LINE
  5
7679
  8
1
 10
159.93206550822919
 20
216.67613197425189
 30
0.0
 11
159.93206550822919
 21
207.6761319742518
 31
0.0
  0
LINE
  5
767A
  8
1
 10
157.06914152526579
 20
215.62042648875749
 30
0.0
 11
158.132065508229
 21
215.67613197425189
 31
0.0
  0
ARC
  5
767B
  8
1
 10
157.1371782683818
 20
214.32220809357671
 30
0.0
 40
1.3
 50
93.000000000005784
 51
163.81670078022231
  0
LINE
  5
767C
  8
1
 10
158.132065508229
 20
208.67613197425189
 30
0.0
 11
157.06914152526579
 21
208.73183745974541
 31
0.0
  0
ARC
  5
767D
  8
1
 10
157.1371782683818
 20
210.03005585492619
 30
0.0
 40
1.3
 50
196.18329921977761
 51
266.9999999999942
  0
ARC
  5
767E
  8
1
 10
164.53206550822961
 20
212.17613197425189
 30
0.0
 40
8.9999999999998312
 50
163.81670078022231
 51
196.18329921977761
  0
LINE
  5
767F
  8
1
 10
158.132065508229
 20
215.67613197425189
 30
0.0
 11
158.132065508229
 21
208.67613197425189
 31
0.0
  0
LINE
  5
7680
  8
CENTER
 10
161.787940877095
 20
212.1761319742514
 30
0.0
 11
155.85072328133811
 21
212.17613197425231
 31
0.0
  0
LINE
  5
7681
  8
1
 10
171.93206550822919
 20
218.1761319742514
 30
0.0
 11
171.93206550822919
 21
206.17613197425231
 31
0.0
  0
LINE
  5
7682
  8
1
 10
159.93206550822919
 20
206.17613197425231
 30
0.0
 11
171.93206550822831
 21
206.1761319742505
 31
0.0
  0
LINE
  5
7683
  8
1
 10
159.93206550822919
 20
218.17613197425231
 30
0.0
 11
171.93206550822919
 21
218.17613197425231
 31
0.0
  0
LINE
  5
7684
  8
1
 10
159.93206550822919
 20
218.1761319742514
 30
0.0
 11
159.93206550822919
 21
206.17613197425231
 31
0.0
  0
LINE
  5
7685
  8
CENTER
 10
151.5542961491864
 20
212.176131974252
 30
0.0
 11
176.3485074283717
 21
212.1761319742514
 31
0.0
  0
LINE
  5
7690
  8
CENTER
 10
213.63206550819311
 20
73.633189649183805
 30
0.0
 11
213.63206550819311
 21
331.70898526580947
 31
0.0
  0
LINE
  5
7691
  8
CENTER
 10
396.73907601172408
 20
485.01936267897338
 30
0.0
 11
737.60182075157445
 21
485.01936267897338
 31
0.0
  0
LINE
  5
7692
  8
CENTER
 10
572.70699028189608
 20
570.62803653133301
 30
0.0
 11
572.70699028189608
 21
362.97554529669299
 31
0.0
  0
LINE
  5
7693
  8
CENTER
 10
572.70699028189244
 20
328.99688569480321
 30
0.0
 11
572.70699028189244
 21
84.036617724075313
 31
0.0
  0
LINE
  5
7694
  8
CENTER
 10
516.13911261751355
 20
220.67613197425169
 30
0.0
 11
625.46656041175345
 21
220.67613197425169
 31
0.0
  0
LINE
  5
7695
  8
CENTER
 10
512.7069902818937
 20
324.58431797026742
 30
0.0
 11
512.7069902818937
 21
290.87728402016768
 31
0.0
  0
LINE
  5
7696
  8
CENTER
 10
512.7069902818937
 20
120.2357740242407
 30
0.0
 11
512.7069902818937
 21
86.625409919050526
 31
0.0
  0
LINE
  5
7697
  8
CENTER
 10
632.70699028189188
 20
324.58431797026708
 30
0.0
 11
632.70699028189188
 21
290.87728402016751
 31
0.0
  0
LINE
  5
7698
  8
CENTER
 10
632.70699028189188
 20
120.2357740242405
 30
0.0
 11
632.70699028189188
 21
86.625409919050298
 31
0.0
  0
LINE
  5
7699
  8
CENTER
 10
273.63206550819308
 20
324.584317970271
 30
0.0
 11
273.63206550819308
 21
290.87728402017132
 31
0.0
  0
LINE
  5
769A
  8
CENTER
 10
273.63206550819308
 20
120.23577402424429
 30
0.0
 11
273.63206550819308
 21
86.625409919054164
 31
0.0
  0
LINE
  5
769B
  8
CENTER
 10
153.63206550819311
 20
120.23577402424429
 30
0.0
 11
153.63206550819311
 21
86.625409919054164
 31
0.0
  0
LINE
  5
769C
  8
CENTER
 10
153.63206550819311
 20
324.584317970271
 30
0.0
 11
153.63206550819311
 21
290.87728402017132
 31
0.0
  0
LINE
  5
769D
  8
CENTER
 10
250.66350019214491
 20
220.17613197414971
 30
0.0
 11
336.64254133892831
 21
220.17613197414971
 31
0.0
  0
LINE
  5
7740
  8
1
  6
CONTINUOUS
 10
619.19032013571291
 20
130.57613197423979
 30
0.0
 11
619.19032013571291
 21
138.07613197423979
 31
0.0
  0
LINE
  5
7741
  8
1
  6
CONTINUOUS
 10
619.19032013571291
 20
138.07613197423979
 30
0.0
 11
618.32429432814376
 21
138.57613197423979
 31
0.0
  0
LINE
  5
7742
  8
1
  6
CONTINUOUS
 10
619.19032013571291
 20
138.07613197423979
 30
0.0
 11
615.94032013571291
 21
138.07613197423979
 31
0.0
  0
LINE
  5
7743
  8
1
  6
CONTINUOUS
 10
606.19032013571291
 20
138.07613197423979
 30
0.0
 11
607.05634594328194
 21
138.57613197423979
 31
0.0
  0
LINE
  5
7744
  8
1
  6
CONTINUOUS
 10
609.4403201357128
 20
138.07613197423979
 30
0.0
 11
606.19032013571291
 21
138.07613197423979
 31
0.0
  0
LINE
  5
7745
  8
1
  6
CONTINUOUS
 10
606.19032013571291
 20
130.57613197423979
 30
0.0
 11
606.19032013571291
 21
138.07613197423979
 31
0.0
  0
LINE
  5
7746
  8
1
  6
CONTINUOUS
 10
618.32429432814376
 20
138.57613197423979
 30
0.0
 11
607.05634594328194
 21
138.57613197423979
 31
0.0
  0
LINE
  5
7747
  8
1
  6
CONTINUOUS
 10
619.19032013571291
 20
130.57613197423979
 30
0.0
 11
606.19032013571291
 21
130.57613197423979
 31
0.0
  0
INSERT
  5
7748
  8
1
  2
SWS08
 10
612.54415885598019
 20
130.57613197423979
 30
0.0
 50
90.0
  0
LINE
  5
7749
  8
1
 10
604.79415885598007
 20
128.57613197424021
 30
0.0
 11
620.29415885598007
 21
128.57613197423979
 31
0.0
  0
LINE
  5
774A
  8
1
 10
604.79415885598007
 20
126.97613197423991
 30
0.0
 11
620.29415885598007
 21
126.97613197423991
 31
0.0
  0
LINE
  5
774B
  8
1
 10
620.29415885598007
 20
126.97613197423991
 30
0.0
 11
620.29415885598007
 21
128.57613197424021
 31
0.0
  0
LINE
  5
774C
  8
1
 10
604.79415885598007
 20
126.97613197423991
 30
0.0
 11
604.79415885598007
 21
128.57613197423979
 31
0.0
  0
LINE
  5
774D
  8
1
 10
540.61982170780493
 20
126.97613197423991
 30
0.0
 11
540.61982170780493
 21
128.57613197423979
 31
0.0
  0
LINE
  5
774E
  8
1
 10
525.11982170780493
 20
126.97613197423991
 30
0.0
 11
525.11982170780493
 21
128.57613197424021
 31
0.0
  0
LINE
  5
774F
  8
1
 10
540.61982170780493
 20
126.97613197423991
 30
0.0
 11
525.11982170780493
 21
126.97613197423991
 31
0.0
  0
LINE
  5
7750
  8
1
 10
540.61982170780493
 20
128.57613197424021
 30
0.0
 11
525.11982170780493
 21
128.57613197423979
 31
0.0
  0
LINE
  5
7752
  8
1
  6
CONTINUOUS
 10
526.22366042807221
 20
130.57613197423979
 30
0.0
 11
539.22366042807209
 21
130.57613197423979
 31
0.0
  0
LINE
  5
7753
  8
1
  6
CONTINUOUS
 10
527.08968623564124
 20
138.57613197423979
 30
0.0
 11
538.35763462050306
 21
138.57613197423979
 31
0.0
  0
LINE
  5
7754
  8
1
  6
CONTINUOUS
 10
539.22366042807209
 20
130.57613197423979
 30
0.0
 11
539.22366042807209
 21
138.07613197423979
 31
0.0
  0
LINE
  5
7755
  8
1
  6
CONTINUOUS
 10
535.97366042807221
 20
138.07613197423979
 30
0.0
 11
539.22366042807209
 21
138.07613197423979
 31
0.0
  0
LINE
  5
7756
  8
1
  6
CONTINUOUS
 10
539.22366042807209
 20
138.07613197423979
 30
0.0
 11
538.35763462050306
 21
138.57613197423979
 31
0.0
  0
LINE
  5
7757
  8
1
  6
CONTINUOUS
 10
526.22366042807221
 20
138.07613197423979
 30
0.0
 11
529.47366042807209
 21
138.07613197423979
 31
0.0
  0
LINE
  5
7758
  8
1
  6
CONTINUOUS
 10
526.22366042807221
 20
138.07613197423979
 30
0.0
 11
527.08968623564124
 21
138.57613197423979
 31
0.0
  0
LINE
  5
7759
  8
1
  6
CONTINUOUS
 10
526.22366042807221
 20
130.57613197423979
 30
0.0
 11
526.22366042807221
 21
138.07613197423979
 31
0.0
  0
LINE
  5
775A
  8
1
 10
540.61982170780493
 20
126.97613197423991
 30
0.0
 11
525.11982170780493
 21
126.97613197423971
 31
0.0
  0
INSERT
  5
775C
  8
1
  2
SWS08
 10
532.86982170780493
 20
130.57613197423979
 30
0.0
 50
90.0
  0
LINE
  5
775E
  8
1
  6
CONTINUOUS
 10
597.23774353840315
 20
283.37613197424002
 30
0.0
 11
597.23774353840315
 21
275.87613197424002
 31
0.0
  0
LINE
  5
775F
  8
1
  6
CONTINUOUS
 10
597.23774353840315
 20
275.87613197424002
 30
0.0
 11
598.10376934597195
 21
275.37613197424002
 31
0.0
  0
LINE
  5
7760
  8
1
  6
CONTINUOUS
 10
597.23774353840315
 20
275.87613197424002
 30
0.0
 11
600.48774353840315
 21
275.87613197424002
 31
0.0
  0
LINE
  5
7761
  8
1
  6
CONTINUOUS
 10
610.23774353840315
 20
275.87613197424002
 30
0.0
 11
609.37171773083401
 21
275.37613197424002
 31
0.0
  0
LINE
  5
7762
  8
1
  6
CONTINUOUS
 10
606.98774353840315
 20
275.87613197424002
 30
0.0
 11
610.23774353840315
 21
275.87613197424002
 31
0.0
  0
LINE
  5
7763
  8
1
  6
CONTINUOUS
 10
610.23774353840315
 20
283.37613197424002
 30
0.0
 11
610.23774353840315
 21
275.87613197424002
 31
0.0
  0
LINE
  5
7764
  8
1
  6
CONTINUOUS
 10
598.10376934597195
 20
275.37613197424002
 30
0.0
 11
609.37171773083401
 21
275.37613197424002
 31
0.0
  0
LINE
  5
7765
  8
1
  6
CONTINUOUS
 10
597.23774353840315
 20
283.37613197424002
 30
0.0
 11
610.23774353840315
 21
283.37613197424002
 31
0.0
  0
LINE
  5
7766
  8
1
 10
611.63390481813599
 20
286.97613197423988
 30
0.0
 11
596.13390481813587
 21
286.97613197423988
 31
0.0
  0
LINE
  5
7767
  8
1
 10
611.63390481813599
 20
285.37613197423951
 30
0.0
 11
596.13390481813587
 21
285.37613197424002
 31
0.0
  0
INSERT
  5
7768
  8
1
  2
SWS08
 10
603.88390481813587
 20
283.37613197424002
 30
0.0
 50
270.0
  0
LINE
  5
7769
  8
1
 10
611.63390481813599
 20
286.97613197423988
 30
0.0
 11
611.63390481813599
 21
285.37613197424002
 31
0.0
  0
LINE
  5
776A
  8
1
 10
596.13390481813587
 20
286.97613197423988
 30
0.0
 11
596.13390481813587
 21
285.37613197423951
 31
0.0
  0
CIRCLE
  5
77A0
  8
1
 62
     9
 10
572.70699028189608
 20
521.01936267897349
 30
0.0
 40
4.0
  0
CIRCLE
  5
77A1
  8
1
 10
572.70699028189608
 20
521.01936267897349
 30
0.0
 40
3.2999999999999989
  0
CIRCLE
  5
77A2
  8
1
 62
     9
 10
541.53007574565595
 20
467.01936267897338
 30
0.0
 40
4.0
  0
CIRCLE
  5
77A3
  8
1
 10
541.53007574565595
 20
467.01936267897338
 30
0.0
 40
3.2999999999999989
  0
CIRCLE
  5
77A4
  8
1
 62
     9
 10
603.88390481813587
 20
467.01936267897361
 30
0.0
 40
4.0
  0
CIRCLE
  5
77A5
  8
1
 10
603.88390481813587
 20
467.01936267897361
 30
0.0
 40
3.2999999999999989
  0
CIRCLE
  5
77AF
  8
1
 10
572.70699028189244
 20
117.976131974239
 30
0.0
 40
5.0
  0
CIRCLE
  5
77B0
  8
1
 10
572.70699028189244
 20
117.976131974239
 30
0.0
 40
3.0
  0
VIEWPORT
  5
22
 67
     1
  8
0
 10
215.8993564851678
 20
152.48018151837871
 30
0.0
 40
497.1790695302181
 41
310.33336401683249
 68
     1
 69
     1
1001
ACAD
1000
MVIEW
1002
{
1070
    16
1010
0.0
1020
0.0
1030
0.0
1010
0.0
1020
0.0
1030
1.0
1040
0.0
1040
310.33336401683249
1040
215.8993564851678
1040
152.48018151837871
1040
50.0
1040
0.0
1040
0.0
1070
     0
1070
   100
1070
     1
1070
     0
1070
     0
1070
     0
1070
     0
1070
     0
1040
0.0
1040
0.0
1040
0.0
1040
1.0
1040
1.0
1040
10.0
1040
10.0
1070
     0
1002
{
1002
}
1002
}
  0
VIEWPORT
  5
2CF
 67
     1
  8
DEFPOINTS
 10
212.49999999999989
 20
149.49999999999989
 30
0.0
 40
384.99999999999977
 41
265.0
 68
     2
 69
     2
1001
ACAD
1000
MVIEW
1002
{
1070
    16
1010
0.0
1020
0.0
1030
0.0
1010
0.0
1020
0.0
1030
1.0
1040
0.0
1040
530.0
1040
435.33326992221731
1040
322.03676100126171
1040
50.0
1040
0.0
1040
0.0
1070
     0
1070
   100
1070
     1
1070
     0
1070
     0
1070
     0
1070
     0
1070
     1
1040
0.0
1040
0.0
1040
0.0
1040
168.0
1040
168.0
1040
0.0
1040
0.0
1070
     0
1002
{
1002
}
1002
}
  0
ENDSEC
  0
EOF
