  0
SECTION
  2
HEADER
  9
$ACADVER
  1
AC1015
  9
$ACADMAINTVER
 70
     6
  9
$DWGCODEPAGE
  3
ANSI_932
  9
$INSBASE
 10
0.0
 20
0.0
 30
0.0
  9
$EXTMIN
 10
8.466575831189402
 20
40.13348585782568
 30
0.0
  9
$EXTMAX
 10
466.3104394217281
 20
238.9982297289342
 30
0.0
  9
$LIMMIN
 10
0.0
 20
0.0
  9
$LIMMAX
 10
409.8899999999999
 20
282.8899999999999
  9
$ORTHOMODE
 70
     1
  9
$REGENMODE
 70
     1
  9
$FILLMODE
 70
     1
  9
$QTEXTMODE
 70
     0
  9
$MIRRTEXT
 70
     1
  9
$LTSCALE
 40
10.0
  9
$ATTMODE
 70
     1
  9
$TEXTSIZE
 40
3.5
  9
$TRACEWID
 40
1.0
  9
$TEXTSTYLE
  7
AD-STANDARD
  9
$CLAYER
  8
0
  9
$CELTYPE
  6
BYLAYER
  9
$CECOLOR
 62
   256
  9
$CELTSCALE
 40
1.0
  9
$DISPSILH
 70
     0
  9
$DIMSCALE
 40
1.0
  9
$DIMASZ
 40
0.18
  9
$DIMEXO
 40
0.0625
  9
$DIMDLI
 40
0.38
  9
$DIMRND
 40
0.0
  9
$DIMDLE
 40
0.0
  9
$DIMEXE
 40
0.18
  9
$DIMTP
 40
0.0
  9
$DIMTM
 40
0.0
  9
$DIMTXT
 40
0.18
  9
$DIMCEN
 40
0.09
  9
$DIMTSZ
 40
0.0
  9
$DIMTOL
 70
     0
  9
$DIMLIM
 70
     0
  9
$DIMTIH
 70
     1
  9
$DIMTOH
 70
     1
  9
$DIMSE1
 70
     0
  9
$DIMSE2
 70
     0
  9
$DIMTAD
 70
     0
  9
$DIMZIN
 70
     0
  9
$DIMBLK
  1

  9
$DIMASO
 70
     1
  9
$DIMSHO
 70
     1
  9
$DIMPOST
  1

  9
$DIMAPOST
  1

  9
$DIMALT
 70
     0
  9
$DIMALTD
 70
     2
  9
$DIMALTF
 40
25.4
  9
$DIMLFAC
 40
1.0
  9
$DIMTOFL
 70
     0
  9
$DIMTVP
 40
0.0
  9
$DIMTIX
 70
     0
  9
$DIMSOXD
 70
     0
  9
$DIMSAH
 70
     0
  9
$DIMBLK1
  1

  9
$DIMBLK2
  1

  9
$DIMSTYLE
  2
STANDARD
  9
$DIMCLRD
 70
     0
  9
$DIMCLRE
 70
     0
  9
$DIMCLRT
 70
     0
  9
$DIMTFAC
 40
1.0
  9
$DIMGAP
 40
0.09
  9
$DIMJUST
 70
     0
  9
$DIMSD1
 70
     0
  9
$DIMSD2
 70
     0
  9
$DIMTOLJ
 70
     1
  9
$DIMTZIN
 70
     0
  9
$DIMALTZ
 70
     0
  9
$DIMALTTZ
 70
     0
  9
$DIMUPT
 70
     0
  9
$DIMDEC
 70
     4
  9
$DIMTDEC
 70
     4
  9
$DIMALTU
 70
     2
  9
$DIMALTTD
 70
     2
  9
$DIMTXSTY
  7
STANDARD
  9
$DIMAUNIT
 70
     0
  9
$DIMADEC
 70
     0
  9
$DIMALTRND
 40
0.0
  9
$DIMAZIN
 70
     0
  9
$DIMDSEP
 70
    46
  9
$DIMATFIT
 70
     3
  9
$DIMFRAC
 70
     0
  9
$DIMLDRBLK
  1

  9
$DIMLUNIT
 70
     2
  9
$DIMLWD
 70
    -2
  9
$DIMLWE
 70
    -2
  9
$DIMTMOVE
 70
     0
  9
$LUNITS
 70
     2
  9
$LUPREC
 70
     4
  9
$SKETCHINC
 40
1.0
  9
$FILLETRAD
 40
0.0
  9
$AUNITS
 70
     0
  9
$AUPREC
 70
     0
  9
$MENU
  1
.
  9
$ELEVATION
 40
0.0
  9
$PELEVATION
 40
0.0
  9
$THICKNESS
 40
0.0
  9
$LIMCHECK
 70
     0
  9
$CHAMFERA
 40
0.0
  9
$CHAMFERB
 40
0.0
  9
$CHAMFERC
 40
673.4006734006733
  9
$CHAMFERD
 40
0.0
  9
$SKPOLY
 70
     0
  9
$TDCREATE
 40
2455079.477832176
  9
$TDUCREATE
 40
2455079.102832176
  9
$TDUPDATE
 40
2455503.497135139
  9
$TDUUPDATE
 40
2455503.122135139
  9
$TDINDWG
 40
1.1407347917
  9
$TDUSRTIMER
 40
1.1407347917
  9
$USRTIMER
 70
     1
  9
$ANGBASE
 50
0.0
  9
$ANGDIR
 70
     0
  9
$PDMODE
 70
     0
  9
$PDSIZE
 40
0.0
  9
$PLINEWID
 40
0.0
  9
$SPLFRAME
 70
     0
  9
$SPLINETYPE
 70
     6
  9
$SPLINESEGS
 70
     8
  9
$HANDSEED
  5
12F8
  9
$SURFTAB1
 70
     6
  9
$SURFTAB2
 70
     6
  9
$SURFTYPE
 70
     6
  9
$SURFU
 70
     6
  9
$SURFV
 70
     6
  9
$UCSBASE
  2

  9
$UCSNAME
  2

  9
$UCSORG
 10
0.0
 20
0.0
 30
0.0
  9
$UCSXDIR
 10
1.0
 20
0.0
 30
0.0
  9
$UCSYDIR
 10
0.0
 20
1.0
 30
0.0
  9
$UCSORTHOREF
  2

  9
$UCSORTHOVIEW
 70
     0
  9
$UCSORGTOP
 10
0.0
 20
0.0
 30
0.0
  9
$UCSORGBOTTOM
 10
0.0
 20
0.0
 30
0.0
  9
$UCSORGLEFT
 10
0.0
 20
0.0
 30
0.0
  9
$UCSORGRIGHT
 10
0.0
 20
0.0
 30
0.0
  9
$UCSORGFRONT
 10
0.0
 20
0.0
 30
0.0
  9
$UCSORGBACK
 10
0.0
 20
0.0
 30
0.0
  9
$PUCSBASE
  2

  9
$PUCSNAME
  2

  9
$PUCSORG
 10
0.0
 20
0.0
 30
0.0
  9
$PUCSXDIR
 10
1.0
 20
0.0
 30
0.0
  9
$PUCSYDIR
 10
0.0
 20
1.0
 30
0.0
  9
$PUCSORTHOREF
  2

  9
$PUCSORTHOVIEW
 70
     0
  9
$PUCSORGTOP
 10
0.0
 20
0.0
 30
0.0
  9
$PUCSORGBOTTOM
 10
0.0
 20
0.0
 30
0.0
  9
$PUCSORGLEFT
 10
0.0
 20
0.0
 30
0.0
  9
$PUCSORGRIGHT
 10
0.0
 20
0.0
 30
0.0
  9
$PUCSORGFRONT
 10
0.0
 20
0.0
 30
0.0
  9
$PUCSORGBACK
 10
0.0
 20
0.0
 30
0.0
  9
$USERI1
 70
     0
  9
$USERI2
 70
     0
  9
$USERI3
 70
     0
  9
$USERI4
 70
     0
  9
$USERI5
 70
     0
  9
$USERR1
 40
0.0
  9
$USERR2
 40
0.0
  9
$USERR3
 40
0.0
  9
$USERR4
 40
0.0
  9
$USERR5
 40
0.0
  9
$WORLDVIEW
 70
     1
  9
$SHADEDGE
 70
     3
  9
$SHADEDIF
 70
    70
  9
$TILEMODE
 70
     1
  9
$MAXACTVP
 70
    16
  9
$PINSBASE
 10
0.0
 20
0.0
 30
0.0
  9
$PLIMCHECK
 70
     0
  9
$PEXTMIN
 10
20.0
 20
12.0
 30
0.0
  9
$PEXTMAX
 10
405.0
 20
276.9999999999999
 30
0.0
  9
$PLIMMIN
 10
0.0
 20
0.0
  9
$PLIMMAX
 10
409.8899999999999
 20
282.8899999999999
  9
$UNITMODE
 70
     0
  9
$VISRETAIN
 70
     0
  9
$PLINEGEN
 70
     0
  9
$PSLTSCALE
 70
     1
  9
$TREEDEPTH
 70
  3020
  9
$CMLSTYLE
  2
STANDARD
  9
$CMLJUST
 70
     0
  9
$CMLSCALE
 40
1.0
  9
$PROXYGRAPHICS
 70
     1
  9
$MEASUREMENT
 70
     1
  9
$CELWEIGHT
370
    -1
  9
$ENDCAPS
280
     0
  9
$JOINSTYLE
280
     0
  9
$LWDISPLAY
290
     0
  9
$INSUNITS
 70
     0
  9
$HYPERLINKBASE
  1

  9
$STYLESHEET
  1

  9
$XEDIT
290
     1
  9
$CEPSNTYPE
380
     0
  9
$PSTYLEMODE
290
     1
  9
$FINGERPRINTGUID
  2
{8ACAE060-96A8-11D3-AA4A-00A0247712C1}
  9
$VERSIONGUID
  2
{ECE1CB72-0131-4E93-8F44-8B3A7DCA6E95}
  9
$EXTNAMES
290
     1
  9
$PSVPSCALE
 40
0.0
  9
$OLESTARTUP
290
     0
  0
ENDSEC
  0
SECTION
  2
CLASSES
  0
CLASS
  1
LWPOLYLINE
  2
AcDbPolyline
  3
AutoCAD 2000
 90
    32768
280
     0
281
     1
  0
CLASS
  1
ACDBDICTIONARYWDFLT
  2
AcDbDictionaryWithDefault
  3
AutoCAD 2000
 90
        0
280
     0
281
     0
  0
CLASS
  1
ACDBPLACEHOLDER
  2
AcDbPlaceHolder
  3
AutoCAD 2000
 90
        0
280
     0
281
     0
  0
CLASS
  1
LAYOUT
  2
AcDbLayout
  3
AutoCAD 2000
 90
        0
280
     0
281
     0
  0
CLASS
  1
PLOTSETTINGS
  2
AcDbPlotSettings
  3
AutoCAD 2000
 90
        0
280
     0
281
     0
  0
ENDSEC
  0
SECTION
  2
TABLES
  0
TABLE
  2
VPORT
  5
8
330
0
100
AcDbSymbolTable
 70
     4
  0
VPORT
  5
12F7
330
8
100
AcDbSymbolTableRecord
100
AcDbViewportTableRecord
  2
*Active
 70
     0
 10
0.0
 20
0.0
 11
1.0
 21
1.0
 12
214.456489365496
 22
165.2225670869091
 13
0.0
 23
0.0
 14
168.0
 24
168.0
 15
0.0
 25
0.0
 16
0.0
 26
0.0
 36
1.0
 17
0.0
 27
0.0
 37
0.0
 40
519.1129370335162
 41
1.287220026350461
 42
50.0
 43
0.0
 44
0.0
 50
0.0
 51
0.0
 71
     0
 72
   100
 73
     1
 74
     0
 75
     0
 76
     0
 77
     0
 78
     1
281
     0
 65
     1
110
0.0
120
0.0
130
0.0
111
1.0
121
0.0
131
0.0
112
0.0
122
1.0
132
0.0
 79
     0
146
0.0
  0
ENDTAB
  0
TABLE
  2
LTYPE
  5
5
330
0
100
AcDbSymbolTable
 70
     3
  0
LTYPE
  5
14
330
5
100
AcDbSymbolTableRecord
100
AcDbLinetypeTableRecord
  2
BYBLOCK
 70
     0
  3

 72
    65
 73
     0
 40
0.0
  0
LTYPE
  5
15
330
5
100
AcDbSymbolTableRecord
100
AcDbLinetypeTableRecord
  2
BYLAYER
 70
     0
  3

 72
    65
 73
     0
 40
0.0
  0
LTYPE
  5
16
330
5
100
AcDbSymbolTableRecord
100
AcDbLinetypeTableRecord
  2
CONTINUOUS
 70
     0
  3
Solid line
 72
    65
 73
     0
 40
0.0
  0
LTYPE
  5
6E
330
5
100
AcDbSymbolTableRecord
100
AcDbLinetypeTableRecord
  2
CENTER
 70
     0
  3
____ _ ____ _ ____ _ ____ _ ____ _ ____ _ ____ 
 72
    65
 73
     4
 40
2.0
 49
1.25
 74
     0
 49
-0.25
 74
     0
 49
0.25
 74
     0
 49
-0.25
 74
     0
  0
LTYPE
  5
6F
330
5
100
AcDbSymbolTableRecord
100
AcDbLinetypeTableRecord
  2
HIDDEN
 70
     0
  3
__ __ __ __ __ __ __ __ __ __ __ __ __ __ __ __
 72
    65
 73
     2
 40
0.375
 49
0.25
 74
     0
 49
-0.125
 74
     0
  0
ENDTAB
  0
TABLE
  2
LAYER
  5
2
102
{ACAD_XDICTIONARY
360
394
102
}
330
0
100
AcDbSymbolTable
 70
    12
  0
LAYER
  5
F
330
2
100
AcDbSymbolTableRecord
100
AcDbLayerTableRecord
  2
0
 70
     0
 62
     7
  6
CONTINUOUS
370
    -3
390
2C1
  0
LAYER
  5
71
330
2
100
AcDbSymbolTableRecord
100
AcDbLayerTableRecord
  2
MEASURE
 70
     0
 62
     9
  6
CONTINUOUS
370
    -3
390
2C1
  0
LAYER
  5
72
330
2
100
AcDbSymbolTableRecord
100
AcDbLayerTableRecord
  2
DEFPOINTS
 70
     0
 62
     7
  6
CONTINUOUS
290
     0
370
    -3
390
2C1
  0
LAYER
  5
74
330
2
100
AcDbSymbolTableRecord
100
AcDbLayerTableRecord
  2
CENTER
 70
     0
 62
     9
  6
CENTER
370
    -3
390
2C1
  0
LAYER
  5
12F4
330
2
100
AcDbSymbolTableRecord
100
AcDbLayerTableRecord
  2
1
 70
     0
 62
     7
  6
CONTINUOUS
370
    -3
390
2C1
  0
ENDTAB
  0
TABLE
  2
STYLE
  5
3
330
0
100
AcDbSymbolTable
 70
     5
  0
STYLE
  5
10
330
3
100
AcDbSymbolTableRecord
100
AcDbTextStyleTableRecord
  2
STANDARD
 70
     0
 40
0.0
 41
0.8
 50
0.0
 71
     0
 42
84.17508417508416
  3
TXT
  4
bigfont.shx
  0
STYLE
  5
63
330
3
100
AcDbSymbolTableRecord
100
AcDbTextStyleTableRecord
  2
AD-STANDARD
 70
     0
 40
0.0
 41
0.8
 50
0.0
 71
     0
 42
3.5
  3
C:\Program Files\AutoCAD LT\romans.shx
  4
bigfont.shx
  0
ENDTAB
  0
TABLE
  2
VIEW
  5
6
330
0
100
AcDbSymbolTable
 70
     0
  0
ENDTAB
  0
TABLE
  2
UCS
  5
7
330
0
100
AcDbSymbolTable
 70
     0
  0
ENDTAB
  0
TABLE
  2
APPID
  5
9
330
0
100
AcDbSymbolTable
 70
     5
  0
APPID
  5
11
330
9
100
AcDbSymbolTableRecord
100
AcDbRegAppTableRecord
  2
ACAD
 70
     0
  0
APPID
  5
22A
330
9
100
AcDbSymbolTableRecord
100
AcDbRegAppTableRecord
  2
CONTENTTABDATA
 70
     0
  0
APPID
  5
22B
330
9
100
AcDbSymbolTableRecord
100
AcDbRegAppTableRecord
  2
CONTENTCURRENTTAB
 70
     0
  0
APPID
  5
232
330
9
100
AcDbSymbolTableRecord
100
AcDbRegAppTableRecord
  2
CONTENTBLOCKDESCRIPTION
 70
     0
  0
APPID
  5
233
330
9
100
AcDbSymbolTableRecord
100
AcDbRegAppTableRecord
  2
CONTENTBLOCKICON
 70
     0
  0
ENDTAB
  0
TABLE
  2
DIMSTYLE
  5
A
330
0
100
AcDbSymbolTable
 70
     2
100
AcDbDimStyleTable
 71
     1
340
1D
  0
DIMSTYLE
105
1D
330
A
100
AcDbSymbolTableRecord
100
AcDbDimStyleTableRecord
  2
STANDARD
 70
     0
340
10
  0
ENDTAB
  0
TABLE
  2
BLOCK_RECORD
  5
1
330
0
100
AcDbSymbolTable
 70
    62
  0
BLOCK_RECORD
  5
1A
330
1
100
AcDbSymbolTableRecord
100
AcDbBlockTableRecord
  2
*MODEL_SPACE
340
2C4
  0
BLOCK_RECORD
  5
17
330
1
100
AcDbSymbolTableRecord
100
AcDbBlockTableRecord
  2
*PAPER_SPACE
340
2C5
  0
ENDTAB
  0
ENDSEC
  0
SECTION
  2
BLOCKS
  0
BLOCK
  5
1B
330
1A
100
AcDbEntity
  8
0
100
AcDbBlockBegin
  2
*MODEL_SPACE
 70
     0
 10
0.0
 20
0.0
 30
0.0
  3
*MODEL_SPACE
  1

  0
ENDBLK
  5
1C
330
1A
100
AcDbEntity
  8
0
100
AcDbBlockEnd
  0
BLOCK
  5
18
330
17
100
AcDbEntity
 67
     1
  8
0
100
AcDbBlockBegin
  2
*PAPER_SPACE
 70
     0
 10
0.0
 20
0.0
 30
0.0
  3
*PAPER_SPACE
  1

  0
ENDBLK
  5
19
330
17
100
AcDbEntity
 67
     1
  8
0
100
AcDbBlockEnd
  0
ENDSEC
  0
SECTION
  2
ENTITIES
  0
MTEXT
  5
8FE
102
{ACAD_REACTORS
330
8FD
102
}
330
1A
100
AcDbEntity
  8
MEASURE
 62
     2
100
AcDbMText
 10
5034.411669941274
 20
5022.749661921313
 30
0.0
 40
7.0
 41
20.0
 71
     9
 72
     1
  1

  7
AD-STANDARD
 73
     1
 44
1.0
  0
LINE
  5
F0C
330
1A
100
AcDbEntity
  8
1
100
AcDbLine
 10
249.904570317165
 20
234.9982297289343
 30
0.0
 11
237.9045703171641
 21
234.9982297289343
 31
0.0
  0
LINE
  5
F0D
330
1A
100
AcDbEntity
  8
1
100
AcDbLine
 10
249.904570317165
 20
148.9982297289325
 30
0.0
 11
237.9045703171641
 21
148.9982297289325
 31
0.0
  0
LINE
  5
F0E
330
1A
100
AcDbEntity
  8
1
100
AcDbLine
 10
249.904570317165
 20
101.3093518535397
 30
0.0
 11
234.904570317165
 21
101.3093518535397
 31
0.0
  0
LINE
  5
F0F
330
1A
100
AcDbEntity
  8
1
100
AcDbLine
 10
249.904570317165
 20
50.30935185353792
 30
0.0
 11
234.904570317165
 21
50.30935185353792
 31
0.0
  0
LINE
  5
F10
330
1A
100
AcDbEntity
  8
CENTER
100
AcDbLine
 10
331.0575924749455
 20
191.9982297289334
 30
0.0
 11
9.789105440248022
 21
191.9982297289334
 31
0.0
  0
LINE
  5
F11
330
1A
100
AcDbEntity
  8
CENTER
100
AcDbLine
 10
331.3911417783401
 20
75.80935185353883
 30
0.0
 11
8.466575831189402
 21
75.80935185353883
 31
0.0
  0
LINE
  5
F16
330
1A
100
AcDbEntity
  8
1
100
AcDbLine
 10
230.904570317165
 20
167.9982297289343
 30
0.0
 11
230.9045703171659
 21
215.9982297289334
 31
0.0
  0
LINE
  5
F17
330
1A
100
AcDbEntity
  8
1
100
AcDbLine
 10
234.904570317165
 20
151.9982297289325
 30
0.0
 11
234.904570317165
 21
231.9982297289343
 31
0.0
  0
LINE
  5
F18
330
1A
100
AcDbEntity
  8
1
100
AcDbLine
 10
231.904570317165
 20
215.9982297289334
 30
0.0
 11
231.904570317165
 21
167.9982297289334
 31
0.0
  0
LINE
  5
F19
330
1A
100
AcDbEntity
  8
1
100
AcDbLine
 10
233.9045703171632
 20
217.9982297289334
 30
0.0
 11
233.9045703171632
 21
165.9982297289334
 31
0.0
  0
LINE
  5
F1A
330
1A
100
AcDbEntity
  8
1
100
AcDbLine
 10
237.9045703171659
 20
234.9982297289343
 30
0.0
 11
237.9045703171659
 21
148.9982297289325
 31
0.0
  0
LINE
  5
F1B
330
1A
100
AcDbEntity
  8
CENTER
 62
     9
100
AcDbLine
 10
211.904570317165
 20
177.9600639518057
 30
0.0
 11
211.904570317165
 21
205.7403374052273
 31
0.0
  0
LINE
  5
F1C
330
1A
100
AcDbEntity
  8
CENTER
 62
     9
100
AcDbLine
 10
173.904570317165
 20
178.5449126360244
 30
0.0
 11
173.904570317165
 21
205.4479130631179
 31
0.0
  0
CIRCLE
  5
F1D
330
1A
100
AcDbEntity
  8
1
100
AcDbCircle
 10
173.904570317165
 20
191.9982297289334
 30
0.0
 40
10.5
  0
CIRCLE
  5
F1E
330
1A
100
AcDbEntity
  8
1
100
AcDbCircle
 10
211.904570317165
 20
191.9982297289334
 30
0.0
 40
10.5
  0
LINE
  5
F1F
330
1A
100
AcDbEntity
  8
1
100
AcDbLine
 10
85.36385418160989
 20
188.2660566053573
 30
0.0
 11
85.3638541816108
 21
195.7304028525049
 31
0.0
  0
LINE
  5
F20
330
1A
100
AcDbEntity
  8
1
100
AcDbLine
 10
94.20915364322718
 20
188.2660566053573
 30
0.0
 11
94.20915364322718
 21
195.730402852504
 31
0.0
  0
LINE
  5
F21
330
1A
100
AcDbEntity
  8
1
100
AcDbLine
 10
78.809153643223
 20
188.2660566053573
 30
0.0
 11
78.80915364322209
 21
195.7304028525049
 31
0.0
  0
LINE
  5
F22
330
1A
100
AcDbEntity
  8
1
100
AcDbLine
 10
98.48191216777649
 20
187.3607158090899
 30
0.0
 11
98.48191216777559
 21
196.6357436487696
 31
0.0
  0
LINE
  5
F23
330
1A
100
AcDbEntity
  8
1
100
AcDbLine
 10
38.36385418160626
 20
188.2660566053573
 30
0.0
 11
38.36385418160626
 21
195.730402852504
 31
0.0
  0
LINE
  5
F24
330
1A
100
AcDbEntity
  8
1
100
AcDbLine
 10
113.904570317165
 20
167.9982297289325
 30
0.0
 11
113.904570317165
 21
215.9982297289334
 31
0.0
  0
LINE
  5
F25
330
1A
100
AcDbEntity
  8
1
100
AcDbLine
 10
97.90456189858378
 20
212.4982297289343
 30
0.0
 11
97.90456189858469
 21
171.4982297289325
 31
0.0
  0
LINE
  5
F26
330
1A
100
AcDbEntity
  8
1
100
AcDbLine
 10
27.88650391241663
 20
179.9982297289334
 30
0.0
 11
27.88650391241754
 21
203.9982297289334
 31
0.0
  0
LINE
  5
F27
330
1A
100
AcDbEntity
  8
1
100
AcDbLine
 10
94.78650391241627
 20
175.4982297289325
 30
0.0
 11
94.78650391241718
 21
208.4982297289325
 31
0.0
  0
LINE
  5
F28
330
1A
100
AcDbEntity
  8
1
100
AcDbLine
 10
84.78650391241627
 20
173.9982297289325
 30
0.0
 11
84.78650391241627
 21
209.9982297289334
 31
0.0
  0
LINE
  5
F29
330
1A
100
AcDbEntity
  8
1
100
AcDbLine
 10
97.90456189858469
 20
173.9982297289334
 30
0.0
 11
97.90456189858469
 21
209.9982297289334
 31
0.0
  0
LINE
  5
F2A
330
1A
100
AcDbEntity
  8
1
100
AcDbLine
 10
94.78650391241718
 20
209.9982297289334
 30
0.0
 11
94.78650391241718
 21
173.9982297289334
 31
0.0
  0
LINE
  5
F2B
330
1A
100
AcDbEntity
  8
1
100
AcDbLine
 10
79.38650391241663
 20
173.9982297289325
 30
0.0
 11
79.38650391241663
 21
209.9982297289334
 31
0.0
  0
LINE
  5
F2C
330
1A
100
AcDbEntity
  8
1
100
AcDbLine
 10
37.78650391241626
 20
209.9982297289334
 30
0.0
 11
37.78650391241626
 21
173.9982297289334
 31
0.0
  0
LINE
  5
F2D
330
1A
100
AcDbEntity
  8
1
100
AcDbLine
 10
37.78650391241717
 20
175.4982297289325
 30
0.0
 11
37.78650391241626
 21
208.4982297289325
 31
0.0
  0
LINE
  5
F2E
330
1A
100
AcDbEntity
  8
1
  6
HIDDEN
100
AcDbLine
 10
222.404570317165
 20
98.80935185353974
 30
0.0
 11
222.404570317165
 21
50.80935185353883
 31
0.0
  0
LINE
  5
F2F
330
1A
100
AcDbEntity
  8
1
  6
HIDDEN
100
AcDbLine
 10
201.404570317165
 20
98.80935185353974
 30
0.0
 11
201.404570317165
 21
50.80935185353883
 31
0.0
  0
LINE
  5
F30
330
1A
100
AcDbEntity
  8
1
  6
HIDDEN
100
AcDbLine
 10
184.404570317165
 20
98.80935185353974
 30
0.0
 11
184.404570317165
 21
50.80935185353883
 31
0.0
  0
LINE
  5
F31
330
1A
100
AcDbEntity
  8
1
  6
HIDDEN
100
AcDbLine
 10
163.404570317165
 20
98.80935185353974
 30
0.0
 11
163.404570317165
 21
50.80935185353883
 31
0.0
  0
LINE
  5
F32
330
1A
100
AcDbEntity
  8
1
100
AcDbLine
 10
230.904570317165
 20
50.80935185353883
 30
0.0
 11
230.9045703171632
 21
98.80935185353974
 31
0.0
  0
LINE
  5
F33
330
1A
100
AcDbEntity
  8
1
100
AcDbLine
 10
234.904570317165
 20
50.30935185353792
 30
0.0
 11
234.904570317165
 21
101.3093518535397
 31
0.0
  0
LINE
  5
F34
330
1A
100
AcDbEntity
  8
1
100
AcDbLine
 10
231.904570317165
 20
98.80935185353884
 30
0.0
 11
231.904570317165
 21
52.80935185353882
 31
0.0
  0
LINE
  5
F35
330
1A
100
AcDbEntity
  8
1
100
AcDbLine
 10
233.9045703171632
 20
100.8093518535388
 30
0.0
 11
233.9045703171632
 21
50.80935185353883
 31
0.0
  0
LINE
  5
F36
330
1A
100
AcDbEntity
  8
CENTER
 62
     9
100
AcDbLine
 10
173.904570317165
 20
101.4858691789186
 30
0.0
 11
173.904570317165
 21
46.76912777509278
 31
0.0
  0
LINE
  5
F37
330
1A
100
AcDbEntity
  8
CENTER
 62
     9
100
AcDbLine
 10
211.904570317165
 20
101.4858691789186
 30
0.0
 11
211.904570317165
 21
47.04552492671337
 31
0.0
  0
LINE
  5
F39
330
1A
100
AcDbEntity
  8
1
100
AcDbLine
 10
113.904570317165
 20
50.80935185353883
 30
0.0
 11
113.904570317165
 21
98.80935185353884
 31
0.0
  0
LINE
  5
F3A
330
1A
100
AcDbEntity
  8
1
100
AcDbLine
 10
97.90456189858559
 20
96.30935185354065
 30
0.0
 11
97.90456189858559
 21
55.30935185353701
 31
0.0
  0
LINE
  5
F3B
330
1A
100
AcDbEntity
  8
1
100
AcDbLine
 10
113.904570317165
 20
97.30935185353974
 30
0.0
 11
113.904570317165
 21
54.30935185353792
 31
0.0
  0
ARC
  5
F3C
330
1A
100
AcDbEntity
  8
1
100
AcDbCircle
 10
107.2865037729225
 20
58.05583107595703
 30
0.0
 40
9.381941874337083
100
AcDbArc
 50
159.7947764166068
 51
200.2052235833931
  0
LINE
  5
F3D
330
1A
100
AcDbEntity
  8
1
100
AcDbLine
 10
98.48191216777649
 20
54.81546072674792
 30
0.0
 11
113.904570317165
 21
54.81546072675155
 31
0.0
  0
LINE
  5
F3E
330
1A
100
AcDbEntity
  8
1
100
AcDbLine
 10
98.48191216777649
 20
54.3093518535361
 30
0.0
 11
113.904570317165
 21
54.30935185353792
 31
0.0
  0
LINE
  5
F3F
330
1A
100
AcDbEntity
  8
1
100
AcDbLine
 10
97.90456189858559
 20
55.30935185353701
 30
0.0
 11
98.48191216777559
 21
54.30935185353792
 31
0.0
  0
LINE
  5
F40
330
1A
100
AcDbEntity
  8
1
100
AcDbLine
 10
98.48191216777649
 20
54.81546072674792
 30
0.0
 11
98.48191216777649
 21
54.30935185353701
 31
0.0
  0
LINE
  5
F42
330
1A
100
AcDbEntity
  8
1
100
AcDbLine
 10
113.904570317165
 20
50.80935185353883
 30
0.0
 11
230.904570317165
 21
50.80935185353883
 31
0.0
  0
LINE
  5
F43
330
1A
100
AcDbEntity
  8
1
100
AcDbLine
 10
230.904570317165
 20
54.80935185353883
 30
0.0
 11
230.904570317165
 21
52.80935185353882
 31
0.0
  0
LINE
  5
F44
330
1A
100
AcDbEntity
  8
1
100
AcDbLine
 10
231.904570317165
 20
52.80935185353882
 30
0.0
 11
233.9045703171632
 21
50.80935185353883
 31
0.0
  0
LINE
  5
F45
330
1A
100
AcDbEntity
  8
1
100
AcDbLine
 10
230.904570317165
 20
52.80935185353882
 30
0.0
 11
231.904570317165
 21
52.80935185353882
 31
0.0
  0
LINE
  5
F46
330
1A
100
AcDbEntity
  8
1
100
AcDbLine
 10
233.9045703171641
 20
50.80935185353883
 30
0.0
 11
234.904570317165
 21
50.80935185353883
 31
0.0
  0
LINE
  5
F47
330
1A
100
AcDbEntity
  8
1
 48
0.2
100
AcDbLine
 10
97.90456189858469
 20
171.4982297289325
 30
0.0
 11
113.9045618985819
 21
171.4982297289325
 31
0.0
  0
LINE
  5
F48
330
1A
100
AcDbEntity
  8
1
100
AcDbLine
 10
98.48191216777468
 20
187.3607158090899
 30
0.0
 11
113.904570317165
 21
187.3607158090899
 31
0.0
  0
LINE
  5
F49
330
1A
100
AcDbEntity
  8
1
100
AcDbLine
 10
98.48191216777559
 20
176.1357436487696
 30
0.0
 11
113.904570317165
 21
176.1357436487778
 31
0.0
  0
LINE
  5
F4A
330
1A
100
AcDbEntity
  8
1
100
AcDbLine
 10
98.48191216777559
 20
97.30935185353974
 30
0.0
 11
113.904570317165
 21
97.30935185353974
 31
0.0
  0
LINE
  5
F4B
330
1A
100
AcDbEntity
  8
1
100
AcDbLine
 10
98.48191216777559
 20
96.8032429803261
 30
0.0
 11
113.904570317165
 21
96.8032429803261
 31
0.0
  0
LINE
  5
F4C
330
1A
100
AcDbEntity
  8
1
100
AcDbLine
 10
98.48191216777559
 20
90.32250228191333
 30
0.0
 11
113.904570317165
 21
90.32250228191333
 31
0.0
  0
LINE
  5
F4D
330
1A
100
AcDbEntity
  8
1
100
AcDbLine
 10
98.48191216777559
 20
82.29009255194887
 30
0.0
 11
113.904570317165
 21
82.29009255194887
 31
0.0
  0
LINE
  5
F4E
330
1A
100
AcDbEntity
  8
1
100
AcDbLine
 10
98.48191216777649
 20
69.32861115512878
 30
0.0
 11
113.904570317165
 21
69.32861115512878
 31
0.0
  0
LINE
  5
F4F
330
1A
100
AcDbEntity
  8
1
100
AcDbLine
 10
98.48191216777649
 20
61.29620142516433
 30
0.0
 11
113.904570317165
 21
61.29620142516433
 31
0.0
  0
LINE
  5
F50
330
1A
100
AcDbEntity
  8
1
100
AcDbLine
 10
78.80915364322572
 20
88.35642785651089
 30
0.0
 11
38.36385418160898
 21
88.35642785651089
 31
0.0
  0
LINE
  5
F51
330
1A
100
AcDbEntity
  8
1
100
AcDbLine
 10
78.80915364322572
 20
81.89211438383608
 30
0.0
 11
38.36385418160807
 21
81.89211438383608
 31
0.0
  0
LINE
  5
F52
330
1A
100
AcDbEntity
  8
1
100
AcDbLine
 10
78.80915364322572
 20
69.72658932324157
 30
0.0
 11
38.36385418160807
 21
69.72658932324157
 31
0.0
  0
LINE
  5
F53
330
1A
100
AcDbEntity
  8
1
100
AcDbLine
 10
78.80915364322572
 20
63.26227585056949
 30
0.0
 11
38.36385418160807
 21
63.26227585056949
 31
0.0
  0
LINE
  5
F54
330
1A
100
AcDbEntity
  8
1
100
AcDbLine
 10
78.80915364322572
 20
57.17951332027133
 30
0.0
 11
38.36385418160807
 21
57.17951332027041
 31
0.0
  0
LINE
  5
F55
330
1A
100
AcDbEntity
  8
1
100
AcDbLine
 10
78.80915364322572
 20
56.80935185353883
 30
0.0
 11
38.36385418160807
 21
56.80935185353883
 31
0.0
  0
LINE
  5
F56
330
1A
100
AcDbEntity
  8
1
100
AcDbLine
 10
78.80915364322664
 20
94.43919038680723
 30
0.0
 11
38.36385418160807
 21
94.43919038680723
 31
0.0
  0
LINE
  5
F57
330
1A
100
AcDbEntity
  8
1
100
AcDbLine
 10
78.80915364322572
 20
94.80935185353883
 30
0.0
 11
38.36385418160807
 21
94.80935185353883
 31
0.0
  0
ARC
  5
F58
330
1A
100
AcDbEntity
  8
1
100
AcDbCircle
 10
46.08591403199716
 20
91.39780912165951
 30
0.0
 40
8.299410119579745
100
AcDbArc
 50
158.5026913532012
 51
201.4973086467986
  0
LINE
  5
F59
330
1A
100
AcDbEntity
  8
1
100
AcDbLine
 10
37.78650391241717
 20
93.80935185353882
 30
0.0
 11
37.78650391241717
 21
57.80935185353882
 31
0.0
  0
LINE
  5
F5A
330
1A
100
AcDbEntity
  8
1
100
AcDbLine
 10
37.78650391241808
 20
59.30935185353792
 30
0.0
 11
37.78650391241717
 21
92.30935185353791
 31
0.0
  0
LINE
  5
F5B
330
1A
100
AcDbEntity
  8
1
100
AcDbLine
 10
37.38650391241753
 20
81.42740311709895
 30
0.0
 11
37.38650391241753
 21
70.19130058997689
 31
0.0
  0
LINE
  5
F5C
330
1A
100
AcDbEntity
  8
1
100
AcDbLine
 10
27.88650391241754
 20
62.55935185353791
 30
0.0
 11
27.88650391241754
 21
89.05935185353701
 31
0.0
  0
LINE
  5
F5D
330
1A
100
AcDbEntity
  8
1
 62
     9
100
AcDbLine
 10
27.88650391241754
 20
81.42740311709895
 30
0.0
 11
37.38650391241753
 21
70.19130058997689
 31
0.0
  0
LINE
  5
F5E
330
1A
100
AcDbEntity
  8
1
 62
     9
100
AcDbLine
 10
37.38650391241753
 20
81.42740311709895
 30
0.0
 11
27.88650391241754
 21
70.19130058997689
 31
0.0
  0
ARC
  5
F5F
330
1A
100
AcDbEntity
  8
1
100
AcDbCircle
 10
70.11811898695214
 20
75.80935185353883
 30
0.0
 40
32.33161507453504
100
AcDbArc
 50
169.1559374363017
 51
190.8440625636982
  0
LINE
  5
F60
330
1A
100
AcDbEntity
  8
1
100
AcDbLine
 10
27.88650391241754
 20
72.30935185353883
 30
0.0
 11
11.55157419631177
 21
72.30935185353883
 31
0.0
  0
LINE
  5
F61
330
1A
100
AcDbEntity
  8
1
100
AcDbLine
 10
27.88650391241754
 20
62.55935185353791
 30
0.0
 11
37.78650391241808
 21
62.55935185353791
 31
0.0
  0
LINE
  5
F62
330
1A
100
AcDbEntity
  8
1
100
AcDbLine
 10
37.38650391241753
 20
70.19130058997689
 30
0.0
 11
27.88650391241754
 21
70.19130058997689
 31
0.0
  0
LINE
  5
F63
330
1A
100
AcDbEntity
  8
1
100
AcDbLine
 10
38.36385418160807
 20
69.72658932324157
 30
0.0
 11
38.36385418160807
 21
63.26227585056949
 31
0.0
  0
LINE
  5
F64
330
1A
100
AcDbEntity
  8
1
100
AcDbLine
 10
38.36385418160807
 20
57.17951332027041
 30
0.0
 11
38.36385418160807
 21
56.80935185353883
 31
0.0
  0
ARC
  5
F65
330
1A
100
AcDbEntity
  8
1
100
AcDbCircle
 10
46.0859140320008
 20
60.22089458541905
 30
0.0
 40
8.299410119583795
100
AcDbArc
 50
158.5026913532012
 51
201.4973086467986
  0
LINE
  5
F66
330
1A
100
AcDbEntity
  8
1
100
AcDbLine
 10
37.78650391241717
 20
57.80935185353882
 30
0.0
 11
38.36385418160807
 21
56.80935185353883
 31
0.0
  0
LINE
  5
F67
330
1A
100
AcDbEntity
  8
1
100
AcDbLine
 10
27.88650391241754
 20
79.30935185353883
 30
0.0
 11
11.55157419631177
 21
79.30935185353883
 31
0.0
  0
LINE
  5
F68
330
1A
100
AcDbEntity
  8
1
100
AcDbLine
 10
27.88650391241754
 20
89.05935185353792
 30
0.0
 11
37.78650391241626
 21
89.05935185353792
 31
0.0
  0
LINE
  5
F69
330
1A
100
AcDbEntity
  8
1
100
AcDbLine
 10
27.88650391241754
 20
81.42740311709895
 30
0.0
 11
37.38650391241753
 21
81.42740311709895
 31
0.0
  0
LINE
  5
F6A
330
1A
100
AcDbEntity
  8
1
100
AcDbLine
 10
38.36385418160898
 20
88.35642785650998
 30
0.0
 11
38.36385418160807
 21
81.89211438383608
 31
0.0
  0
LINE
  5
F6B
330
1A
100
AcDbEntity
  8
1
100
AcDbLine
 10
38.36385418160807
 20
94.80935185353883
 30
0.0
 11
38.36385418160807
 21
94.43919038680723
 31
0.0
  0
LINE
  5
F6C
330
1A
100
AcDbEntity
  8
1
100
AcDbLine
 10
37.78650391241717
 20
93.80935185353882
 30
0.0
 11
38.36385418160807
 21
94.80935185353883
 31
0.0
  0
LINE
  5
F6D
330
1A
100
AcDbEntity
  8
1
100
AcDbLine
 10
94.78650391241718
 20
59.30935185353792
 30
0.0
 11
94.78650391241808
 21
92.30935185353791
 31
0.0
  0
LINE
  5
F6E
330
1A
100
AcDbEntity
  8
1
100
AcDbLine
 10
94.78650391241808
 20
93.80935185353882
 30
0.0
 11
94.78650391241808
 21
57.80935185353882
 31
0.0
  0
LINE
  5
F6F
330
1A
100
AcDbEntity
  8
1
100
AcDbLine
 10
84.78650391241718
 20
57.80935185354064
 30
0.0
 11
84.78650391241718
 21
93.80935185353882
 31
0.0
  0
ARC
  5
F70
330
1A
100
AcDbEntity
  8
1
100
AcDbCircle
 10
86.48709379283809
 20
91.39780912165951
 30
0.0
 40
8.299410119579745
100
AcDbArc
 50
338.5026913532012
 51
21.49730864679872
  0
ARC
  5
F71
330
1A
100
AcDbEntity
  8
1
100
AcDbCircle
 10
93.08591403199807
 20
91.39780912165951
 30
0.0
 40
8.299410119579745
100
AcDbArc
 50
158.5026913532012
 51
201.4973086467986
  0
LINE
  5
F72
330
1A
100
AcDbEntity
  8
1
100
AcDbLine
 10
79.38650391241754
 20
57.80935185354064
 30
0.0
 11
79.38650391241754
 21
93.80935185353882
 31
0.0
  0
ARC
  5
F73
330
1A
100
AcDbEntity
  8
1
100
AcDbCircle
 10
71.08709379283664
 20
91.39780912165951
 30
0.0
 40
8.299410119579745
100
AcDbArc
 50
338.5026913532012
 51
21.49730864679872
  0
LINE
  5
F74
330
1A
100
AcDbEntity
  8
1
100
AcDbLine
 10
98.48191216777649
 20
90.32250228191333
 30
0.0
 11
98.48191216777649
 21
82.29009255194979
 31
0.0
  0
ARC
  5
F75
330
1A
100
AcDbEntity
  8
1
100
AcDbCircle
 10
62.45488883788311
 20
75.80935185353883
 30
0.0
 40
32.33161507453504
100
AcDbArc
 50
349.1559374363017
 51
10.84406256369821
  0
ARC
  5
F76
330
1A
100
AcDbEntity
  8
1
100
AcDbCircle
 10
117.118118986953
 20
75.80935185353883
 30
0.0
 40
32.33161507453504
100
AcDbArc
 50
169.1559374363017
 51
190.8440625636982
  0
ARC
  5
F77
330
1A
100
AcDbEntity
  8
1
100
AcDbCircle
 10
47.05488883788166
 20
75.80935185353883
 30
0.0
 40
32.33161507453504
100
AcDbArc
 50
349.1559374363017
 51
10.84406256369821
  0
ARC
  5
F78
330
1A
100
AcDbEntity
  8
1
100
AcDbCircle
 10
134.5663039921055
 20
75.80935185354156
 30
0.0
 40
36.66174209351981
100
AcDbArc
 50
169.8182516116605
 51
190.1817483883394
  0
LINE
  5
F79
330
1A
100
AcDbEntity
  8
1
100
AcDbLine
 10
85.36385418160898
 20
69.72658932324157
 30
0.0
 11
94.20915364322718
 21
69.72658932324157
 31
0.0
  0
LINE
  5
F7A
330
1A
100
AcDbEntity
  8
1
100
AcDbLine
 10
85.36385418160898
 20
63.26227585056949
 30
0.0
 11
94.20915364322718
 21
63.26227585056949
 31
0.0
  0
LINE
  5
F7B
330
1A
100
AcDbEntity
  8
1
100
AcDbLine
 10
85.36385418160898
 20
57.17951332027133
 30
0.0
 11
94.20915364322718
 21
57.17951332027041
 31
0.0
  0
LINE
  5
F7C
330
1A
100
AcDbEntity
  8
1
100
AcDbLine
 10
85.36385418160898
 20
56.80935185353883
 30
0.0
 11
94.20915364322718
 21
56.80935185353883
 31
0.0
  0
LINE
  5
F7D
330
1A
100
AcDbEntity
  8
1
100
AcDbLine
 10
79.38650391241754
 20
59.30935185353792
 30
0.0
 11
84.78650391241718
 21
59.30935185353792
 31
0.0
  0
LINE
  5
F7E
330
1A
100
AcDbEntity
  8
1
100
AcDbLine
 10
85.36385418160898
 20
69.72658932324157
 30
0.0
 11
85.36385418160898
 21
63.26227585056949
 31
0.0
  0
LINE
  5
F7F
330
1A
100
AcDbEntity
  8
1
100
AcDbLine
 10
85.36385418160898
 20
57.17951332027041
 30
0.0
 11
85.36385418160898
 21
56.80935185353883
 31
0.0
  0
ARC
  5
F80
330
1A
100
AcDbEntity
  8
1
100
AcDbCircle
 10
93.08591403200171
 20
60.22089458541905
 30
0.0
 40
8.299410119583795
100
AcDbArc
 50
158.5026913532012
 51
201.4973086467986
  0
LINE
  5
F81
330
1A
100
AcDbEntity
  8
1
100
AcDbLine
 10
84.78650391241808
 20
57.80935185353882
 30
0.0
 11
85.36385418160898
 21
56.80935185353883
 31
0.0
  0
LINE
  5
F82
330
1A
100
AcDbEntity
  8
1
100
AcDbLine
 10
79.38650391241663
 20
57.80935185353882
 30
0.0
 11
78.80915364322572
 21
56.80935185353883
 31
0.0
  0
ARC
  5
F83
330
1A
100
AcDbEntity
  8
1
100
AcDbCircle
 10
71.087093792833
 20
60.22089458541905
 30
0.0
 40
8.299410119583795
100
AcDbArc
 50
338.5026913532012
 51
21.49730864679872
  0
LINE
  5
F84
330
1A
100
AcDbEntity
  8
1
100
AcDbLine
 10
78.80915364322572
 20
57.17951332027041
 30
0.0
 11
78.80915364322572
 21
56.80935185353883
 31
0.0
  0
LINE
  5
F85
330
1A
100
AcDbEntity
  8
1
100
AcDbLine
 10
78.80915364322572
 20
69.72658932324157
 30
0.0
 11
78.80915364322572
 21
63.26227585056949
 31
0.0
  0
LINE
  5
F86
330
1A
100
AcDbEntity
  8
1
100
AcDbLine
 10
94.78650391241808
 20
57.80935185353882
 30
0.0
 11
97.90456189858559
 21
57.80935185353882
 31
0.0
  0
LINE
  5
F87
330
1A
100
AcDbEntity
  8
1
100
AcDbLine
 10
94.78650391241808
 20
57.80935185353882
 30
0.0
 11
94.20915364322718
 21
56.80935185353883
 31
0.0
  0
ARC
  5
F88
330
1A
100
AcDbEntity
  8
1
100
AcDbCircle
 10
86.48709379283445
 20
60.22089458541905
 30
0.0
 40
8.299410119583795
100
AcDbArc
 50
338.5026913532012
 51
21.49730864679872
  0
LINE
  5
F89
330
1A
100
AcDbEntity
  8
1
100
AcDbLine
 10
94.20915364322718
 20
57.17951332027041
 30
0.0
 11
94.20915364322718
 21
56.80935185353883
 31
0.0
  0
LINE
  5
F8A
330
1A
100
AcDbEntity
  8
1
100
AcDbLine
 10
94.20915364322718
 20
69.72658932324157
 30
0.0
 11
94.20915364322718
 21
63.26227585056949
 31
0.0
  0
LINE
  5
F8B
330
1A
100
AcDbEntity
  8
1
100
AcDbLine
 10
98.48191216777559
 20
69.32861115512969
 30
0.0
 11
98.48191216777649
 21
61.29620142516433
 31
0.0
  0
LINE
  5
F8C
330
1A
100
AcDbEntity
  8
1
100
AcDbLine
 10
85.36385418160898
 20
88.35642785651089
 30
0.0
 11
94.20915364322627
 21
88.35642785651089
 31
0.0
  0
LINE
  5
F8D
330
1A
100
AcDbEntity
  8
1
100
AcDbLine
 10
85.36385418160898
 20
81.89211438383608
 30
0.0
 11
94.20915364322718
 21
81.89211438383608
 31
0.0
  0
LINE
  5
F8E
330
1A
100
AcDbEntity
  8
1
100
AcDbLine
 10
85.36385418160989
 20
88.35642785650998
 30
0.0
 11
85.36385418160898
 21
81.89211438383608
 31
0.0
  0
LINE
  5
F8F
330
1A
100
AcDbEntity
  8
1
100
AcDbLine
 10
78.80915364322482
 20
88.35642785650998
 30
0.0
 11
78.80915364322572
 21
81.89211438383608
 31
0.0
  0
LINE
  5
F90
330
1A
100
AcDbEntity
  8
1
100
AcDbLine
 10
94.20915364322627
 20
88.35642785650998
 30
0.0
 11
94.20915364322718
 21
81.89211438383608
 31
0.0
  0
LINE
  5
F91
330
1A
100
AcDbEntity
  8
1
100
AcDbLine
 10
85.36385418160898
 20
94.80935185353883
 30
0.0
 11
94.20915364322718
 21
94.80935185353883
 31
0.0
  0
LINE
  5
F92
330
1A
100
AcDbEntity
  8
1
100
AcDbLine
 10
85.36385418160808
 20
94.43919038680723
 30
0.0
 11
94.20915364322718
 21
94.43919038680723
 31
0.0
  0
LINE
  5
F93
330
1A
100
AcDbEntity
  8
1
100
AcDbLine
 10
79.38650391241754
 20
92.30935185353791
 30
0.0
 11
84.78650391241718
 21
92.30935185353791
 31
0.0
  0
LINE
  5
F94
330
1A
100
AcDbEntity
  8
1
100
AcDbLine
 10
85.36385418160898
 20
94.80935185353883
 30
0.0
 11
85.36385418160898
 21
94.43919038680723
 31
0.0
  0
LINE
  5
F95
330
1A
100
AcDbEntity
  8
1
100
AcDbLine
 10
84.78650391241808
 20
93.80935185353882
 30
0.0
 11
85.36385418160898
 21
94.80935185353883
 31
0.0
  0
LINE
  5
F96
330
1A
100
AcDbEntity
  8
1
100
AcDbLine
 10
79.38650391241663
 20
93.80935185353882
 30
0.0
 11
78.80915364322572
 21
94.80935185353883
 31
0.0
  0
LINE
  5
F97
330
1A
100
AcDbEntity
  8
1
100
AcDbLine
 10
78.80915364322572
 20
94.80935185353883
 30
0.0
 11
78.80915364322572
 21
94.43919038680723
 31
0.0
  0
LINE
  5
F98
330
1A
100
AcDbEntity
  8
1
100
AcDbLine
 10
94.78650391241808
 20
93.80935185353882
 30
0.0
 11
97.90456189858559
 21
93.80935185353882
 31
0.0
  0
LINE
  5
F99
330
1A
100
AcDbEntity
  8
1
100
AcDbLine
 10
94.78650391241808
 20
93.80935185353882
 30
0.0
 11
94.20915364322718
 21
94.80935185353883
 31
0.0
  0
LINE
  5
F9A
330
1A
100
AcDbEntity
  8
1
100
AcDbLine
 10
94.20915364322718
 20
94.80935185353883
 30
0.0
 11
94.20915364322718
 21
94.43919038680723
 31
0.0
  0
LINE
  5
F9B
330
1A
100
AcDbEntity
  8
1
100
AcDbLine
 10
97.90456189858559
 20
96.30935185354065
 30
0.0
 11
98.48191216777559
 21
97.30935185353974
 31
0.0
  0
LINE
  5
F9C
330
1A
100
AcDbEntity
  8
1
100
AcDbLine
 10
98.48191216777559
 20
97.30935185353974
 30
0.0
 11
98.48191216777559
 21
96.8032429803261
 31
0.0
  0
ARC
  5
F9D
330
1A
100
AcDbEntity
  8
1
100
AcDbCircle
 10
107.2865037729225
 20
93.56287263112063
 30
0.0
 40
9.381941874337083
100
AcDbArc
 50
159.7947764166068
 51
200.2052235833931
  0
LINE
  5
F9E
330
1A
100
AcDbEntity
  8
1
100
AcDbLine
 10
78.809153643223
 20
188.2660566053573
 30
0.0
 11
38.36385418160626
 21
188.2660566053573
 31
0.0
  0
LINE
  5
F9F
330
1A
100
AcDbEntity
  8
1
100
AcDbLine
 10
78.809153643223
 20
177.7304028525086
 30
0.0
 11
38.36385418160626
 21
177.7304028525086
 31
0.0
  0
LINE
  5
FA0
330
1A
100
AcDbEntity
  8
1
100
AcDbLine
 10
37.78650391241626
 20
173.9982297289334
 30
0.0
 11
79.38650391241663
 21
173.9982297289325
 31
0.0
  0
LINE
  5
FA1
330
1A
100
AcDbEntity
  8
1
100
AcDbLine
 10
38.36385418160626
 20
173.9982297289334
 30
0.0
 11
38.36385418160626
 21
177.7304028525086
 31
0.0
  0
LINE
  5
FA2
330
1A
100
AcDbEntity
  8
1
100
AcDbLine
 10
27.88650391241754
 20
188.4982297289334
 30
0.0
 11
11.55157419631177
 21
188.4982297289334
 31
0.0
  0
LINE
  5
FA3
330
1A
100
AcDbEntity
  8
1
100
AcDbLine
 10
37.38650391241662
 20
178.7482297289334
 30
0.0
 11
37.78650391241717
 21
178.7482297289325
 31
0.0
  0
ARC
  5
FA4
330
1A
100
AcDbEntity
  8
1
100
AcDbCircle
 10
62.10738400199443
 20
182.9982297289325
 30
0.0
 40
24.32088008957829
100
AcDbArc
 50
167.4907700644507
 51
192.5092299355492
  0
LINE
  5
FA5
330
1A
100
AcDbEntity
  8
1
100
AcDbLine
 10
37.38650391241662
 20
179.9982297289334
 30
0.0
 11
27.88650391241663
 21
179.9982297289334
 31
0.0
  0
LINE
  5
FA6
330
1A
100
AcDbEntity
  8
1
100
AcDbLine
 10
37.38650391241662
 20
179.9982297289334
 30
0.0
 11
37.38650391241662
 21
178.7482297289325
 31
0.0
  0
LINE
  5
FA7
330
1A
100
AcDbEntity
  8
1
100
AcDbLine
 10
94.20915364322718
 20
173.9982297289334
 30
0.0
 11
94.20915364322718
 21
177.7304028525086
 31
0.0
  0
LINE
  5
FA8
330
1A
100
AcDbEntity
  8
1
100
AcDbLine
 10
85.36385418160989
 20
173.9982297289325
 30
0.0
 11
85.36385418160989
 21
177.7304028525086
 31
0.0
  0
LINE
  5
FA9
330
1A
100
AcDbEntity
  8
1
100
AcDbLine
 10
78.809153643223
 20
173.9982297289325
 30
0.0
 11
78.809153643223
 21
177.7304028525086
 31
0.0
  0
LINE
  5
FAA
330
1A
100
AcDbEntity
  8
1
100
AcDbLine
 10
98.48191216777559
 20
171.4982297289325
 30
0.0
 11
98.48191216777559
 21
176.1357436487696
 31
0.0
  0
LINE
  5
FAB
330
1A
100
AcDbEntity
  8
1
100
AcDbLine
 10
94.78650391241718
 20
173.9982297289334
 30
0.0
 11
84.78650391241627
 21
173.9982297289325
 31
0.0
  0
LINE
  5
FAC
330
1A
100
AcDbEntity
  8
1
100
AcDbLine
 10
94.78650391241718
 20
173.9982297289334
 30
0.0
 11
97.90456189858469
 21
173.9982297289334
 31
0.0
  0
LINE
  5
FAD
330
1A
100
AcDbEntity
  8
1
100
AcDbLine
 10
85.36385418160989
 20
188.2660566053573
 30
0.0
 11
94.20915364322718
 21
188.2660566053573
 31
0.0
  0
LINE
  5
FAE
330
1A
100
AcDbEntity
  8
1
100
AcDbLine
 10
85.36385418160989
 20
177.7304028525086
 30
0.0
 11
94.20915364322718
 21
177.7304028525086
 31
0.0
  0
LINE
  5
FAF
330
1A
100
AcDbEntity
  8
1
100
AcDbLine
 10
79.38650391241663
 20
175.4982297289325
 30
0.0
 11
84.78650391241627
 21
175.4982297289325
 31
0.0
  0
ARC
  5
FB0
330
1A
100
AcDbEntity
  8
1
100
AcDbCircle
 10
109.1073840018461
 20
182.9982297289334
 30
0.0
 40
24.32088008942982
100
AcDbArc
 50
167.4907700643998
 51
192.5092299356001
  0
ARC
  5
FB1
330
1A
100
AcDbEntity
  8
1
100
AcDbCircle
 10
55.06562382298671
 20
182.9982297289334
 30
0.0
 40
24.32088008942982
100
AcDbArc
 50
347.4907700643999
 51
12.50922993560014
  0
ARC
  5
FB2
330
1A
100
AcDbEntity
  8
1
100
AcDbCircle
 10
70.46562382283901
 20
182.9982297289325
 30
0.0
 40
24.32088008957829
100
AcDbArc
 50
347.4907700644507
 51
12.50922993554927
  0
ARC
  5
FB3
330
1A
100
AcDbEntity
  8
1
100
AcDbCircle
 10
125.4730372523008
 20
181.7482297289334
 30
0.0
 40
27.56847535371717
100
AcDbArc
 50
168.2534102772861
 51
191.7465897227137
  0
LINE
  5
FB4
330
1A
100
AcDbEntity
  8
1
100
AcDbLine
 10
113.904570317165
 20
98.80935185353884
 30
0.0
 11
230.9045703171632
 21
98.80935185353974
 31
0.0
  0
LINE
  5
FB5
330
1A
100
AcDbEntity
  8
1
100
AcDbLine
 10
233.9045703171641
 20
100.8093518535388
 30
0.0
 11
234.904570317165
 21
100.8093518535388
 31
0.0
  0
LINE
  5
FB6
330
1A
100
AcDbEntity
  8
1
100
AcDbLine
 10
230.904570317165
 20
98.80935185353884
 30
0.0
 11
231.904570317165
 21
98.80935185353884
 31
0.0
  0
LINE
  5
FB7
330
1A
100
AcDbEntity
  8
1
100
AcDbLine
 10
231.904570317165
 20
98.80935185353884
 30
0.0
 11
233.9045703171632
 21
100.8093518535388
 31
0.0
  0
LINE
  5
FB8
330
1A
100
AcDbEntity
  8
1
100
AcDbLine
 10
230.904570317165
 20
96.80935185353883
 30
0.0
 11
230.904570317165
 21
98.80935185353884
 31
0.0
  0
LINE
  5
FBA
330
1A
100
AcDbEntity
  8
1
100
AcDbLine
 10
113.904570317165
 20
167.9982297289334
 30
0.0
 11
230.904570317165
 21
167.9982297289334
 31
0.0
  0
LINE
  5
FBD
330
1A
100
AcDbEntity
  8
1
100
AcDbLine
 10
113.9045618985846
 20
173.7482297289334
 30
0.0
 11
113.9045618985837
 21
171.4982297289316
 31
0.0
  0
LINE
  5
FC0
330
1A
100
AcDbEntity
  8
1
100
AcDbLine
 10
237.904570317165
 20
148.9982297289334
 30
0.0
 11
234.904570317165
 21
151.9982297289325
 31
0.0
  0
LINE
  5
FC1
330
1A
100
AcDbEntity
  8
1
100
AcDbLine
 10
233.9045703171641
 20
165.9982297289334
 30
0.0
 11
234.904570317165
 21
165.9982297289334
 31
0.0
  0
LINE
  5
FC2
330
1A
100
AcDbEntity
  8
1
100
AcDbLine
 10
230.904570317165
 20
167.9982297289334
 30
0.0
 11
231.904570317165
 21
167.9982297289334
 31
0.0
  0
LINE
  5
FC3
330
1A
100
AcDbEntity
  8
1
100
AcDbLine
 10
231.904570317165
 20
167.9982297289334
 30
0.0
 11
233.9045703171632
 21
165.9982297289334
 31
0.0
  0
LINE
  5
FC4
330
1A
100
AcDbEntity
  8
1
100
AcDbLine
 10
230.904570317165
 20
169.9982297289334
 30
0.0
 11
230.904570317165
 21
167.9982297289334
 31
0.0
  0
LINE
  5
FC6
330
1A
100
AcDbEntity
  8
1
 48
0.2
100
AcDbLine
 10
97.90456189858469
 20
212.4982297289343
 30
0.0
 11
113.9045618985819
 21
212.4982297289343
 31
0.0
  0
LINE
  5
FC7
330
1A
100
AcDbEntity
  8
1
100
AcDbLine
 10
98.48191216777559
 20
207.8607158090972
 30
0.0
 11
113.904570317165
 21
207.8607158090944
 31
0.0
  0
LINE
  5
FC8
330
1A
100
AcDbEntity
  8
1
100
AcDbLine
 10
98.48191216777559
 20
196.6357436487696
 30
0.0
 11
113.904570317165
 21
196.6357436487705
 31
0.0
  0
LINE
  5
FC9
330
1A
100
AcDbEntity
  8
1
100
AcDbLine
 10
78.8091536432239
 20
206.2660566053628
 30
0.0
 11
38.36385418160626
 21
206.2660566053628
 31
0.0
  0
LINE
  5
FCA
330
1A
100
AcDbEntity
  8
1
100
AcDbLine
 10
37.78650391241626
 20
209.9982297289334
 30
0.0
 11
79.38650391241663
 21
209.9982297289334
 31
0.0
  0
LINE
  5
FCB
330
1A
100
AcDbEntity
  8
1
100
AcDbLine
 10
78.80915364322209
 20
195.7304028525049
 30
0.0
 11
38.36385418160626
 21
195.7304028525049
 31
0.0
  0
LINE
  5
FCC
330
1A
100
AcDbEntity
  8
1
100
AcDbLine
 10
38.36385418160626
 20
206.2660566053618
 30
0.0
 11
38.36385418160626
 21
209.9982297289334
 31
0.0
  0
LINE
  5
FCD
330
1A
100
AcDbEntity
  8
1
100
AcDbLine
 10
27.88650391241754
 20
195.4982297289334
 30
0.0
 11
11.55157419631177
 21
195.4982297289334
 31
0.0
  0
LINE
  5
FCE
330
1A
100
AcDbEntity
  8
1
100
AcDbLine
 10
37.38650391241753
 20
205.2482297289325
 30
0.0
 11
37.38650391241753
 21
203.9982297289334
 31
0.0
  0
LINE
  5
FCF
330
1A
100
AcDbEntity
  8
1
100
AcDbLine
 10
37.38650391241662
 20
203.9982297289334
 30
0.0
 11
27.88650391241663
 21
203.9982297289334
 31
0.0
  0
LINE
  5
FD0
330
1A
100
AcDbEntity
  8
1
100
AcDbLine
 10
37.38650391241753
 20
205.2482297289325
 30
0.0
 11
37.78650391241535
 21
205.2482297289325
 31
0.0
  0
ARC
  5
FD1
330
1A
100
AcDbEntity
  8
1
100
AcDbCircle
 10
62.10738400203718
 20
200.9982297289334
 30
0.0
 40
24.32088008962101
100
AcDbArc
 50
167.4907700645015
 51
192.5092299354983
  0
LINE
  5
FD2
330
1A
100
AcDbEntity
  8
1
100
AcDbLine
 10
94.20915364322718
 20
206.2660566053618
 30
0.0
 11
94.20915364322718
 21
209.9982297289334
 31
0.0
  0
LINE
  5
FD3
330
1A
100
AcDbEntity
  8
1
100
AcDbLine
 10
85.36385418160898
 20
206.2660566053628
 30
0.0
 11
85.36385418160898
 21
209.9982297289334
 31
0.0
  0
LINE
  5
FD4
330
1A
100
AcDbEntity
  8
1
100
AcDbLine
 10
78.8091536432239
 20
206.2660566053628
 30
0.0
 11
78.8091536432239
 21
209.9982297289334
 31
0.0
  0
LINE
  5
FD5
330
1A
100
AcDbEntity
  8
1
100
AcDbLine
 10
98.48191216777559
 20
207.8607158090962
 30
0.0
 11
98.48191216777559
 21
212.4982297289352
 31
0.0
  0
LINE
  5
FD6
330
1A
100
AcDbEntity
  8
1
100
AcDbLine
 10
85.36385418160898
 20
206.2660566053628
 30
0.0
 11
94.20915364322718
 21
206.2660566053628
 31
0.0
  0
LINE
  5
FD7
330
1A
100
AcDbEntity
  8
1
100
AcDbLine
 10
85.3638541816108
 20
195.7304028525049
 30
0.0
 11
94.20915364322718
 21
195.7304028525049
 31
0.0
  0
LINE
  5
FD8
330
1A
100
AcDbEntity
  8
1
100
AcDbLine
 10
79.38650391241663
 20
208.4982297289325
 30
0.0
 11
84.78650391241627
 21
208.4982297289325
 31
0.0
  0
ARC
  5
FD9
330
1A
100
AcDbEntity
  8
1
100
AcDbCircle
 10
109.1073840019225
 20
200.9982297289343
 30
0.0
 40
24.32088008950628
100
AcDbArc
 50
167.4907700643998
 51
192.5092299356001
  0
ARC
  5
FDA
330
1A
100
AcDbEntity
  8
1
100
AcDbCircle
 10
55.06562382291031
 20
200.9982297289343
 30
0.0
 40
24.32088008950628
100
AcDbArc
 50
347.4907700643999
 51
12.50922993560014
  0
ARC
  5
FDB
330
1A
100
AcDbEntity
  8
1
100
AcDbCircle
 10
70.46562382279626
 20
200.9982297289334
 30
0.0
 40
24.32088008962101
100
AcDbArc
 50
347.4907700645015
 51
12.50922993549839
  0
ARC
  5
FDC
330
1A
100
AcDbEntity
  8
1
100
AcDbCircle
 10
125.4730372523008
 20
202.2482297289334
 30
0.0
 40
27.56847535371717
100
AcDbArc
 50
168.2534102772861
 51
191.7465897227137
  0
LINE
  5
FDD
330
1A
100
AcDbEntity
  8
1
100
AcDbLine
 10
94.78650391241718
 20
209.9982297289334
 30
0.0
 11
84.78650391241627
 21
209.9982297289334
 31
0.0
  0
LINE
  5
FDE
330
1A
100
AcDbEntity
  8
1
100
AcDbLine
 10
94.78650391241718
 20
209.9982297289334
 30
0.0
 11
97.90456189858469
 21
209.9982297289334
 31
0.0
  0
LINE
  5
FE0
330
1A
100
AcDbEntity
  8
1
100
AcDbLine
 10
113.904570317165
 20
215.9982297289334
 30
0.0
 11
230.9045703171659
 21
215.9982297289334
 31
0.0
  0
LINE
  5
FE2
330
1A
100
AcDbEntity
  8
1
100
AcDbLine
 10
113.9045618985819
 20
212.4982297289343
 30
0.0
 11
113.904561898581
 21
210.2482297289334
 31
0.0
  0
LINE
  5
FEB
330
1A
100
AcDbEntity
  8
1
100
AcDbLine
 10
230.904570317165
 20
213.9982297289334
 30
0.0
 11
230.904570317165
 21
215.9982297289334
 31
0.0
  0
LINE
  5
FEC
330
1A
100
AcDbEntity
  8
1
100
AcDbLine
 10
231.904570317165
 20
215.9982297289334
 30
0.0
 11
233.9045703171632
 21
217.9982297289334
 31
0.0
  0
LINE
  5
FED
330
1A
100
AcDbEntity
  8
1
100
AcDbLine
 10
230.904570317165
 20
215.9982297289334
 30
0.0
 11
231.904570317165
 21
215.9982297289334
 31
0.0
  0
LINE
  5
FEE
330
1A
100
AcDbEntity
  8
1
100
AcDbLine
 10
233.9045703171641
 20
217.9982297289334
 30
0.0
 11
234.904570317165
 21
217.9982297289334
 31
0.0
  0
LINE
  5
FEF
330
1A
100
AcDbEntity
  8
1
100
AcDbLine
 10
237.904570317165
 20
234.9982297289334
 30
0.0
 11
234.904570317165
 21
231.9982297289343
 31
0.0
  0
LINE
  5
FF0
330
1A
100
AcDbEntity
  8
1
100
AcDbLine
 10
325.904570317165
 20
172.9982297289334
 30
0.0
 11
325.904570317165
 21
210.9982297289334
 31
0.0
  0
CIRCLE
  5
FF2
330
1A
100
AcDbEntity
  8
1
 62
     9
100
AcDbCircle
 10
306.904570317165
 20
191.9982297289334
 30
0.0
 40
10.0
  0
CIRCLE
  5
FF3
330
1A
100
AcDbEntity
  8
1
100
AcDbCircle
 10
306.904570317165
 20
191.9982297289334
 30
0.0
 40
8.599999999999999
  0
LINE
  5
FF4
330
1A
100
AcDbEntity
  8
CENTER
 62
     9
100
AcDbLine
 10
306.904570317165
 20
174.7434005271543
 30
0.0
 11
306.904570317165
 21
209.5418480679127
 31
0.0
  0
CIRCLE
  5
FF5
330
1A
100
AcDbEntity
  8
1
100
AcDbCircle
 10
306.904570317165
 20
191.9982297289334
 30
0.0
 40
15.09999999999999
  0
LINE
  5
FF6
330
1A
100
AcDbEntity
  8
1
100
AcDbLine
 10
286.904570317165
 20
172.9982297289334
 30
0.0
 11
286.904570317165
 21
210.9982297289334
 31
0.0
  0
LINE
  5
FF7
330
1A
100
AcDbEntity
  8
1
100
AcDbLine
 10
282.904570317165
 20
151.9982297289325
 30
0.0
 11
282.904570317165
 21
231.9982297289334
 31
0.0
  0
LINE
  5
FF8
330
1A
100
AcDbEntity
  8
1
100
AcDbLine
 10
283.9045703171641
 20
212.9982297289334
 30
0.0
 11
283.9045703171641
 21
170.9982297289334
 31
0.0
  0
LINE
  5
FF9
330
1A
100
AcDbEntity
  8
1
100
AcDbLine
 10
285.904570317165
 20
210.9982297289334
 30
0.0
 11
285.904570317165
 21
172.9982297289334
 31
0.0
  0
LINE
  5
FFA
330
1A
100
AcDbEntity
  8
1
100
AcDbLine
 10
279.904570317165
 20
234.9982297289334
 30
0.0
 11
279.904570317165
 21
148.9982297289334
 31
0.0
  0
LINE
  5
FFB
330
1A
100
AcDbEntity
  8
1
100
AcDbLine
 10
249.904570317165
 20
233.9982297289343
 30
0.0
 11
249.904570317165
 21
149.9982297289325
 31
0.0
  0
LINE
  5
FFC
330
1A
100
AcDbEntity
  8
1
100
AcDbLine
 10
252.904570317165
 20
236.9982297289334
 30
0.0
 11
252.904570317165
 21
146.9982297289334
 31
0.0
  0
LINE
  5
FFD
330
1A
100
AcDbEntity
  8
1
100
AcDbLine
 10
255.904570317165
 20
233.9982297289334
 30
0.0
 11
255.904570317165
 21
149.9982297289316
 31
0.0
  0
LINE
  5
FFE
330
1A
100
AcDbEntity
  8
1
100
AcDbLine
 10
261.904570317165
 20
233.9982297289334
 30
0.0
 11
261.904570317165
 21
149.9982297289316
 31
0.0
  0
LINE
  5
FFF
330
1A
100
AcDbEntity
  8
1
100
AcDbLine
 10
267.904570317165
 20
233.9982297289343
 30
0.0
 11
267.904570317165
 21
149.9982297289325
 31
0.0
  0
LINE
  5
1000
330
1A
100
AcDbEntity
  8
1
100
AcDbLine
 10
258.904570317165
 20
236.9982297289334
 30
0.0
 11
258.904570317165
 21
146.9982297289334
 31
0.0
  0
LINE
  5
1001
330
1A
100
AcDbEntity
  8
1
100
AcDbLine
 10
264.904570317165
 20
236.9982297289334
 30
0.0
 11
264.904570317165
 21
146.9982297289334
 31
0.0
  0
LINE
  5
1003
330
1A
100
AcDbEntity
  8
1
  6
HIDDEN
 62
     9
100
AcDbLine
 10
296.904570317165
 20
75.80935185353883
 30
0.0
 11
296.9045703171632
 21
52.80935185353882
 31
0.0
  0
LINE
  5
1004
330
1A
100
AcDbEntity
  8
1
  6
HIDDEN
100
AcDbLine
 10
298.3045703171646
 20
74.40935185354101
 30
0.0
 11
298.3045703171646
 21
54.20935185353482
 31
0.0
  0
LINE
  5
1005
330
1A
100
AcDbEntity
  8
1
  6
HIDDEN
100
AcDbLine
 10
315.5045703171635
 20
74.4093518535401
 30
0.0
 11
315.5045703171635
 21
54.20935185353755
 31
0.0
  0
LINE
  5
1006
330
1A
100
AcDbEntity
  8
1
  6
HIDDEN
 62
     9
100
AcDbLine
 10
316.904570317165
 20
75.80935185353883
 30
0.0
 11
316.904570317165
 21
52.80935185353882
 31
0.0
  0
LINE
  5
1007
330
1A
100
AcDbEntity
  8
1
100
AcDbLine
 10
438.9642453440155
 20
100.8093518535388
 30
0.0
 11
438.9642453440155
 21
50.80935185353883
 31
0.0
  0
LINE
  5
1008
330
1A
100
AcDbEntity
  8
1
100
AcDbLine
 10
436.9642453440156
 20
98.80935185353884
 30
0.0
 11
436.9642453440156
 21
52.80935185353882
 31
0.0
  0
LINE
  5
1009
330
1A
100
AcDbEntity
  8
1
100
AcDbLine
 10
460.9642453440155
 20
52.80935185353882
 30
0.0
 11
460.9642453440155
 21
98.80935185353884
 31
0.0
  0
LINE
  5
100A
330
1A
100
AcDbEntity
  8
1
100
AcDbLine
 10
464.9642453440155
 20
52.80935185353882
 30
0.0
 11
464.9642453440155
 21
98.80935185353884
 31
0.0
  0
LINE
  5
100B
330
1A
100
AcDbEntity
  8
1
100
AcDbLine
 10
457.9642453440156
 20
52.80935185353882
 30
0.0
 11
457.9642453440156
 21
98.80935185353884
 31
0.0
  0
LINE
  5
100C
330
1A
100
AcDbEntity
  8
1
100
AcDbLine
 10
396.9642453440155
 20
100.8093518535388
 30
0.0
 11
396.9642453440155
 21
50.80935185353883
 31
0.0
  0
LINE
  5
100D
330
1A
100
AcDbEntity
  8
1
100
AcDbLine
 10
398.9642453440156
 20
98.80935185353974
 30
0.0
 11
398.9642453440156
 21
52.80935185353792
 31
0.0
  0
LINE
  5
100E
330
1A
100
AcDbEntity
  8
1
100
AcDbLine
 10
374.9642453440155
 20
52.80935185353792
 30
0.0
 11
374.9642453440155
 21
98.80935185353791
 31
0.0
  0
LINE
  5
100F
330
1A
100
AcDbEntity
  8
1
100
AcDbLine
 10
370.9642453440155
 20
52.80935185353792
 30
0.0
 11
370.9642453440155
 21
98.80935185353791
 31
0.0
  0
LINE
  5
1010
330
1A
100
AcDbEntity
  8
1
100
AcDbLine
 10
377.9642453440156
 20
52.80935185353792
 30
0.0
 11
377.9642453440156
 21
98.80935185353791
 31
0.0
  0
LINE
  5
1011
330
1A
100
AcDbEntity
  8
1
100
AcDbLine
 10
325.9045703171668
 20
52.80935185353882
 30
0.0
 11
325.9045703171659
 21
98.80935185353974
 31
0.0
  0
LINE
  5
1013
330
1A
100
AcDbEntity
  8
CENTER
100
AcDbLine
 10
417.9642453440155
 20
111.9338293835371
 30
0.0
 11
417.9642453440155
 21
40.13348585782568
 31
0.0
  0
LINE
  5
1015
330
1A
100
AcDbEntity
  8
1
100
AcDbLine
 10
286.904570317165
 20
98.80935185353884
 30
0.0
 11
286.9045703171641
 21
52.80935185353792
 31
0.0
  0
LINE
  5
1016
330
1A
100
AcDbEntity
  8
1
100
AcDbLine
 10
282.9045703171668
 20
50.30935185353882
 30
0.0
 11
282.9045703171668
 21
101.3093518535388
 31
0.0
  0
LINE
  5
1017
330
1A
100
AcDbEntity
  8
CENTER
 62
     9
100
AcDbLine
 10
306.904570317165
 20
101.4858691789186
 30
0.0
 11
306.904570317165
 21
46.49273062347311
 31
0.0
  0
LINE
  5
1018
330
1A
100
AcDbEntity
  8
1
100
AcDbLine
 10
283.9045703171687
 20
100.8093518535388
 30
0.0
 11
283.9045703171687
 21
50.80935185353883
 31
0.0
  0
LINE
  5
1019
330
1A
100
AcDbEntity
  8
1
100
AcDbLine
 10
285.9045703171668
 20
98.80935185353884
 30
0.0
 11
285.9045703171668
 21
52.80935185353882
 31
0.0
  0
LINE
  5
101A
330
1A
100
AcDbEntity
  8
1
100
AcDbLine
 10
249.904570317165
 20
100.3093518535397
 30
0.0
 11
249.904570317165
 21
51.30935185353791
 31
0.0
  0
LINE
  5
101B
330
1A
100
AcDbEntity
  8
1
100
AcDbLine
 10
255.904570317165
 20
100.3093518535388
 30
0.0
 11
255.904570317165
 21
51.30935185353701
 31
0.0
  0
LINE
  5
101C
330
1A
100
AcDbEntity
  8
1
100
AcDbLine
 10
261.904570317165
 20
100.3093518535388
 30
0.0
 11
261.904570317165
 21
51.30935185353701
 31
0.0
  0
LINE
  5
101D
330
1A
100
AcDbEntity
  8
1
100
AcDbLine
 10
267.904570317165
 20
100.3093518535397
 30
0.0
 11
267.904570317165
 21
51.30935185353791
 31
0.0
  0
LINE
  5
101E
330
1A
100
AcDbEntity
  8
1
100
AcDbLine
 10
252.904570317165
 20
103.3093518535388
 30
0.0
 11
252.904570317165
 21
48.30935185353883
 31
0.0
  0
LINE
  5
101F
330
1A
100
AcDbEntity
  8
1
100
AcDbLine
 10
258.904570317165
 20
103.3093518535388
 30
0.0
 11
258.904570317165
 21
48.30935185353883
 31
0.0
  0
LINE
  5
1020
330
1A
100
AcDbEntity
  8
1
100
AcDbLine
 10
264.904570317165
 20
103.3093518535388
 30
0.0
 11
264.904570317165
 21
48.30935185353883
 31
0.0
  0
LINE
  5
1021
330
1A
100
AcDbEntity
  8
1
  6
HIDDEN
100
AcDbLine
 10
315.5045703171635
 20
54.20935185353755
 30
0.0
 11
298.3045703171646
 21
54.20935185353846
 31
0.0
  0
LINE
  5
1022
330
1A
100
AcDbEntity
  8
1
100
AcDbLine
 10
286.9045703171641
 20
52.80935185353882
 30
0.0
 11
325.9045703171659
 21
52.80935185353882
 31
0.0
  0
LINE
  5
1023
330
1A
100
AcDbEntity
  8
1
100
AcDbLine
 10
282.9045703171668
 20
50.30935185353882
 30
0.0
 11
267.904570317165
 21
50.30935185353792
 31
0.0
  0
ARC
  5
1024
330
1A
100
AcDbEntity
  8
1
100
AcDbCircle
 10
258.904570317165
 20
48.30935185353883
 30
0.0
 40
2.0
100
AcDbArc
 50
195.2452637187216
 51
344.7547362813287
  0
ARC
  5
1025
330
1A
100
AcDbEntity
  8
1
100
AcDbCircle
 10
252.904570317165
 20
48.30935185353883
 30
0.0
 40
2.0
100
AcDbArc
 50
195.2452637187216
 51
344.7547362812784
  0
LINE
  5
1026
330
1A
100
AcDbEntity
  8
1
100
AcDbLine
 10
250.974952189832
 20
47.78344893220583
 30
0.0
 11
250.3869748489987
 21
49.9408275838723
 31
0.0
  0
ARC
  5
1027
330
1A
100
AcDbEntity
  8
1
100
AcDbCircle
 10
249.904570317165
 20
49.80935185353883
 30
0.0
 40
0.5
100
AcDbArc
 50
15.24526371872159
 51
90.0
  0
LINE
  5
1028
330
1A
100
AcDbEntity
  8
1
100
AcDbLine
 10
255.4221657853313
 20
49.9408275838723
 30
0.0
 11
254.834188444498
 21
47.78344893220583
 31
0.0
  0
LINE
  5
1029
330
1A
100
AcDbEntity
  8
1
100
AcDbLine
 10
256.974952189832
 20
47.78344893220583
 30
0.0
 11
256.3869748489987
 21
49.9408275838723
 31
0.0
  0
ARC
  5
102A
330
1A
100
AcDbEntity
  8
1
100
AcDbCircle
 10
255.904570317165
 20
49.80935185353883
 30
0.0
 40
0.5
100
AcDbArc
 50
15.24526371867132
 51
164.7547362813286
  0
ARC
  5
102B
330
1A
100
AcDbEntity
  8
1
100
AcDbCircle
 10
264.904570317165
 20
48.30935185353883
 30
0.0
 40
2.0
100
AcDbArc
 50
195.2452637187216
 51
344.7547362812784
  0
LINE
  5
102C
330
1A
100
AcDbEntity
  8
1
100
AcDbLine
 10
262.3869748489987
 20
49.9408275838723
 30
0.0
 11
262.974952189832
 21
47.78344893220583
 31
0.0
  0
LINE
  5
102D
330
1A
100
AcDbEntity
  8
1
100
AcDbLine
 10
260.834188444498
 20
47.78344893220583
 30
0.0
 11
261.4221657853313
 21
49.9408275838723
 31
0.0
  0
ARC
  5
102E
330
1A
100
AcDbEntity
  8
1
100
AcDbCircle
 10
261.904570317165
 20
49.80935185353883
 30
0.0
 40
0.5
100
AcDbArc
 50
15.24526371872159
 51
164.7547362812783
  0
LINE
  5
102F
330
1A
100
AcDbEntity
  8
1
100
AcDbLine
 10
266.834188444498
 20
47.78344893220583
 30
0.0
 11
267.4221657853313
 21
49.9408275838723
 31
0.0
  0
ARC
  5
1030
330
1A
100
AcDbEntity
  8
1
100
AcDbCircle
 10
267.904570317165
 20
49.80935185353883
 30
0.0
 40
0.5
100
AcDbArc
 50
90.0
 51
164.7547362813286
  0
LINE
  5
1031
330
1A
100
AcDbEntity
  8
1
100
AcDbLine
 10
283.9045703171677
 20
50.80935185353883
 30
0.0
 11
282.9045703171668
 21
50.80935185353883
 31
0.0
  0
LINE
  5
1032
330
1A
100
AcDbEntity
  8
1
100
AcDbLine
 10
286.9045703171668
 20
52.80935185353882
 30
0.0
 11
285.9045703171668
 21
52.80935185353882
 31
0.0
  0
LINE
  5
1033
330
1A
100
AcDbEntity
  8
1
100
AcDbLine
 10
285.9045703171668
 20
52.80935185353882
 30
0.0
 11
283.9045703171687
 21
50.80935185353883
 31
0.0
  0
LINE
  5
1034
330
1A
100
AcDbEntity
  8
1
100
AcDbLine
 10
286.9045703171668
 20
54.80935185353883
 30
0.0
 11
286.9045703171668
 21
52.80935185353882
 31
0.0
  0
LINE
  5
1035
330
1A
100
AcDbEntity
  8
1
100
AcDbLine
 10
296.904570317165
 20
52.80935185353792
 30
0.0
 11
298.3045703171646
 21
54.20935185353574
 31
0.0
  0
LINE
  5
1036
330
1A
100
AcDbEntity
  8
1
100
AcDbLine
 10
316.904570317165
 20
52.80935185353792
 30
0.0
 11
315.5045703171635
 21
54.20935185353846
 31
0.0
  0
LINE
  5
1037
330
1A
100
AcDbEntity
  8
1
100
AcDbLine
 10
396.9642453440164
 20
50.80935185353883
 30
0.0
 11
438.9642453440155
 21
50.80935185353883
 31
0.0
  0
LINE
  5
1038
330
1A
100
AcDbEntity
  8
1
100
AcDbLine
 10
398.9642453440156
 20
52.80935185353792
 30
0.0
 11
436.9642453440156
 21
52.80935185353882
 31
0.0
  0
LINE
  5
1039
330
1A
100
AcDbEntity
  8
1
100
AcDbLine
 10
377.4642453440155
 20
50.30935185353792
 30
0.0
 11
458.4642453440156
 21
50.30935185353882
 31
0.0
  0
LINE
  5
103A
330
1A
100
AcDbEntity
  8
1
100
AcDbLine
 10
377.4642453440155
 20
46.30935185353791
 30
0.0
 11
458.4642453440156
 21
46.30935185353883
 31
0.0
  0
LINE
  5
103B
330
1A
100
AcDbEntity
  8
1
100
AcDbLine
 10
396.9642453440155
 20
50.80935185353883
 30
0.0
 11
398.9642453440156
 21
52.80935185353792
 31
0.0
  0
ARC
  5
103C
330
1A
100
AcDbEntity
  8
1
100
AcDbCircle
 10
377.4642453440155
 20
52.80935185353792
 30
0.0
 40
2.5
100
AcDbArc
 50
180.0
 51
270.0
  0
ARC
  5
103D
330
1A
100
AcDbEntity
  8
1
100
AcDbCircle
 10
377.4642453440155
 20
52.80935185353792
 30
0.0
 40
6.5
100
AcDbArc
 50
180.0
 51
270.0
  0
ARC
  5
103E
330
1A
100
AcDbEntity
  8
1
100
AcDbCircle
 10
380.4642453440155
 20
52.80935185353792
 30
0.0
 40
2.5
100
AcDbArc
 50
180.0
 51
270.0
  0
ARC
  5
103F
330
1A
100
AcDbEntity
  8
1
100
AcDbCircle
 10
458.4642453440156
 20
52.80935185353882
 30
0.0
 40
6.5
100
AcDbArc
 50
270.0
 51
0.0
  0
LINE
  5
1040
330
1A
100
AcDbEntity
  8
1
100
AcDbLine
 10
436.9642453440156
 20
52.80935185353882
 30
0.0
 11
438.9642453440155
 21
50.80935185353883
 31
0.0
  0
ARC
  5
1041
330
1A
100
AcDbEntity
  8
1
100
AcDbCircle
 10
458.4642453440156
 20
52.80935185353882
 30
0.0
 40
2.5
100
AcDbArc
 50
270.0
 51
0.0
  0
ARC
  5
1042
330
1A
100
AcDbEntity
  8
1
100
AcDbCircle
 10
455.4642453440155
 20
52.80935185353882
 30
0.0
 40
2.5
100
AcDbArc
 50
270.0
 51
0.0
  0
LINE
  5
1043
330
1A
100
AcDbEntity
  8
1
  6
HIDDEN
100
AcDbLine
 10
315.5045703171654
 20
74.4093518535401
 30
0.0
 11
298.3045703171628
 21
74.40935185353919
 31
0.0
  0
LINE
  5
1044
330
1A
100
AcDbEntity
  8
1
  6
HIDDEN
100
AcDbLine
 10
322.0045703171654
 20
75.80935185353883
 30
0.0
 11
291.8045703171646
 21
75.80935185353883
 31
0.0
  0
LINE
  5
1045
330
1A
100
AcDbEntity
  8
1
100
AcDbLine
 10
286.904570317165
 20
98.80935185353884
 30
0.0
 11
325.9045703171659
 21
98.80935185353974
 31
0.0
  0
LINE
  5
1046
330
1A
100
AcDbEntity
  8
1
  6
HIDDEN
100
AcDbLine
 10
291.8045703171646
 20
98.80935185353974
 30
0.0
 11
291.8045703171628
 21
75.80935185353974
 31
0.0
  0
LINE
  5
1047
330
1A
100
AcDbEntity
  8
1
100
AcDbLine
 10
296.9045703171632
 20
75.80935185353883
 30
0.0
 11
298.3045703171646
 21
74.40935185354101
 31
0.0
  0
LINE
  5
1048
330
1A
100
AcDbEntity
  8
1
100
AcDbLine
 10
282.9045703171668
 20
101.3093518535388
 30
0.0
 11
267.904570317165
 21
101.3093518535397
 31
0.0
  0
ARC
  5
1049
330
1A
100
AcDbEntity
  8
1
100
AcDbCircle
 10
258.904570317165
 20
103.3093518535388
 30
0.0
 40
2.0
100
AcDbArc
 50
15.24526371867132
 51
164.7547362812783
  0
LINE
  5
104A
330
1A
100
AcDbEntity
  8
1
100
AcDbLine
 10
255.4221657853313
 20
101.6778761232053
 30
0.0
 11
254.834188444498
 21
103.8352547748718
 31
0.0
  0
LINE
  5
104B
330
1A
100
AcDbEntity
  8
1
100
AcDbLine
 10
256.974952189832
 20
103.8352547748718
 30
0.0
 11
256.3869748489987
 21
101.6778761232053
 31
0.0
  0
LINE
  5
104C
330
1A
100
AcDbEntity
  8
1
100
AcDbLine
 10
250.974952189832
 20
103.8352547748718
 30
0.0
 11
250.3869748489987
 21
101.6778761232053
 31
0.0
  0
ARC
  5
104D
330
1A
100
AcDbEntity
  8
1
100
AcDbCircle
 10
252.904570317165
 20
103.3093518535388
 30
0.0
 40
2.0
100
AcDbArc
 50
15.24526371872159
 51
164.7547362812783
  0
ARC
  5
104E
330
1A
100
AcDbEntity
  8
1
100
AcDbCircle
 10
255.904570317165
 20
101.8093518535388
 30
0.0
 40
0.5
100
AcDbArc
 50
195.2452637186713
 51
344.7547362813287
  0
ARC
  5
104F
330
1A
100
AcDbEntity
  8
1
100
AcDbCircle
 10
249.904570317165
 20
101.8093518535388
 30
0.0
 40
0.5
100
AcDbArc
 50
270.0
 51
344.7547362812784
  0
ARC
  5
1050
330
1A
100
AcDbEntity
  8
1
100
AcDbCircle
 10
264.904570317165
 20
103.3093518535388
 30
0.0
 40
2.0
100
AcDbArc
 50
15.24526371872159
 51
164.7547362812783
  0
LINE
  5
1051
330
1A
100
AcDbEntity
  8
1
100
AcDbLine
 10
262.3869748489987
 20
101.6778761232053
 30
0.0
 11
262.974952189832
 21
103.8352547748718
 31
0.0
  0
LINE
  5
1052
330
1A
100
AcDbEntity
  8
1
100
AcDbLine
 10
260.834188444498
 20
103.8352547748718
 30
0.0
 11
261.4221657853313
 21
101.6778761232053
 31
0.0
  0
LINE
  5
1053
330
1A
100
AcDbEntity
  8
1
100
AcDbLine
 10
266.834188444498
 20
103.8352547748718
 30
0.0
 11
267.4221657853313
 21
101.6778761232053
 31
0.0
  0
ARC
  5
1054
330
1A
100
AcDbEntity
  8
1
100
AcDbCircle
 10
261.904570317165
 20
101.8093518535388
 30
0.0
 40
0.5
100
AcDbArc
 50
195.2452637187216
 51
344.7547362812784
  0
ARC
  5
1055
330
1A
100
AcDbEntity
  8
1
100
AcDbCircle
 10
267.904570317165
 20
101.8093518535388
 30
0.0
 40
0.5
100
AcDbArc
 50
195.2452637186713
 51
270.0
  0
LINE
  5
1056
330
1A
100
AcDbEntity
  8
1
100
AcDbLine
 10
286.9045703171668
 20
96.80935185353883
 30
0.0
 11
286.9045703171668
 21
98.80935185353884
 31
0.0
  0
LINE
  5
1057
330
1A
100
AcDbEntity
  8
1
100
AcDbLine
 10
285.9045703171668
 20
98.80935185353884
 30
0.0
 11
283.9045703171687
 21
100.8093518535388
 31
0.0
  0
LINE
  5
1058
330
1A
100
AcDbEntity
  8
1
100
AcDbLine
 10
286.9045703171668
 20
98.80935185353884
 30
0.0
 11
285.9045703171668
 21
98.80935185353884
 31
0.0
  0
LINE
  5
1059
330
1A
100
AcDbEntity
  8
1
100
AcDbLine
 10
283.9045703171677
 20
100.8093518535388
 30
0.0
 11
282.9045703171668
 21
100.8093518535388
 31
0.0
  0
LINE
  5
105A
330
1A
100
AcDbEntity
  8
1
  6
HIDDEN
100
AcDbLine
 10
322.0045703171654
 20
98.80935185353974
 30
0.0
 11
322.0045703171654
 21
75.80935185353883
 31
0.0
  0
LINE
  5
105B
330
1A
100
AcDbEntity
  8
1
100
AcDbLine
 10
316.9045703171632
 20
75.80935185353883
 30
0.0
 11
315.5045703171654
 21
74.4093518535401
 31
0.0
  0
LINE
  5
105C
330
1A
100
AcDbEntity
  8
1
100
AcDbLine
 10
325.9045703171659
 20
172.9982297289334
 30
0.0
 11
286.904570317165
 21
172.9982297289334
 31
0.0
  0
LINE
  5
105D
330
1A
100
AcDbEntity
  8
1
100
AcDbLine
 10
279.9045703171641
 20
148.9982297289334
 30
0.0
 11
267.904570317165
 21
148.9982297289325
 31
0.0
  0
ARC
  5
105E
330
1A
100
AcDbEntity
  8
1
100
AcDbCircle
 10
258.904570317165
 20
146.9982297289334
 30
0.0
 40
2.0
100
AcDbArc
 50
195.2452637187216
 51
344.7547362813287
  0
ARC
  5
105F
330
1A
100
AcDbEntity
  8
1
100
AcDbCircle
 10
255.904570317165
 20
148.4982297289334
 30
0.0
 40
0.5
100
AcDbArc
 50
15.24526371867132
 51
164.7547362813286
  0
LINE
  5
1060
330
1A
100
AcDbEntity
  8
1
100
AcDbLine
 10
256.974952189832
 20
146.4723268076004
 30
0.0
 11
256.3869748489987
 21
148.6297054592669
 31
0.0
  0
LINE
  5
1061
330
1A
100
AcDbEntity
  8
1
100
AcDbLine
 10
255.4221657853313
 20
148.6297054592669
 30
0.0
 11
254.834188444498
 21
146.4723268076004
 31
0.0
  0
ARC
  5
1062
330
1A
100
AcDbEntity
  8
1
100
AcDbCircle
 10
249.904570317165
 20
148.4982297289334
 30
0.0
 40
0.5
100
AcDbArc
 50
15.24526371872159
 51
90.0
  0
LINE
  5
1063
330
1A
100
AcDbEntity
  8
1
100
AcDbLine
 10
250.974952189832
 20
146.4723268076004
 30
0.0
 11
250.3869748489987
 21
148.6297054592669
 31
0.0
  0
ARC
  5
1064
330
1A
100
AcDbEntity
  8
1
100
AcDbCircle
 10
252.904570317165
 20
146.9982297289334
 30
0.0
 40
2.0
100
AcDbArc
 50
195.2452637187216
 51
344.7547362812784
  0
ARC
  5
1065
330
1A
100
AcDbEntity
  8
1
100
AcDbCircle
 10
267.904570317165
 20
148.4982297289334
 30
0.0
 40
0.5
100
AcDbArc
 50
90.0
 51
164.7547362813286
  0
LINE
  5
1066
330
1A
100
AcDbEntity
  8
1
100
AcDbLine
 10
266.834188444498
 20
146.4723268076004
 30
0.0
 11
267.4221657853313
 21
148.6297054592669
 31
0.0
  0
LINE
  5
1067
330
1A
100
AcDbEntity
  8
1
100
AcDbLine
 10
262.3869748489987
 20
148.6297054592669
 30
0.0
 11
262.974952189832
 21
146.4723268076004
 31
0.0
  0
LINE
  5
1068
330
1A
100
AcDbEntity
  8
1
100
AcDbLine
 10
260.834188444498
 20
146.4723268076004
 30
0.0
 11
261.4221657853313
 21
148.6297054592669
 31
0.0
  0
ARC
  5
1069
330
1A
100
AcDbEntity
  8
1
100
AcDbCircle
 10
261.904570317165
 20
148.4982297289334
 30
0.0
 40
0.5
100
AcDbArc
 50
15.24526371872159
 51
164.7547362812783
  0
ARC
  5
106A
330
1A
100
AcDbEntity
  8
1
100
AcDbCircle
 10
264.904570317165
 20
146.9982297289334
 30
0.0
 40
2.0
100
AcDbArc
 50
195.2452637187216
 51
344.7547362812784
  0
LINE
  5
106B
330
1A
100
AcDbEntity
  8
1
100
AcDbLine
 10
279.904570317165
 20
148.9982297289334
 30
0.0
 11
282.904570317165
 21
151.9982297289325
 31
0.0
  0
LINE
  5
106C
330
1A
100
AcDbEntity
  8
1
100
AcDbLine
 10
286.904570317165
 20
174.9982297289334
 30
0.0
 11
286.904570317165
 21
172.9982297289334
 31
0.0
  0
LINE
  5
106D
330
1A
100
AcDbEntity
  8
1
100
AcDbLine
 10
283.9045703171641
 20
170.9982297289334
 30
0.0
 11
282.904570317165
 21
170.9982297289334
 31
0.0
  0
LINE
  5
106E
330
1A
100
AcDbEntity
  8
1
100
AcDbLine
 10
285.904570317165
 20
172.9982297289334
 30
0.0
 11
286.904570317165
 21
172.9982297289334
 31
0.0
  0
LINE
  5
106F
330
1A
100
AcDbEntity
  8
1
100
AcDbLine
 10
283.9045703171641
 20
170.9982297289334
 30
0.0
 11
285.904570317165
 21
172.9982297289334
 31
0.0
  0
LINE
  5
1074
330
1A
100
AcDbEntity
  8
1
100
AcDbLine
 10
377.4642453440155
 20
105.3093518535379
 30
0.0
 11
458.4642453440156
 21
105.3093518535388
 31
0.0
  0
LINE
  5
1075
330
1A
100
AcDbEntity
  8
1
100
AcDbLine
 10
396.9642453440155
 20
100.8093518535379
 30
0.0
 11
438.9642453440155
 21
100.8093518535388
 31
0.0
  0
LINE
  5
1076
330
1A
100
AcDbEntity
  8
1
100
AcDbLine
 10
398.9642453440156
 20
98.80935185353974
 30
0.0
 11
436.9642453440156
 21
98.80935185353884
 31
0.0
  0
LINE
  5
1077
330
1A
100
AcDbEntity
  8
1
100
AcDbLine
 10
377.4642453440155
 20
101.3093518535379
 30
0.0
 11
458.4642453440156
 21
101.3093518535388
 31
0.0
  0
LINE
  5
1078
330
1A
100
AcDbEntity
  8
1
100
AcDbLine
 10
396.9642453440155
 20
100.8093518535379
 30
0.0
 11
398.9642453440156
 21
98.80935185353974
 31
0.0
  0
ARC
  5
1079
330
1A
100
AcDbEntity
  8
1
100
AcDbCircle
 10
377.4642453440155
 20
98.80935185353791
 30
0.0
 40
6.5
100
AcDbArc
 50
90.0
 51
180.0
  0
ARC
  5
107A
330
1A
100
AcDbEntity
  8
1
100
AcDbCircle
 10
377.4642453440155
 20
98.80935185353791
 30
0.0
 40
2.5
100
AcDbArc
 50
90.0
 51
180.0
  0
ARC
  5
107B
330
1A
100
AcDbEntity
  8
1
100
AcDbCircle
 10
380.4642453440155
 20
98.80935185353791
 30
0.0
 40
2.5
100
AcDbArc
 50
90.0
 51
180.0
  0
ARC
  5
107C
330
1A
100
AcDbEntity
  8
1
100
AcDbCircle
 10
458.4642453440156
 20
98.80935185353884
 30
0.0
 40
6.5
100
AcDbArc
 50
0.0
 51
90.0
  0
LINE
  5
107D
330
1A
100
AcDbEntity
  8
1
100
AcDbLine
 10
438.9642453440155
 20
100.8093518535388
 30
0.0
 11
436.9642453440156
 21
98.80935185353884
 31
0.0
  0
ARC
  5
107E
330
1A
100
AcDbEntity
  8
1
100
AcDbCircle
 10
458.4642453440156
 20
98.80935185353884
 30
0.0
 40
2.5
100
AcDbArc
 50
0.0
 51
90.0
  0
ARC
  5
107F
330
1A
100
AcDbEntity
  8
1
100
AcDbCircle
 10
455.4642453440155
 20
98.80935185353884
 30
0.0
 40
2.5
100
AcDbArc
 50
0.0
 51
90.0
  0
LINE
  5
1081
330
1A
100
AcDbEntity
  8
1
100
AcDbLine
 10
325.9045703171659
 20
210.9982297289334
 30
0.0
 11
286.904570317165
 21
210.9982297289334
 31
0.0
  0
LINE
  5
1085
330
1A
100
AcDbEntity
  8
1
100
AcDbLine
 10
283.9045703171641
 20
212.9982297289334
 30
0.0
 11
282.904570317165
 21
212.9982297289334
 31
0.0
  0
LINE
  5
1086
330
1A
100
AcDbEntity
  8
1
100
AcDbLine
 10
285.904570317165
 20
210.9982297289334
 30
0.0
 11
286.904570317165
 21
210.9982297289334
 31
0.0
  0
LINE
  5
1087
330
1A
100
AcDbEntity
  8
1
100
AcDbLine
 10
283.9045703171641
 20
212.9982297289334
 30
0.0
 11
285.904570317165
 21
210.9982297289334
 31
0.0
  0
LINE
  5
1088
330
1A
100
AcDbEntity
  8
1
100
AcDbLine
 10
286.904570317165
 20
208.9982297289334
 30
0.0
 11
286.904570317165
 21
210.9982297289334
 31
0.0
  0
LINE
  5
1089
330
1A
100
AcDbEntity
  8
1
100
AcDbLine
 10
279.9045703171641
 20
234.9982297289334
 30
0.0
 11
267.904570317165
 21
234.9982297289343
 31
0.0
  0
ARC
  5
108A
330
1A
100
AcDbEntity
  8
1
100
AcDbCircle
 10
258.904570317165
 20
236.9982297289334
 30
0.0
 40
2.0
100
AcDbArc
 50
15.24526371867132
 51
164.7547362812783
  0
ARC
  5
108B
330
1A
100
AcDbEntity
  8
1
100
AcDbCircle
 10
255.904570317165
 20
235.4982297289334
 30
0.0
 40
0.5
100
AcDbArc
 50
195.2452637186713
 51
344.7547362813287
  0
LINE
  5
108C
330
1A
100
AcDbEntity
  8
1
100
AcDbLine
 10
256.974952189832
 20
237.5241326502664
 30
0.0
 11
256.3869748489987
 21
235.3667539985999
 31
0.0
  0
LINE
  5
108D
330
1A
100
AcDbEntity
  8
1
100
AcDbLine
 10
255.4221657853313
 20
235.3667539985999
 30
0.0
 11
254.834188444498
 21
237.5241326502664
 31
0.0
  0
ARC
  5
108E
330
1A
100
AcDbEntity
  8
1
100
AcDbCircle
 10
249.904570317165
 20
235.4982297289334
 30
0.0
 40
0.5
100
AcDbArc
 50
270.0
 51
344.7547362812784
  0
LINE
  5
108F
330
1A
100
AcDbEntity
  8
1
100
AcDbLine
 10
250.974952189832
 20
237.5241326502664
 30
0.0
 11
250.3869748489987
 21
235.3667539985999
 31
0.0
  0
ARC
  5
1090
330
1A
100
AcDbEntity
  8
1
100
AcDbCircle
 10
252.904570317165
 20
236.9982297289334
 30
0.0
 40
2.0
100
AcDbArc
 50
15.24526371872159
 51
164.7547362812783
  0
ARC
  5
1091
330
1A
100
AcDbEntity
  8
1
100
AcDbCircle
 10
264.904570317165
 20
236.9982297289334
 30
0.0
 40
2.0
100
AcDbArc
 50
15.24526371872159
 51
164.7547362812783
  0
LINE
  5
1092
330
1A
100
AcDbEntity
  8
1
100
AcDbLine
 10
262.3869748489987
 20
235.3667539985999
 30
0.0
 11
262.974952189832
 21
237.5241326502664
 31
0.0
  0
LINE
  5
1093
330
1A
100
AcDbEntity
  8
1
100
AcDbLine
 10
260.834188444498
 20
237.5241326502664
 30
0.0
 11
261.4221657853313
 21
235.3667539985999
 31
0.0
  0
ARC
  5
1094
330
1A
100
AcDbEntity
  8
1
100
AcDbCircle
 10
261.904570317165
 20
235.4982297289334
 30
0.0
 40
0.5
100
AcDbArc
 50
195.2452637187216
 51
344.7547362812784
  0
ARC
  5
1095
330
1A
100
AcDbEntity
  8
1
100
AcDbCircle
 10
267.904570317165
 20
235.4982297289334
 30
0.0
 40
0.5
100
AcDbArc
 50
195.2452637186713
 51
270.0
  0
LINE
  5
1096
330
1A
100
AcDbEntity
  8
1
100
AcDbLine
 10
266.834188444498
 20
237.5241326502664
 30
0.0
 11
267.4221657853313
 21
235.3667539985999
 31
0.0
  0
LINE
  5
1097
330
1A
100
AcDbEntity
  8
1
100
AcDbLine
 10
279.904570317165
 20
234.9982297289334
 30
0.0
 11
282.904570317165
 21
231.9982297289343
 31
0.0
  0
LINE
  5
12DB
330
1A
100
AcDbEntity
  8
1
100
AcDbLine
 10
131.904570317165
 20
163.2982297289336
 30
0.0
 11
130.404570317165
 21
163.2982297289336
 31
0.0
  0
LINE
  5
12DC
330
1A
100
AcDbEntity
  8
1
100
AcDbLine
 10
130.404570317165
 20
163.2982297289336
 30
0.0
 11
130.9241855594355
 21
162.9982297289334
 31
0.0
  0
LINE
  5
12DD
330
1A
100
AcDbEntity
  8
1
100
AcDbLine
 10
137.404570317165
 20
166.9982297289334
 30
0.0
 11
130.404570317165
 21
166.9982297289334
 31
0.0
  0
LINE
  5
12DE
330
1A
100
AcDbEntity
  8
1
100
AcDbLine
 10
130.404570317165
 20
163.2982297289336
 30
0.0
 11
130.404570317165
 21
166.9982297289334
 31
0.0
  0
LINE
  5
12DF
330
1A
100
AcDbEntity
  8
1
100
AcDbLine
 10
137.404570317165
 20
163.2982297289336
 30
0.0
 11
137.404570317165
 21
166.9982297289334
 31
0.0
  0
LINE
  5
12E0
330
1A
100
AcDbEntity
  8
1
100
AcDbLine
 10
136.8849550748945
 20
162.9982297289334
 30
0.0
 11
130.9241855594355
 21
162.9982297289334
 31
0.0
  0
LINE
  5
12E1
330
1A
100
AcDbEntity
  8
1
100
AcDbLine
 10
137.404570317165
 20
163.2982297289336
 30
0.0
 11
136.8849550748945
 21
162.9982297289334
 31
0.0
  0
LINE
  5
12E2
330
1A
100
AcDbEntity
  8
1
100
AcDbLine
 10
137.404570317165
 20
163.2982297289336
 30
0.0
 11
135.904570317165
 21
163.2982297289336
 31
0.0
  0
LINE
  5
12E3
330
1A
100
AcDbEntity
  8
1
 48
0.3
100
AcDbLine
 10
137.7045703171652
 20
167.9982297289334
 30
0.0
 11
130.1045703171648
 21
167.9982297289334
 31
0.0
  0
LINE
  5
12E4
330
1A
100
AcDbEntity
  8
1
 48
0.3
100
AcDbLine
 10
137.7045703171652
 20
166.9982297289334
 30
0.0
 11
130.1045703171648
 21
166.9982297289334
 31
0.0
  0
LINE
  5
12E5
330
1A
100
AcDbEntity
  8
1
 48
0.3
100
AcDbLine
 10
133.5635404848671
 20
166.9982297289334
 30
0.0
 11
133.831489677299
 21
167.9982297289334
 31
0.0
  0
LINE
  5
12E6
330
1A
100
AcDbEntity
  8
1
 48
0.3
100
AcDbLine
 10
133.977650957031
 20
166.9982297289334
 30
0.0
 11
134.2456001494629
 21
167.9982297289334
 31
0.0
  0
LINE
  5
12E7
330
1A
100
AcDbEntity
  8
1
 48
0.3
100
AcDbLine
 10
130.1045703171648
 20
167.9982297289334
 30
0.0
 11
130.1045703171648
 21
166.9982297289334
 31
0.0
  0
LINE
  5
12E8
330
1A
100
AcDbEntity
  8
1
 48
0.3
100
AcDbLine
 10
137.7045703171652
 20
167.9982297289334
 30
0.0
 11
137.7045703171652
 21
166.9982297289334
 31
0.0
  0
LINE
  5
12E9
330
1A
100
AcDbEntity
  8
CENTER
 62
     9
100
AcDbLine
 10
133.904570317165
 20
51.97981948589677
 30
0.0
 11
133.904570317165
 21
61.76256373557953
 31
0.0
  0
LINE
  5
12EA
330
1A
100
AcDbEntity
  8
CENTER
 62
     9
100
AcDbLine
 10
138.9781254588251
 20
56.80935185353883
 30
0.0
 11
128.6949331742907
 21
56.80935185353883
 31
0.0
  0
LINE
  5
12EB
330
1A
100
AcDbEntity
  8
1
  6
Continuous
100
AcDbLine
 10
133.0385265295835
 20
55.30935600119028
 30
0.0
 11
132.1725015295833
 21
56.80935530181432
 31
0.0
  0
LINE
  5
12EC
330
1A
100
AcDbEntity
  8
1
  6
Continuous
100
AcDbLine
 10
132.1725015295833
 20
56.80935530181432
 30
0.0
 11
133.0385265295835
 21
58.30935460243927
 31
0.0
  0
LINE
  5
12ED
330
1A
100
AcDbEntity
  8
1
  6
Continuous
100
AcDbLine
 10
135.6366015295834
 20
56.80935530181432
 30
0.0
 11
134.7705765295841
 21
55.30935600119028
 31
0.0
  0
LINE
  5
12EE
330
1A
100
AcDbEntity
  8
1
  6
Continuous
100
AcDbLine
 10
134.7705765295841
 20
58.30935460243927
 30
0.0
 11
135.6366015295834
 21
56.80935530181432
 31
0.0
  0
LINE
  5
12EF
330
1A
100
AcDbEntity
  8
1
  6
Continuous
100
AcDbLine
 10
133.0385265295835
 20
58.30935460243927
 30
0.0
 11
134.7705765295841
 21
58.30935460243927
 31
0.0
  0
LINE
  5
12F0
330
1A
100
AcDbEntity
  8
1
  6
Continuous
100
AcDbLine
 10
134.7705765295841
 20
55.30935600119028
 30
0.0
 11
133.0385265295835
 21
55.30935600119028
 31
0.0
  0
CIRCLE
  5
12F1
330
1A
100
AcDbEntity
  8
1
  6
Continuous
100
AcDbCircle
 10
133.9045515295838
 20
56.80935530181432
 30
0.0
 40
3.5
  0
CIRCLE
  5
12F2
330
1A
100
AcDbEntity
  8
1
  6
Continuous
100
AcDbCircle
 10
133.9045515295838
 20
56.80935530181432
 30
0.0
 40
2.980384515458561
  0
CIRCLE
  5
12F3
330
1A
100
AcDbEntity
  8
1
100
AcDbCircle
 10
133.904570317165
 20
56.80935185353883
 30
0.0
 40
3.800000000000181
  0
VIEWPORT
  5
22
330
17
100
AcDbEntity
 67
     1
  8
0
100
AcDbViewport
 10
238.0654584258011
 20
98.49288675035399
 30
0.0
 40
457.5415735541719
 41
355.4493903046228
 68
     1
 69
     1
 12
238.0654584258011
 22
98.49288675035399
 13
0.0
 23
0.0
 14
1.0
 24
1.0
 15
10.0
 25
10.0
 16
0.0
 26
0.0
 36
1.0
 17
0.0
 27
0.0
 37
0.0
 42
50.0
 43
0.0
 44
0.0
 45
355.4493903046228
 50
0.0
 51
0.0
 72
   100
 90
    32768
  1

281
     0
 71
     1
 74
     0
110
0.0
120
0.0
130
0.0
111
1.0
121
0.0
131
0.0
112
0.0
122
1.0
132
0.0
 79
     0
146
0.0
  0
VIEWPORT
  5
2AA
330
17
100
AcDbEntity
 67
     1
  8
DEFPOINTS
100
AcDbViewport
 10
212.5
 20
144.4999999999999
 30
0.0
 40
385.0
 41
264.9999999999999
 68
     2
 69
     2
 12
237.395266764163
 22
139.5565061648788
 13
0.0
 23
0.0
 14
168.0
 24
168.0
 15
0.0
 25
0.0
 16
0.0
 26
0.0
 36
1.0
 17
0.0
 27
0.0
 37
0.0
 42
50.0
 43
0.0
 44
0.0
 45
317.459702993111
 50
0.0
 51
0.0
 72
   100
 90
    36864
  1

281
     0
 71
     1
 74
     0
110
0.0
120
0.0
130
0.0
111
1.0
121
0.0
131
0.0
112
0.0
122
1.0
132
0.0
 79
     0
146
0.0
  0
ENDSEC
  0
SECTION
  2
OBJECTS
  0
DICTIONARY
  5
C
330
0
100
AcDbDictionary
281
     1
  3
ACAD_GROUP
350
D
  3
ACAD_LAYOUT
350
2C2
  3
ACAD_MLINESTYLE
350
E
  3
ACAD_PLOTSETTINGS
350
2C3
  3
ACAD_PLOTSTYLENAME
350
2C0
  3
AcadDim
350
BD9
  3
CONTENTDICTIONARY
350
234
  0
DICTIONARY
  5
394
330
2
100
AcDbDictionary
280
     1
281
     1
  3
ACAD_LAYERFILTERS
360
395
  0
DICTIONARY
  5
D
102
{ACAD_REACTORS
330
C
102
}
330
C
100
AcDbDictionary
281
     1
  0
DICTIONARY
  5
2C2
102
{ACAD_REACTORS
330
C
102
}
330
C
100
AcDbDictionary
281
     1
  3
Model
350
2C4
  3
ﾚｲｱｳﾄ1
350
2C5
  0
DICTIONARY
  5
E
102
{ACAD_REACTORS
330
C
102
}
330
C
100
AcDbDictionary
281
     1
  3
STANDARD
350
13
  0
DICTIONARY
  5
2C3
102
{ACAD_REACTORS
330
C
102
}
330
C
100
AcDbDictionary
281
     1
  3
A3formNX710
350
2FA
  0
ACDBDICTIONARYWDFLT
  5
2C0
102
{ACAD_REACTORS
330
C
102
}
330
C
100
AcDbDictionary
281
     1
  3
Normal
350
2C1
100
AcDbDictionaryWithDefault
340
2C1
  0
XRECORD
  5
BD9
102
{ACAD_REACTORS
330
C
102
}
330
C
100
AcDbXrecord
280
     1
 90
   990106
  3

 60
     0
 61
     0
 62
     4
 63
     4
 64
     1
 65
     0
 66
     0
 67
     3
 68
     1
 69
     0
 70
     0
 71
     0
 72
     0
 40
40.0
170
     2
340
BDB
  0
DICTIONARY
  5
234
102
{ACAD_REACTORS
330
C
102
}
330
C
100
AcDbDictionary
281
     1
  0
DICTIONARY
  5
395
102
{ACAD_REACTORS
330
394
102
}
330
394
100
AcDbDictionary
280
     1
281
     1
  3
-100
360
396
  3
-50
360
397
  3
-H
360
398
  3
-T
360
399
  3
$
360
39A
  3
(02)幹線
360
39B
  3
（02）幹線
360
39C
  3
(03)接地
360
39D
  3
（03）接地
360
39E
  3
（04）避雷
360
39F
  3
(05)中央監視
360
3A0
  3
（05）中央監視
360
3A1
  3
(06)非常用ｺﾝｾﾝﾄ
360
3A2
  3
（06）非常用ｺﾝｾﾝﾄ
360
3A3
  3
（07）ﾊﾞｽﾀﾞｸﾄ
360
3A4
  3
（08）ｹｰﾌﾞﾙﾗｯｸ
360
3A5
  3
(09)動力
360
3A6
  3
（09）動力
360
3A7
  3
(10)ｺﾝｾﾝﾄ
360
3A8
  3
（10）ｺﾝｾﾝﾄ
360
3A9
  3
（11）医療接地
360
3AA
  3
(12)電灯
360
3AB
  3
（12）電灯
360
3AC
  3
(13)空調
360
3AD
  3
（13）空調
360
3AE
  3
（14）航空障害灯
360
3AF
  3
(15)非常照明
360
3B0
  3
（15）非常照明
360
3B1
  3
（16）誘導灯
360
3B2
  3
(17)電話
360
3B3
  3
（17）電話
360
3B4
  3
(18)情報
360
3B5
  3
（18）情報
360
3B6
  3
(19)ﾃﾚﾋﾞ
360
3B7
  3
（19）ﾃﾚﾋﾞ
360
3B8
  3
(20)防犯
360
3B9
  3
（20）防犯
360
3BA
  3
（21）ITV
360
3BB
  3
(22)ﾅｰｽｺｰﾙ
360
3BC
  3
（22）ﾅｰｽｺｰﾙ
360
3BD
  3
（23）外来診察
360
3BE
  3
（24）ﾍﾞｯﾄｻｲﾄﾞ
360
3BF
  3
（25）採尿蓄量
360
3C0
  3
(26)非常放送
360
3C1
  3
（26）非常放送
360
3C2
  3
（27）業務放送
360
3C3
  3
(28)火報
360
3C4
  3
（28）火報
360
3C5
  3
(29)厨房
360
3C6
  3
（29）厨房
360
3C7
  3
､@ｯ・U+56F3
360
3C8
  3
･画ｼhｪ愠ﾜ
360
3C9
  3
0
360
3CA
  3
0 画層
360
3CB
  3
00
360
3CC
  3
001
360
3CD
  3
01
360
3CE
  3
05
360
3CF
  3
0系
360
3D0
  3
0系+CONTINUOUS
360
3D1
  3
0床内
360
3D2
  3
0床壁
360
3D3
  3
0詳細図
360
3D4
  3
0総合図off
360
3D5
  3
0総合図枠
360
3D6
  3
0平詳枠
360
3D7
  3
1
360
3D8
  3
1-30
360
3D9
  3
1-交差点処理図（最新1案）
360
3DA
  3
1／100
360
3DB
  3
100
360
3DC
  3
10画層
360
3DD
  3
1111
360
3DE
  3
12
360
3DF
  3
19
360
3E0
  3
1床
360
3E1
  3
1芯
360
3E2
  3
1芯線
360
3E3
  3
2
360
3E4
  3
2-線形図1
360
3E5
  3
200
360
3E6
  3
21
360
3E7
  3
2100
360
3E8
  3
250
360
3E9
  3
2600
360
3EA
  3
2f
360
3EB
  3
2躯体
360
3EC
  3
2断面
360
3ED
  3
2壁
360
3EE
  3
3
360
3EF
  3
3-線形図2
360
3F0
  3
300
360
3F1
  3
32
360
3F2
  3
333
360
3F3
  3
3A
360
3F4
  3
3開口
360
3F5
  3
3見掛り
360
3F6
  3
3天井内
360
3F7
  3
4
360
3F8
  3
41
360
3F9
  3
4仕上げ
360
3FA
  3
4天井
360
3FB
  3
5
360
3FC
  3
50
360
3FD
  3
50off
360
3FE
  3
50詳細図
360
3FF
  3
51-52
360
400
  3
555
360
401
  3
5画層
360
402
  3
5寸法
360
403
  3
5文字
360
404
  3
6
360
405
  3
66-躯体図
360
406
  3
66躯体図
360
407
  3
6画層
360
408
  3
6記号
360
409
  3
6文字
360
40A
  3
6保留
360
40B
  3
7
360
40C
  3
7-専用部北行
360
40D
  3
7a画層
360
40E
  3
7記号
360
40F
  3
8
360
410
  3
8-ONﾗﾝﾌﾟ
360
411
  3
8寸法
360
412
  3
8設備
360
413
  3
9
360
414
  3
9-OFFﾗﾝﾌﾟ
360
415
  3
901101
360
416
  3
9文字
360
417
  3
9目地
360
418
  3
a
360
419
  3
A-
360
41A
  3
a-roof
360
41B
  3
A 画層
360
41C
  3
A3
360
41D
  3
aa
360
41E
  3
aaa
360
41F
  3
AAAA
360
420
  3
AB棟
360
421
  3
ＡＢ棟
360
422
  3
all選択
360
423
  3
AREA
360
424
  3
AREA-SG
360
425
  3
ASDFCA
360
426
  3
aハッチング
360
427
  3
A空調
360
428
  3
Ａ断面
360
429
  3
b
360
42A
  3
B 画層
360
42B
  3
BAL
360
42C
  3
BASE
360
42D
  3
BBB
360
42E
  3
blue
360
42F
  3
BOR
360
430
  3
b階段
360
431
  3
Ｂ断面
360
432
  3
B電気
360
433
  3
B北
360
434
  3
c
360
435
  3
c-block
360
436
  3
c-block-2
360
437
  3
caa001
360
438
  3
CABINETRY
360
439
  3
cap-0
360
43A
  3
CASTellano
360
43B
  3
cc
360
43C
  3
CCC
360
43D
  3
ＣＤ棟
360
43E
  3
ceiling
360
43F
  3
CENTER
360
440
  3
che
360
441
  3
com
360
442
  3
conotur
360
443
  3
CONTI系
360
444
  3
contour
360
445
  3
conveyors
360
446
  3
cyan
360
447
  3
C衛生
360
448
  3
C街区関連
360
449
  3
c雑金物
360
44A
  3
C打計画図
360
44B
  3
Ｃ断面
360
44C
  3
C棟R部
360
44D
  3
DASHED
360
44E
  3
DASHED2
360
44F
  3
DDD
360
450
  3
DEF
360
451
  3
DENKI
360
452
  3
DIM
360
453
  3
DOORS
360
454
  3
drain
360
455
  3
Drow1
360
456
  3
d外構
360
457
  3
E
360
458
  3
E 画層
360
459
  3
EEEE
360
45A
  3
EISEI
360
45B
  3
EL
360
45C
  3
ＥＬ３ｍ
360
45D
  3
ＥＬ8ｍ
360
45E
  3
ele
360
45F
  3
ELECTRICAL
360
460
  3
ERAS1F
360
461
  3
exterior
360
462
  3
E南
360
463
  3
F
360
464
  3
feaze
360
465
  3
FF
360
466
  3
FLOW
360
467
  3
Frame
360
468
  3
freaze
360
469
  3
freeze
360
46A
  3
Frozen
360
46B
  3
Fugou
360
46C
  3
FUKI
360
46D
  3
FUSE_00
360
46E
  3
G
360
46F
  3
GAIKOU
360
470
  3
gasline
360
471
  3
GLAZING
360
472
  3
green
360
473
  3
GRID
360
474
  3
H
360
475
  3
H 画層
360
476
  3
HAISEN
360
477
  3
HARI
360
478
  3
HASIRA
360
479
  3
HAT
360
47A
  3
HIDDEN
360
47B
  3
HM
360
47C
  3
HOJO
360
47D
  3
houki
360
47E
  3
i
360
47F
  3
I2
360
480
  3
i2cl
360
481
  3
i5
360
482
  3
IEL
360
483
  3
INSERT図
360
484
  3
irc
360
485
  3
j
360
486
  3
jiku-0
360
487
  3
jkhg8
360
488
  3
KABE
360
489
  3
KABESHIN
360
48A
  3
KAGU
360
48B
  3
key
360
48C
  3
keyplan
360
48D
  3
KIJUN
360
48E
  3
KSIN
360
48F
  3
kui
360
490
  3
L 画層
360
491
  3
L1
360
492
  3
L2
360
493
  3
layout
360
494
  3
length
360
495
  3
LOCK
360
496
  3
M
360
497
  3
magenta
360
498
  3
MAJIKIRI
360
499
  3
mazenda
360
49A
  3
MB
360
49B
  3
MECHANICAL
360
49C
  3
MEJI
360
49D
  3
men
360
49E
  3
MIE01
360
49F
  3
MOJI
360
4A0
  3
MOJI100
360
4A1
  3
MP
360
4A2
  3
N
360
4A3
  3
new
360
4A4
  3
New Doors
360
4A5
  3
New Walls
360
4A6
  3
nic
360
4A7
  3
NS CTS set
360
4A8
  3
o
360
4A9
  3
OF
360
4AA
  3
Off
360
4AB
  3
off文字
360
4AC
  3
on
360
4AD
  3
p
360
4AE
  3
PARKING
360
4AF
  3
PC
360
4B0
  3
plot
360
4B1
  3
PLUMBING
360
4B2
  3
Q
360
4B3
  3
R
360
4B4
  3
raku
360
4B5
  3
red
360
4B6
  3
RJRUDDH
360
4B7
  3
rock
360
4B8
  3
ROOF
360
4B9
  3
s
360
4BA
  3
saciencewold
360
4BB
  3
SC
360
4BC
  3
sdfdf
360
4BD
  3
SETUBI
360
4BE
  3
SHITU
360
4BF
  3
SHITUMEI
360
4C0
  3
SIAG
360
4C1
  3
SIAG-N
360
4C2
  3
SIAG3
360
4C3
  3
Sinm
360
4C4
  3
SITA
360
4C5
  3
site
360
4C6
  3
SON
360
4C7
  3
SS
360
4C8
  3
STAIRS
360
4C9
  3
standard
360
4CA
  3
SUGA5
360
4CB
  3
SUNP
360
4CC
  3
SUNP100
360
4CD
  3
SYOU
360
4CE
  3
S画層
360
4CF
  3
T
360
4D0
  3
TAKASA
360
4D1
  3
TATE161
360
4D2
  3
TATEGU
360
4D3
  3
TC
360
4D4
  3
TEN
360
4D5
  3
TENJYOU
360
4D6
  3
TENJYOUNAI
360
4D7
  3
test
360
4D8
  3
test1024
360
4D9
  3
test1115
360
4DA
  3
test2
360
4DB
  3
TEXT
360
4DC
  3
Thawed
360
4DD
  3
TITL
360
4DE
  3
tnjyou
360
4DF
  3
TORISHIN
360
4E0
  3
TSIN
360
4E1
  3
TU
360
4E2
  3
unlocked
360
4E3
  3
UNROCK
360
4E4
  3
VMB
360
4E5
  3
VOID
360
4E6
  3
waku
360
4E7
  3
WALLS
360
4E8
  3
ward
360
4E9
  3
X
360
4EA
  3
yaji
360
4EB
  3
yellow
360
4EC
  3
YUKA
360
4ED
  3
yその他
360
4EE
  3
Z
360
4EF
  3
z-CABINETRY
360
4F0
  3
z-WALLS
360
4F1
  3
ZATU
360
4F2
  3
z図枠
360
4F3
  3
ｨｾｨa
360
4F4
  3
ｨﾏ･ﾎ､､
360
4F5
  3
ガラス
360
4F6
  3
キ-プラン
360
4F7
  3
キープラン
360
4F8
  3
きんでん
360
4F9
  3
ｺﾝ
360
4FA
  3
シェルター
360
4FB
  3
すべての画層を非表示
360
4FC
  3
すべて非表示
360
4FD
  3
デッキ
360
4FE
  3
ハッチング
360
4FF
  3
ﾌﾘｰｽﾞ
360
500
  3
フリーズ
360
501
  3
フリーズof
360
502
  3
フリーズ画層
360
503
  3
ﾌﾘｰｽﾞ画層非表示
360
504
  3
ﾌﾘｰｽﾞ画面非表示
360
505
  3
ﾌﾘｰｽﾞ解除
360
506
  3
フリーズ解除
360
507
  3
ペーパー空間
360
508
  3
マーク
360
509
  3
ｭｱｿn
360
50A
  3
ｭｫｭnｼh
360
50B
  3
ランプ
360
50C
  3
ロック以外
360
50D
  3
ロック画層
360
50E
  3
ロック解除
360
50F
  3
ｦLｨ
360
510
  3
一括非表示
360
511
  3
一般
360
512
  3
一般画層
360
513
  3
印刷不可を表示
360
514
  3
荏原 機器
360
515
  3
荏原　機器基礎
360
516
  3
荏原機器
360
517
  3
荏原機器基礎
360
518
  3
衛生設備図
360
519
  3
黄色
360
51A
  3
下地
360
51B
  3
仮設
360
51C
  3
家具
360
51D
  3
開発画層
360
51E
  3
外構
360
51F
  3
外構一般画層
360
520
  3
外構図
360
521
  3
外部-フリーズ解除
360
522
  3
外部参照－建築
360
523
  3
外部参照の非表示画層
360
524
  3
岩級
360
525
  3
基
360
526
  3
基準
360
527
  3
基礎伏図
360
528
  3
既存杭
360
529
  3
機器
360
52A
  3
機器基礎
360
52B
  3
記号
360
52C
  3
旧
360
52D
  3
共通
360
52E
  3
区画
360
52F
  3
躯体
360
530
  3
躯体図
360
531
  3
駆体
360
532
  3
空調設備図
360
533
  3
郡川
360
534
  3
型枠計画図
360
535
  3
形状
360
536
  3
形状以外
360
537
  3
建具
360
538
  3
建築
360
539
  3
建築1
360
53A
  3
建築一般画層
360
53B
  3
建築図
360
53C
  3
建築接地図
360
53D
  3
建物
360
53E
  3
見え
360
53F
  3
見上
360
540
  3
現況
360
541
  3
現況＆境界
360
542
  3
現在以外のすべてを選択
360
543
  3
後付
360
544
  3
公園
360
545
  3
杭頭詳細図
360
546
  3
杭伏図
360
547
  3
高さ
360
548
  3
高圧電気
360
549
  3
座席のみ
360
54A
  3
作業
360
54B
  3
山止根切計画図
360
54C
  3
仕
360
54D
  3
仕上
360
54E
  3
仕上げ
360
54F
  3
仕上図
360
550
  3
支柱取付部
360
551
  3
施工図
360
552
  3
紫
360
553
  3
従属
360
554
  3
出図
360
555
  3
床伏
360
556
  3
床伏図
360
557
  3
昇降機
360
558
  3
詳細
360
559
  3
詳細一般画層
360
55A
  3
詳細図
360
55B
  3
上階躯体図
360
55C
  3
植栽
360
55D
  3
色番号8
360
55E
  3
新
360
55F
  3
新菱
360
560
  3
申請用
360
561
  3
芯
360
562
  3
芯関係
360
563
  3
水
360
564
  3
水色
360
565
  3
寸法
360
566
  3
正面図
360
567
  3
製作
360
568
  3
製作-躯体
360
569
  3
製作-建築
360
56A
  3
製作-昇降機
360
56B
  3
青
360
56C
  3
設備
360
56D
  3
設備１
360
56E
  3
専北
360
56F
  3
専用
360
570
  3
川畑
360
571
  3
線形
360
572
  3
全階平面図
360
573
  3
全帯
360
574
  3
総合仮設図
360
575
  3
総合図
360
576
  3
総合図1
360
577
  3
足場計画図
360
578
  3
耐火
360
579
  3
断面
360
57A
  3
断面図
360
57B
  3
中
360
57C
  3
中野
360
57D
  3
通り芯
360
57E
  3
低圧
360
57F
  3
鉄筋
360
580
  3
鉄骨
360
581
  3
鉄骨建方計画図
360
582
  3
鉄骨梁見下げ
360
583
  3
鉄骨梁見下げ3
360
584
  3
天井
360
585
  3
天井インサート図
360
586
  3
天井総合図
360
587
  3
天井伏
360
588
  3
天井伏図
360
589
  3
天伏
360
58A
  3
展開図
360
58B
  3
電ｺﾝｾﾝﾄ
360
58C
  3
電ﾃﾚﾋﾞ
360
58D
  3
電の画層
360
58E
  3
電の総画層
360
58F
  3
電医療接地
360
590
  3
電気
360
591
  3
電気画層
360
592
  3
電気設計図
360
593
  3
電気設備図
360
594
  3
電電話
360
595
  3
土留板
360
596
  3
土留板取付詳細図
360
597
  3
動力
360
598
  3
道路
360
599
  3
道路関係図
360
59A
  3
読み込み時表示層
360
59B
  3
日比谷
360
59C
  3
日比谷1
360
59D
  3
背面図
360
59E
  3
配管
360
59F
  3
配筋図
360
5A0
  3
配置樹木
360
5A1
  3
配置図
360
5A2
  3
盤
360
5A3
  3
非表示
360
5A4
  3
非表示層のみ表示
360
5A5
  3
表示
360
5A6
  3
表示-ﾊﾟｼｺﾝ作成画層のみ
360
5A7
  3
表示-近代作成画層のみ
360
5A8
  3
表示-東電作成画層のみ
360
5A9
  3
表示-日技作成画層のみ
360
5AA
  3
表示-福山作成画層のみ
360
5AB
  3
表示・非表示
360
5AC
  3
表示2
360
5AD
  3
表示層のみ表示
360
5AE
  3
副道
360
5AF
  3
分割枠
360
5B0
  3
文字
360
5B1
  3
平詳
360
5B2
  3
平詳仕上表1
360
5B3
  3
平面
360
5B4
  3
平面詳細
360
5B5
  3
平面詳細図
360
5B6
  3
平面図
360
5B7
  3
平面図のみ＠1
360
5B8
  3
平面図のみ＠２
360
5B9
  3
平面総合図
360
5BA
  3
保留
360
5BB
  3
補助線
360
5BC
  3
法規チェック－区画
360
5BD
  3
法規チェック－範囲
360
5BE
  3
鳳文字入力
360
5BF
  3
防災
360
5C0
  3
名称
360
5C1
  3
面積
360
5C2
  3
立面図
360
5C3
  3
梁
360
5C4
  3
緑
360
5C5
  0
LAYOUT
  5
2C4
102
{ACAD_REACTORS
330
2C2
102
}
330
2C2
100
AcDbPlotSettings
  1

  2
Laser Wind 2080W
  4

  6

 40
0.0
 41
0.0
 42
0.0
 43
0.0
 44
0.0
 45
0.0
 46
0.0
 47
0.0
 48
0.0
 49
0.0
140
0.0
141
0.0
142
1.0
143
1.0
 70
  1712
 72
     0
 73
     0
 74
     0
  7

 75
     0
147
1.0
148
0.0
149
0.0
100
AcDbLayout
  1
Model
 70
     1
 71
     0
 10
0.0
 20
0.0
 11
12.0
 21
9.0
 12
0.0
 22
0.0
 32
0.0
 14
0.0
 24
0.0
 34
0.0
 15
0.0
 25
0.0
 35
0.0
146
0.0
 13
0.0
 23
0.0
 33
0.0
 16
1.0
 26
0.0
 36
0.0
 17
0.0
 27
1.0
 37
0.0
 76
     0
330
1A
  0
LAYOUT
  5
2C5
102
{ACAD_REACTORS
330
2C2
102
}
330
2C2
100
AcDbPlotSettings
  1
A3formNX710
  2
RICOH IPSiO NX710
  4
A3
  6

 40
5.831416606903076
 41
4.307413101196289
 42
8.244415283203125
 43
5.789093017578125
 44
296.9683227539062
 45
419.9889831542968
 46
0.0
 47
0.0
 48
0.0
 49
0.0
140
0.0
141
0.0
142
1.0
143
0.999993956865126
 70
   688
 72
     1
 73
     1
 74
     2
  7
monochrome.ctb
 75
     0
147
1.000006043171393
148
0.0
149
0.0
100
AcDbLayout
  1
ﾚｲｱｳﾄ1
 70
     1
 71
     1
 10
0.0
 20
0.0
 11
409.8899999999999
 21
282.8899999999999
 12
0.0
 22
0.0
 32
0.0
 14
20.0
 24
12.0
 34
0.0
 15
405.0
 25
276.9999999999999
 35
0.0
146
0.0
 13
0.0
 23
0.0
 33
0.0
 16
1.0
 26
0.0
 36
0.0
 17
0.0
 27
1.0
 37
0.0
 76
     0
330
17
331
22
  0
MLINESTYLE
  5
13
102
{ACAD_REACTORS
330
E
102
}
330
E
100
AcDbMlineStyle
  2
STANDARD
 70
     0
  3

 62
     0
 51
90.0
 52
90.0
 71
     2
 49
0.5
 62
   256
  6
BYLAYER
 49
-0.5
 62
   256
  6
BYLAYER
  0
PLOTSETTINGS
  5
2FA
102
{ACAD_REACTORS
330
2C3
102
}
330
2C3
100
AcDbPlotSettings
  1
A3formNX710
  2
RICOH IPSiO NX710
  4
A3
  6

 40
5.831416606903076
 41
4.307413101196289
 42
8.244415283203125
 43
5.789093017578125
 44
296.9683227539062
 45
419.9889831542968
 46
0.0
 47
0.0
 48
0.0
 49
0.0
140
0.0
141
0.0
142
1.0
143
0.999993956865126
 70
   688
 72
     1
 73
     1
 74
     2
  7
monochrome.ctb
 75
     0
147
1.000006043171393
148
0.0
149
0.0
  0
ACDBPLACEHOLDER
  5
2C1
102
{ACAD_REACTORS
330
2C0
102
}
330
2C0
  0
XRECORD
  5
396
102
{ACAD_REACTORS
330
395
102
}
330
395
100
AcDbXrecord
280
     1
  1
-100
  1
*-100
  1
*
  1
*
 70
     0
  1
*
  1
*
  0
XRECORD
  5
397
102
{ACAD_REACTORS
330
395
102
}
330
395
100
AcDbXrecord
280
     1
  1
-50
  1
*-50
  1
*
  1
*
 70
     0
  1
*
  1
*
  0
XRECORD
  5
398
102
{ACAD_REACTORS
330
395
102
}
330
395
100
AcDbXrecord
280
     1
  1
-H
  1
00*,01*,02*,05*,1*,2*,3*,4*,5*,6*,8*
  1
*
  1
*
 70
     0
  1
*
  1
*
  0
XRECORD
  5
399
102
{ACAD_REACTORS
330
395
102
}
330
395
100
AcDbXrecord
280
     1
  1
-T
  1
00*,01*,03*,05*,1*,20*,21*,22*,23*,24*,25*,26*,27*,29*,2a*,3*,4*,7*,9*
  1
*
  1
*
 70
     0
  1
*
  1
*
  0
XRECORD
  5
39A
102
{ACAD_REACTORS
330
395
102
}
330
395
100
AcDbXrecord
280
     1
  1
$
  1
*$0$*
  1
*
  1
*
 70
     0
  1
*
  1
*
  0
XRECORD
  5
39B
102
{ACAD_REACTORS
330
395
102
}
330
395
100
AcDbXrecord
280
     1
  1
(02)幹線
  1
電-幹線*
  1
*
  1
*
 70
     0
  1
*
  1
*
  0
XRECORD
  5
39C
102
{ACAD_REACTORS
330
395
102
}
330
395
100
AcDbXrecord
280
     1
  1
（02）幹線
  1
電-幹線*
  1
*
  1
*
 70
     0
  1
*
  1
*
  0
XRECORD
  5
39D
102
{ACAD_REACTORS
330
395
102
}
330
395
100
AcDbXrecord
280
     1
  1
(03)接地
  1
電-接地*
  1
*
  1
*
 70
     0
  1
*
  1
*
  0
XRECORD
  5
39E
102
{ACAD_REACTORS
330
395
102
}
330
395
100
AcDbXrecord
280
     1
  1
（03）接地
  1
電-接地*
  1
*
  1
*
 70
     0
  1
*
  1
*
  0
XRECORD
  5
39F
102
{ACAD_REACTORS
330
395
102
}
330
395
100
AcDbXrecord
280
     1
  1
（04）避雷
  1
電-避雷*
  1
*
  1
*
 70
     0
  1
*
  1
*
  0
XRECORD
  5
3A0
102
{ACAD_REACTORS
330
395
102
}
330
395
100
AcDbXrecord
280
     1
  1
(05)中央監視
  1
電-中央監視*
  1
*
  1
*
 70
     0
  1
*
  1
*
  0
XRECORD
  5
3A1
102
{ACAD_REACTORS
330
395
102
}
330
395
100
AcDbXrecord
280
     1
  1
（05）中央監視
  1
電-中央監視*
  1
*
  1
*
 70
     0
  1
*
  1
*
  0
XRECORD
  5
3A2
102
{ACAD_REACTORS
330
395
102
}
330
395
100
AcDbXrecord
280
     1
  1
(06)非常用ｺﾝｾﾝﾄ
  1
電-非常用ｺﾝ*
  1
*
  1
*
 70
     0
  1
*
  1
*
  0
XRECORD
  5
3A3
102
{ACAD_REACTORS
330
395
102
}
330
395
100
AcDbXrecord
280
     1
  1
（06）非常用ｺﾝｾﾝﾄ
  1
電-非常用ｺﾝｾﾝﾄ*
  1
*
  1
*
 70
     0
  1
*
  1
*
  0
XRECORD
  5
3A4
102
{ACAD_REACTORS
330
395
102
}
330
395
100
AcDbXrecord
280
     1
  1
（07）ﾊﾞｽﾀﾞｸﾄ
  1
電-ﾊﾞｽﾀﾞｸﾄ*
  1
*
  1
*
 70
     0
  1
*
  1
*
  0
XRECORD
  5
3A5
102
{ACAD_REACTORS
330
395
102
}
330
395
100
AcDbXrecord
280
     1
  1
（08）ｹｰﾌﾞﾙﾗｯｸ
  1
電-ｹｰﾌﾞﾙﾗｯｸ*
  1
*
  1
*
 70
     0
  1
*
  1
*
  0
XRECORD
  5
3A6
102
{ACAD_REACTORS
330
395
102
}
330
395
100
AcDbXrecord
280
     1
  1
(09)動力
  1
電-動力*
  1
*
  1
*
 70
     0
  1
*
  1
*
  0
XRECORD
  5
3A7
102
{ACAD_REACTORS
330
395
102
}
330
395
100
AcDbXrecord
280
     1
  1
（09）動力
  1
電-動力*
  1
*
  1
*
 70
     0
  1
*
  1
*
  0
XRECORD
  5
3A8
102
{ACAD_REACTORS
330
395
102
}
330
395
100
AcDbXrecord
280
     1
  1
(10)ｺﾝｾﾝﾄ
  1
電-ｺﾝｾﾝﾄ*
  1
*
  1
*
 70
     0
  1
*
  1
*
  0
XRECORD
  5
3A9
102
{ACAD_REACTORS
330
395
102
}
330
395
100
AcDbXrecord
280
     1
  1
（10）ｺﾝｾﾝﾄ
  1
電-ｺﾝｾﾝﾄ*
  1
*
  1
*
 70
     0
  1
*
  1
*
  0
XRECORD
  5
3AA
102
{ACAD_REACTORS
330
395
102
}
330
395
100
AcDbXrecord
280
     1
  1
（11）医療接地
  1
電-医療*
  1
*
  1
*
 70
     0
  1
*
  1
*
  0
XRECORD
  5
3AB
102
{ACAD_REACTORS
330
395
102
}
330
395
100
AcDbXrecord
280
     1
  1
(12)電灯
  1
電-電灯*
  1
*
  1
*
 70
     0
  1
*
  1
*
  0
XRECORD
  5
3AC
102
{ACAD_REACTORS
330
395
102
}
330
395
100
AcDbXrecord
280
     1
  1
（12）電灯
  1
電-電灯*
  1
*
  1
*
 70
     0
  1
*
  1
*
  0
XRECORD
  5
3AD
102
{ACAD_REACTORS
330
395
102
}
330
395
100
AcDbXrecord
280
     1
  1
(13)空調
  1
電-空調*
  1
*
  1
*
 70
     0
  1
*
  1
*
  0
XRECORD
  5
3AE
102
{ACAD_REACTORS
330
395
102
}
330
395
100
AcDbXrecord
280
     1
  1
（13）空調
  1
電-空調*
  1
*
  1
*
 70
     0
  1
*
  1
*
  0
XRECORD
  5
3AF
102
{ACAD_REACTORS
330
395
102
}
330
395
100
AcDbXrecord
280
     1
  1
（14）航空障害灯
  1
電-航空*
  1
*
  1
*
 70
     0
  1
*
  1
*
  0
XRECORD
  5
3B0
102
{ACAD_REACTORS
330
395
102
}
330
395
100
AcDbXrecord
280
     1
  1
(15)非常照明
  1
電-非常照明*
  1
*
  1
*
 70
     0
  1
*
  1
*
  0
XRECORD
  5
3B1
102
{ACAD_REACTORS
330
395
102
}
330
395
100
AcDbXrecord
280
     1
  1
（15）非常照明
  1
電-非常照明*
  1
*
  1
*
 70
     0
  1
*
  1
*
  0
XRECORD
  5
3B2
102
{ACAD_REACTORS
330
395
102
}
330
395
100
AcDbXrecord
280
     1
  1
（16）誘導灯
  1
電-誘導灯*
  1
*
  1
*
 70
     0
  1
*
  1
*
  0
XRECORD
  5
3B3
102
{ACAD_REACTORS
330
395
102
}
330
395
100
AcDbXrecord
280
     1
  1
(17)電話
  1
電-電話*
  1
*
  1
*
 70
     0
  1
*
  1
*
  0
XRECORD
  5
3B4
102
{ACAD_REACTORS
330
395
102
}
330
395
100
AcDbXrecord
280
     1
  1
（17）電話
  1
電-電話*
  1
*
  1
*
 70
     0
  1
*
  1
*
  0
XRECORD
  5
3B5
102
{ACAD_REACTORS
330
395
102
}
330
395
100
AcDbXrecord
280
     1
  1
(18)情報
  1
電-情報*
  1
*
  1
*
 70
     0
  1
*
  1
*
  0
XRECORD
  5
3B6
102
{ACAD_REACTORS
330
395
102
}
330
395
100
AcDbXrecord
280
     1
  1
（18）情報
  1
電-情報*
  1
*
  1
*
 70
     0
  1
*
  1
*
  0
XRECORD
  5
3B7
102
{ACAD_REACTORS
330
395
102
}
330
395
100
AcDbXrecord
280
     1
  1
(19)ﾃﾚﾋﾞ
  1
電-ﾃﾚﾋﾞ*
  1
*
  1
*
 70
     0
  1
*
  1
*
  0
XRECORD
  5
3B8
102
{ACAD_REACTORS
330
395
102
}
330
395
100
AcDbXrecord
280
     1
  1
（19）ﾃﾚﾋﾞ
  1
電-ﾃﾚﾋﾞ*
  1
*
  1
*
 70
     0
  1
*
  1
*
  0
XRECORD
  5
3B9
102
{ACAD_REACTORS
330
395
102
}
330
395
100
AcDbXrecord
280
     1
  1
(20)防犯
  1
電-防*
  1
*
  1
*
 70
     0
  1
*
  1
*
  0
XRECORD
  5
3BA
102
{ACAD_REACTORS
330
395
102
}
330
395
100
AcDbXrecord
280
     1
  1
（20）防犯
  1
電-防犯*
  1
*
  1
*
 70
     0
  1
*
  1
*
  0
XRECORD
  5
3BB
102
{ACAD_REACTORS
330
395
102
}
330
395
100
AcDbXrecord
280
     1
  1
（21）ITV
  1
電-ITV*
  1
*
  1
*
 70
     0
  1
*
  1
*
  0
XRECORD
  5
3BC
102
{ACAD_REACTORS
330
395
102
}
330
395
100
AcDbXrecord
280
     1
  1
(22)ﾅｰｽｺｰﾙ
  1
電-ﾅｰｽｺｰﾙ*
  1
*
  1
*
 70
     0
  1
*
  1
*
  0
XRECORD
  5
3BD
102
{ACAD_REACTORS
330
395
102
}
330
395
100
AcDbXrecord
280
     1
  1
（22）ﾅｰｽｺｰﾙ
  1
電-ﾅｰｽｺｰﾙ*
  1
*
  1
*
 70
     0
  1
*
  1
*
  0
XRECORD
  5
3BE
102
{ACAD_REACTORS
330
395
102
}
330
395
100
AcDbXrecord
280
     1
  1
（23）外来診察
  1
電-外来診察*
  1
*
  1
*
 70
     0
  1
*
  1
*
  0
XRECORD
  5
3BF
102
{ACAD_REACTORS
330
395
102
}
330
395
100
AcDbXrecord
280
     1
  1
（24）ﾍﾞｯﾄｻｲﾄﾞ
  1
電-ﾍﾞｯﾄｻｲﾄﾞ*
  1
*
  1
*
 70
     0
  1
*
  1
*
  0
XRECORD
  5
3C0
102
{ACAD_REACTORS
330
395
102
}
330
395
100
AcDbXrecord
280
     1
  1
（25）採尿蓄量
  1
電-採尿蓄量*
  1
*
  1
*
 70
     0
  1
*
  1
*
  0
XRECORD
  5
3C1
102
{ACAD_REACTORS
330
395
102
}
330
395
100
AcDbXrecord
280
     1
  1
(26)非常放送
  1
電-非常放送*
  1
*
  1
*
 70
     0
  1
*
  1
*
  0
XRECORD
  5
3C2
102
{ACAD_REACTORS
330
395
102
}
330
395
100
AcDbXrecord
280
     1
  1
（26）非常放送
  1
電-非常放送*
  1
*
  1
*
 70
     0
  1
*
  1
*
  0
XRECORD
  5
3C3
102
{ACAD_REACTORS
330
395
102
}
330
395
100
AcDbXrecord
280
     1
  1
（27）業務放送
  1
電-業務放送*
  1
*
  1
*
 70
     0
  1
*
  1
*
  0
XRECORD
  5
3C4
102
{ACAD_REACTORS
330
395
102
}
330
395
100
AcDbXrecord
280
     1
  1
(28)火報
  1
電-火報*
  1
*
  1
*
 70
     0
  1
*
  1
*
  0
XRECORD
  5
3C5
102
{ACAD_REACTORS
330
395
102
}
330
395
100
AcDbXrecord
280
     1
  1
（28）火報
  1
電-火報*
  1
*
  1
*
 70
     0
  1
*
  1
*
  0
XRECORD
  5
3C6
102
{ACAD_REACTORS
330
395
102
}
330
395
100
AcDbXrecord
280
     1
  1
(29)厨房
  1
電-厨房*
  1
*
  1
*
 70
     0
  1
*
  1
*
  0
XRECORD
  5
3C7
102
{ACAD_REACTORS
330
395
102
}
330
395
100
AcDbXrecord
280
     1
  1
（29）厨房
  1
電-厨房*
  1
*
  1
*
 70
     0
  1
*
  1
*
  0
XRECORD
  5
3C8
102
{ACAD_REACTORS
330
395
102
}
330
395
100
AcDbXrecord
280
     1
  1
､@ｯ・U+56F3
  1
hatch
  1
*
  1
*
 70
     7
  1
*
  1
*
  0
XRECORD
  5
3C9
102
{ACAD_REACTORS
330
395
102
}
330
395
100
AcDbXrecord
280
     1
  1
･画ｼhｪ愠ﾜ
  1
*
  1
*
  1
*
 70
     1
  1
*
  1
*
  0
XRECORD
  5
3CA
102
{ACAD_REACTORS
330
395
102
}
330
395
100
AcDbXrecord
280
     1
  1
0
  1
*0*
  1
*
  1
*
 70
     0
  1
*
  1
*
  0
XRECORD
  5
3CB
102
{ACAD_REACTORS
330
395
102
}
330
395
100
AcDbXrecord
280
     1
  1
0 画層
  1
0*,*.
  1
*
  1
*
 70
     0
  1
*
  1
*
  0
XRECORD
  5
3CC
102
{ACAD_REACTORS
330
395
102
}
330
395
100
AcDbXrecord
280
     1
  1
00
  1
*-100
  1
*
  1
*
 70
     0
  1
*
  1
*
  0
XRECORD
  5
3CD
102
{ACAD_REACTORS
330
395
102
}
330
395
100
AcDbXrecord
280
     1
  1
001
  1
*
  1
*
  1
*
 70
     3
  1
*
  1
*
  0
XRECORD
  5
3CE
102
{ACAD_REACTORS
330
395
102
}
330
395
100
AcDbXrecord
280
     1
  1
01
  1
*
  1
*
  1
*
 70
     0
  1
*
  1
*
  0
XRECORD
  5
3CF
102
{ACAD_REACTORS
330
395
102
}
330
395
100
AcDbXrecord
280
     1
  1
05
  1
*05*
  1
*
  1
*
 70
     0
  1
*
  1
*
  0
XRECORD
  5
3D0
102
{ACAD_REACTORS
330
395
102
}
330
395
100
AcDbXrecord
280
     1
  1
0系
  1
0*
  1
*
  1
*
 70
     0
  1
*
  1
*
  0
XRECORD
  5
3D1
102
{ACAD_REACTORS
330
395
102
}
330
395
100
AcDbXrecord
280
     1
  1
0系+CONTINUOUS
  1
0?*
  1
*
  1
CONTINUOUS
 70
     0
  1
*
  1
*
  0
XRECORD
  5
3D2
102
{ACAD_REACTORS
330
395
102
}
330
395
100
AcDbXrecord
280
     1
  1
0床内
  1
FI-*
  1
*
  1
*
 70
     0
  1
*
  1
*
  0
XRECORD
  5
3D3
102
{ACAD_REACTORS
330
395
102
}
330
395
100
AcDbXrecord
280
     1
  1
0床壁
  1
FW*
  1
*
  1
*
 70
     0
  1
*
  1
*
  0
XRECORD
  5
3D4
102
{ACAD_REACTORS
330
395
102
}
330
395
100
AcDbXrecord
280
     1
  1
0詳細図
  1
*-d
  1
*
  1
*
 70
     0
  1
*
  1
*
  0
XRECORD
  5
3D5
102
{ACAD_REACTORS
330
395
102
}
330
395
100
AcDbXrecord
280
     1
  1
0総合図off
  1
*-s
  1
*
  1
*
 70
     0
  1
*
  1
*
  0
XRECORD
  5
3D6
102
{ACAD_REACTORS
330
395
102
}
330
395
100
AcDbXrecord
280
     1
  1
0総合図枠
  1
*-2
  1
*
  1
*
 70
     0
  1
*
  1
*
  0
XRECORD
  5
3D7
102
{ACAD_REACTORS
330
395
102
}
330
395
100
AcDbXrecord
280
     1
  1
0平詳枠
  1
*-1
  1
*
  1
*
 70
     0
  1
*
  1
*
  0
XRECORD
  5
3D8
102
{ACAD_REACTORS
330
395
102
}
330
395
100
AcDbXrecord
280
     1
  1
1
  1
*
  1
9
  1
*
 70
     0
  1
*
  1
*
  0
XRECORD
  5
3D9
102
{ACAD_REACTORS
330
395
102
}
330
395
100
AcDbXrecord
280
     1
  1
1-30
  1
30*
  1
*
  1
*
 70
     0
  1
*
  1
*
  0
XRECORD
  5
3DA
102
{ACAD_REACTORS
330
395
102
}
330
395
100
AcDbXrecord
280
     1
  1
1-交差点処理図（最新1案）
  1
*交差点処理図（最新1案）*
  1
*
  1
*
 70
     0
  1
*
  1
*
  0
XRECORD
  5
3DB
102
{ACAD_REACTORS
330
395
102
}
330
395
100
AcDbXrecord
280
     1
  1
1／100
  1
*1／100*
  1
*
  1
*
 70
     0
  1
*
  1
*
  0
XRECORD
  5
3DC
102
{ACAD_REACTORS
330
395
102
}
330
395
100
AcDbXrecord
280
     1
  1
100
  1
*100*
  1
*
  1
*
 70
     0
  1
*
  1
*
  0
XRECORD
  5
3DD
102
{ACAD_REACTORS
330
395
102
}
330
395
100
AcDbXrecord
280
     1
  1
10画層
  1
*-10
  1
*
  1
*
 70
     0
  1
*
  1
*
  0
XRECORD
  5
3DE
102
{ACAD_REACTORS
330
395
102
}
330
395
100
AcDbXrecord
280
     1
  1
1111
  1
*-50
  1
*
  1
*
 70
     0
  1
*
  1
*
  0
XRECORD
  5
3DF
102
{ACAD_REACTORS
330
395
102
}
330
395
100
AcDbXrecord
280
     1
  1
12
  1
*
  1
*12
  1
*
 70
     0
  1
*
  1
*
  0
XRECORD
  5
3E0
102
{ACAD_REACTORS
330
395
102
}
330
395
100
AcDbXrecord
280
     1
  1
19
  1
*19*
  1
*
  1
*
 70
     0
  1
*
  1
*
  0
XRECORD
  5
3E1
102
{ACAD_REACTORS
330
395
102
}
330
395
100
AcDbXrecord
280
     1
  1
1床
  1
F-*
  1
*
  1
*
 70
     0
  1
*
  1
*
  0
XRECORD
  5
3E2
102
{ACAD_REACTORS
330
395
102
}
330
395
100
AcDbXrecord
280
     1
  1
1芯
  1
1*
  1
*
  1
*
 70
     0
  1
*
  1
*
  0
XRECORD
  5
3E3
102
{ACAD_REACTORS
330
395
102
}
330
395
100
AcDbXrecord
280
     1
  1
1芯線
  1
1*
  1
*
  1
*
 70
     0
  1
*
  1
*
  0
XRECORD
  5
3E4
102
{ACAD_REACTORS
330
395
102
}
330
395
100
AcDbXrecord
280
     1
  1
2
  1
*2
  1
*
  1
*
 70
     0
  1
*
  1
*
  0
XRECORD
  5
3E5
102
{ACAD_REACTORS
330
395
102
}
330
395
100
AcDbXrecord
280
     1
  1
2-線形図1
  1
*線形図1*
  1
*
  1
*
 70
     0
  1
*
  1
*
  0
XRECORD
  5
3E6
102
{ACAD_REACTORS
330
395
102
}
330
395
100
AcDbXrecord
280
     1
  1
200
  1
*
  1
*
  1
*
 70
     0
  1
*
  1
*
  0
XRECORD
  5
3E7
102
{ACAD_REACTORS
330
395
102
}
330
395
100
AcDbXrecord
280
     1
  1
21
  1
*
  1
21
  1
*
 70
     0
  1
*
  1
*
  0
XRECORD
  5
3E8
102
{ACAD_REACTORS
330
395
102
}
330
395
100
AcDbXrecord
280
     1
  1
2100
  1
*2100*
  1
*
  1
*
 70
     0
  1
*
  1
*
  0
XRECORD
  5
3E9
102
{ACAD_REACTORS
330
395
102
}
330
395
100
AcDbXrecord
280
     1
  1
250
  1
*250*
  1
*
  1
*
 70
     0
  1
*
  1
*
  0
XRECORD
  5
3EA
102
{ACAD_REACTORS
330
395
102
}
330
395
100
AcDbXrecord
280
     1
  1
2600
  1
*2600*
  1
*
  1
*
 70
     0
  1
*
  1
*
  0
XRECORD
  5
3EB
102
{ACAD_REACTORS
330
395
102
}
330
395
100
AcDbXrecord
280
     1
  1
2f
  1
a*
  1
*
  1
*
 70
     0
  1
*
  1
*
  0
XRECORD
  5
3EC
102
{ACAD_REACTORS
330
395
102
}
330
395
100
AcDbXrecord
280
     1
  1
2躯体
  1
2*
  1
*
  1
*
 70
     0
  1
*
  1
*
  0
XRECORD
  5
3ED
102
{ACAD_REACTORS
330
395
102
}
330
395
100
AcDbXrecord
280
     1
  1
2断面
  1
2*
  1
*
  1
*
 70
     0
  1
*
  1
*
  0
XRECORD
  5
3EE
102
{ACAD_REACTORS
330
395
102
}
330
395
100
AcDbXrecord
280
     1
  1
2壁
  1
W-*
  1
*
  1
*
 70
     0
  1
*
  1
*
  0
XRECORD
  5
3EF
102
{ACAD_REACTORS
330
395
102
}
330
395
100
AcDbXrecord
280
     1
  1
3
  1
*
  1
3
  1
*
 70
     0
  1
*
  1
*
  0
XRECORD
  5
3F0
102
{ACAD_REACTORS
330
395
102
}
330
395
100
AcDbXrecord
280
     1
  1
3-線形図2
  1
*線形図2*
  1
*
  1
*
 70
     0
  1
*
  1
*
  0
XRECORD
  5
3F1
102
{ACAD_REACTORS
330
395
102
}
330
395
100
AcDbXrecord
280
     1
  1
300
  1
*-3
  1
*
  1
*
 70
     0
  1
*
  1
*
  0
XRECORD
  5
3F2
102
{ACAD_REACTORS
330
395
102
}
330
395
100
AcDbXrecord
280
     1
  1
32
  1
*
  1
32
  1
*
 70
     0
  1
*
  1
*
  0
XRECORD
  5
3F3
102
{ACAD_REACTORS
330
395
102
}
330
395
100
AcDbXrecord
280
     1
  1
333
  1
*
  1
*
  1
*
 70
    12
  1
*
  1
*
  0
XRECORD
  5
3F4
102
{ACAD_REACTORS
330
395
102
}
330
395
100
AcDbXrecord
280
     1
  1
3A
  1
*-3A
  1
*
  1
*
 70
     0
  1
*
  1
*
  0
XRECORD
  5
3F5
102
{ACAD_REACTORS
330
395
102
}
330
395
100
AcDbXrecord
280
     1
  1
3開口
  1
3*
  1
*
  1
*
 70
     0
  1
*
  1
*
  0
XRECORD
  5
3F6
102
{ACAD_REACTORS
330
395
102
}
330
395
100
AcDbXrecord
280
     1
  1
3見掛り
  1
3*
  1
*
  1
*
 70
     0
  1
*
  1
*
  0
XRECORD
  5
3F7
102
{ACAD_REACTORS
330
395
102
}
330
395
100
AcDbXrecord
280
     1
  1
3天井内
  1
CI-*
  1
*
  1
*
 70
     0
  1
*
  1
*
  0
XRECORD
  5
3F8
102
{ACAD_REACTORS
330
395
102
}
330
395
100
AcDbXrecord
280
     1
  1
4
  1
*
  1
4
  1
*
 70
     0
  1
*
  1
*
  0
XRECORD
  5
3F9
102
{ACAD_REACTORS
330
395
102
}
330
395
100
AcDbXrecord
280
     1
  1
41
  1
41
  1
*
  1
*
 70
     1
  1
*
  1
*
  0
XRECORD
  5
3FA
102
{ACAD_REACTORS
330
395
102
}
330
395
100
AcDbXrecord
280
     1
  1
4仕上げ
  1
4*
  1
*
  1
*
 70
     0
  1
*
  1
*
  0
XRECORD
  5
3FB
102
{ACAD_REACTORS
330
395
102
}
330
395
100
AcDbXrecord
280
     1
  1
4天井
  1
C-*
  1
*
  1
*
 70
     0
  1
*
  1
*
  0
XRECORD
  5
3FC
102
{ACAD_REACTORS
330
395
102
}
330
395
100
AcDbXrecord
280
     1
  1
5
  1
*5
  1
*
  1
*
 70
     1
  1
*
  1
*
  0
XRECORD
  5
3FD
102
{ACAD_REACTORS
330
395
102
}
330
395
100
AcDbXrecord
280
     1
  1
50
  1
*-50
  1
*
  1
*
 70
     0
  1
*
  1
*
  0
XRECORD
  5
3FE
102
{ACAD_REACTORS
330
395
102
}
330
395
100
AcDbXrecord
280
     1
  1
50off
  1
50*
  1
*
  1
*
 70
     0
  1
*
  1
*
  0
XRECORD
  5
3FF
102
{ACAD_REACTORS
330
395
102
}
330
395
100
AcDbXrecord
280
     1
  1
50詳細図
  1
*
  1
*
  1
*
 70
     0
  1
*
  1
*
  0
XRECORD
  5
400
102
{ACAD_REACTORS
330
395
102
}
330
395
100
AcDbXrecord
280
     1
  1
51-52
  1
5*
  1
*
  1
*
 70
     0
  1
*
  1
*
  0
XRECORD
  5
401
102
{ACAD_REACTORS
330
395
102
}
330
395
100
AcDbXrecord
280
     1
  1
555
  1
*
  1
*
  1
*
 70
     1
  1
*
  1
*
  0
XRECORD
  5
402
102
{ACAD_REACTORS
330
395
102
}
330
395
100
AcDbXrecord
280
     1
  1
5画層
  1
*-5
  1
*
  1
*
 70
     0
  1
*
  1
*
  0
XRECORD
  5
403
102
{ACAD_REACTORS
330
395
102
}
330
395
100
AcDbXrecord
280
     1
  1
5寸法
  1
5*
  1
*
  1
*
 70
     0
  1
*
  1
*
  0
XRECORD
  5
404
102
{ACAD_REACTORS
330
395
102
}
330
395
100
AcDbXrecord
280
     1
  1
5文字
  1
*TXT*
  1
*
  1
*
 70
     0
  1
*
  1
*
  0
XRECORD
  5
405
102
{ACAD_REACTORS
330
395
102
}
330
395
100
AcDbXrecord
280
     1
  1
6
  1
*
  1
6
  1
*
 70
     0
  1
*
  1
*
  0
XRECORD
  5
406
102
{ACAD_REACTORS
330
395
102
}
330
395
100
AcDbXrecord
280
     1
  1
66-躯体図
  1
0,Defpoints,HOJO,雲マーク,000*,010*,020*,1*,400*,470*,520*,570*,08*
  1
*
  1
*
 70
     0
  1
*
  1
*
  0
XRECORD
  5
407
102
{ACAD_REACTORS
330
395
102
}
330
395
100
AcDbXrecord
280
     1
  1
66躯体図
  1
0,Defpoints,HOJO,雲マーク,000*,010*,020*,1*,400*,470*,520*,570*,08*,6*
  1
*
  1
*
 70
     0
  1
*
  1
*
  0
XRECORD
  5
408
102
{ACAD_REACTORS
330
395
102
}
330
395
100
AcDbXrecord
280
     1
  1
6画層
  1
*-6
  1
*
  1
*
 70
     0
  1
*
  1
*
  0
XRECORD
  5
409
102
{ACAD_REACTORS
330
395
102
}
330
395
100
AcDbXrecord
280
     1
  1
6記号
  1
6*
  1
*
  1
*
 70
     0
  1
*
  1
*
  0
XRECORD
  5
40A
102
{ACAD_REACTORS
330
395
102
}
330
395
100
AcDbXrecord
280
     1
  1
6文字
  1
6*
  1
*
  1
*
 70
     0
  1
*
  1
*
  0
XRECORD
  5
40B
102
{ACAD_REACTORS
330
395
102
}
330
395
100
AcDbXrecord
280
     1
  1
6保留
  1
*_a
  1
*
  1
*
 70
     0
  1
*
  1
*
  0
XRECORD
  5
40C
102
{ACAD_REACTORS
330
395
102
}
330
395
100
AcDbXrecord
280
     1
  1
7
  1
*
  1
7
  1
*
 70
     0
  1
*
  1
*
  0
XRECORD
  5
40D
102
{ACAD_REACTORS
330
395
102
}
330
395
100
AcDbXrecord
280
     1
  1
7-専用部北行
  1
80*,90*,A0*,B0*,
  1
*
  1
*
 70
     0
  1
*
  1
*
  0
XRECORD
  5
40E
102
{ACAD_REACTORS
330
395
102
}
330
395
100
AcDbXrecord
280
     1
  1
7a画層
  1
*-7a
  1
*
  1
*
 70
     0
  1
*
  1
*
  0
XRECORD
  5
40F
102
{ACAD_REACTORS
330
395
102
}
330
395
100
AcDbXrecord
280
     1
  1
7記号
  1
7*
  1
*
  1
*
 70
     0
  1
*
  1
*
  0
XRECORD
  5
410
102
{ACAD_REACTORS
330
395
102
}
330
395
100
AcDbXrecord
280
     1
  1
8
  1
*
  1
8
  1
*
 70
     0
  1
*
  1
*
  0
XRECORD
  5
411
102
{ACAD_REACTORS
330
395
102
}
330
395
100
AcDbXrecord
280
     1
  1
8-ONﾗﾝﾌﾟ
  1
70*,90*,A0*,B0*,
  1
*
  1
*
 70
     0
  1
*
  1
*
  0
XRECORD
  5
412
102
{ACAD_REACTORS
330
395
102
}
330
395
100
AcDbXrecord
280
     1
  1
8寸法
  1
8*
  1
*
  1
*
 70
     0
  1
*
  1
*
  0
XRECORD
  5
413
102
{ACAD_REACTORS
330
395
102
}
330
395
100
AcDbXrecord
280
     1
  1
8設備
  1
8*
  1
*
  1
*
 70
     0
  1
*
  1
*
  0
XRECORD
  5
414
102
{ACAD_REACTORS
330
395
102
}
330
395
100
AcDbXrecord
280
     1
  1
9
  1
*
  1
9
  1
*
 70
     0
  1
*
  1
*
  0
XRECORD
  5
415
102
{ACAD_REACTORS
330
395
102
}
330
395
100
AcDbXrecord
280
     1
  1
9-OFFﾗﾝﾌﾟ
  1
70*,80*,A0*B0*,
  1
*
  1
*
 70
     0
  1
*
  1
*
  0
XRECORD
  5
416
102
{ACAD_REACTORS
330
395
102
}
330
395
100
AcDbXrecord
280
     1
  1
901101
  1
*
  1
*
  1
*
 70
     0
  1
*
  1
*
  0
XRECORD
  5
417
102
{ACAD_REACTORS
330
395
102
}
330
395
100
AcDbXrecord
280
     1
  1
9文字
  1
9*
  1
*
  1
*
 70
     0
  1
*
  1
*
  0
XRECORD
  5
418
102
{ACAD_REACTORS
330
395
102
}
330
395
100
AcDbXrecord
280
     1
  1
9目地
  1
9*
  1
*
  1
*
 70
     0
  1
*
  1
*
  0
XRECORD
  5
419
102
{ACAD_REACTORS
330
395
102
}
330
395
100
AcDbXrecord
280
     1
  1
a
  1
*81,*82,*80,7212*,7213*,7211*
  1
*
  1
*
 70
     0
  1
*
  1
*
  0
XRECORD
  5
41A
102
{ACAD_REACTORS
330
395
102
}
330
395
100
AcDbXrecord
280
     1
  1
A-
  1
A-*
  1
*
  1
*
 70
     0
  1
*
  1
*
  0
XRECORD
  5
41B
102
{ACAD_REACTORS
330
395
102
}
330
395
100
AcDbXrecord
280
     1
  1
a-roof
  1
a-roof*
  1
*
  1
*
 70
     0
  1
*
  1
*
  0
XRECORD
  5
41C
102
{ACAD_REACTORS
330
395
102
}
330
395
100
AcDbXrecord
280
     1
  1
A 画層
  1
A*,*.
  1
*
  1
*
 70
     0
  1
*
  1
*
  0
XRECORD
  5
41D
102
{ACAD_REACTORS
330
395
102
}
330
395
100
AcDbXrecord
280
     1
  1
A3
  1
*A3
  1
*
  1
*
 70
     0
  1
*
  1
*
  0
XRECORD
  5
41E
102
{ACAD_REACTORS
330
395
102
}
330
395
100
AcDbXrecord
280
     1
  1
aa
  1
4262*
  1
*
  1
*
 70
     0
  1
*
  1
*
  0
XRECORD
  5
41F
102
{ACAD_REACTORS
330
395
102
}
330
395
100
AcDbXrecord
280
     1
  1
aaa
  1
*
  1
?
  1
*
 70
     0
  1
*
  1
*
  0
XRECORD
  5
420
102
{ACAD_REACTORS
330
395
102
}
330
395
100
AcDbXrecord
280
     1
  1
AAAA
  1
*KEL,*FIN,HASIRA
  1
*
  1
*
 70
     0
  1
*
  1
*
  0
XRECORD
  5
421
102
{ACAD_REACTORS
330
395
102
}
330
395
100
AcDbXrecord
280
     1
  1
AB棟
  1
ＡＢ棟*
  1
*
  1
*
 70
     0
  1
*
  1
*
  0
XRECORD
  5
422
102
{ACAD_REACTORS
330
395
102
}
330
395
100
AcDbXrecord
280
     1
  1
ＡＢ棟
  1
ＡＢ棟*
  1
*
  1
*
 70
     0
  1
*
  1
*
  0
XRECORD
  5
423
102
{ACAD_REACTORS
330
395
102
}
330
395
100
AcDbXrecord
280
     1
  1
all選択
  1
*
  1
*
  1
*
 70
     0
  1
*
  1
*
  0
XRECORD
  5
424
102
{ACAD_REACTORS
330
395
102
}
330
395
100
AcDbXrecord
280
     1
  1
AREA
  1
*AREA*
  1
*
  1
*
 70
     0
  1
*
  1
*
  0
XRECORD
  5
425
102
{ACAD_REACTORS
330
395
102
}
330
395
100
AcDbXrecord
280
     1
  1
AREA-SG
  1
*6AREA-SG
  1
6
  1
*
 70
     0
  1
*
  1
*
  0
XRECORD
  5
426
102
{ACAD_REACTORS
330
395
102
}
330
395
100
AcDbXrecord
280
     1
  1
ASDFCA
  1
846304*
  1
*
  1
*
 70
     0
  1
*
  1
*
  0
XRECORD
  5
427
102
{ACAD_REACTORS
330
395
102
}
330
395
100
AcDbXrecord
280
     1
  1
aハッチング
  1
a*
  1
*
  1
*
 70
     0
  1
*
  1
*
  0
XRECORD
  5
428
102
{ACAD_REACTORS
330
395
102
}
330
395
100
AcDbXrecord
280
     1
  1
A空調
  1
*
  1
*
  1
*
 70
     0
  1
*
  1
KUCYOU
  0
XRECORD
  5
429
102
{ACAD_REACTORS
330
395
102
}
330
395
100
AcDbXrecord
280
     1
  1
Ａ断面
  1
DSTD_SECT-A*
  1
*
  1
*
 70
     0
  1
*
  1
*
  0
XRECORD
  5
42A
102
{ACAD_REACTORS
330
395
102
}
330
395
100
AcDbXrecord
280
     1
  1
b
  1
15法規
  1
120
  1
*
 70
     3
  1
*
  1
*
  0
XRECORD
  5
42B
102
{ACAD_REACTORS
330
395
102
}
330
395
100
AcDbXrecord
280
     1
  1
B 画層
  1
B*,*.
  1
*
  1
*
 70
     0
  1
*
  1
*
  0
XRECORD
  5
42C
102
{ACAD_REACTORS
330
395
102
}
330
395
100
AcDbXrecord
280
     1
  1
BAL
  1
*BAL
  1
*
  1
*
 70
     0
  1
*
  1
*
  0
XRECORD
  5
42D
102
{ACAD_REACTORS
330
395
102
}
330
395
100
AcDbXrecord
280
     1
  1
BASE
  1
*I4BASE
  1
*
  1
*
 70
     0
  1
*
  1
*
  0
XRECORD
  5
42E
102
{ACAD_REACTORS
330
395
102
}
330
395
100
AcDbXrecord
280
     1
  1
BBB
  1
*HUTA
  1
*
  1
*
 70
     0
  1
*
  1
*
  0
XRECORD
  5
42F
102
{ACAD_REACTORS
330
395
102
}
330
395
100
AcDbXrecord
280
     1
  1
blue
  1
*
  1
blue
  1
*
 70
     0
  1
*
  1
*
  0
XRECORD
  5
430
102
{ACAD_REACTORS
330
395
102
}
330
395
100
AcDbXrecord
280
     1
  1
BOR
  1
*
  1
*
  1
*
 70
     0
  1
*
  1
*
  0
XRECORD
  5
431
102
{ACAD_REACTORS
330
395
102
}
330
395
100
AcDbXrecord
280
     1
  1
b階段
  1
b*
  1
*
  1
*
 70
     0
  1
*
  1
*
  0
XRECORD
  5
432
102
{ACAD_REACTORS
330
395
102
}
330
395
100
AcDbXrecord
280
     1
  1
Ｂ断面
  1
DSTD_SECT-B*
  1
*
  1
*
 70
     0
  1
*
  1
*
  0
XRECORD
  5
433
102
{ACAD_REACTORS
330
395
102
}
330
395
100
AcDbXrecord
280
     1
  1
B電気
  1
*
  1
*
  1
*
 70
     0
  1
*
  1
DENKI
  0
XRECORD
  5
434
102
{ACAD_REACTORS
330
395
102
}
330
395
100
AcDbXrecord
280
     1
  1
B北
  1
*B北*
  1
*
  1
*
 70
     0
  1
*
  1
*
  0
XRECORD
  5
435
102
{ACAD_REACTORS
330
395
102
}
330
395
100
AcDbXrecord
280
     1
  1
c
  1
c*
  1
*
  1
*
 70
    61
  1
*
  1
*
  0
XRECORD
  5
436
102
{ACAD_REACTORS
330
395
102
}
330
395
100
AcDbXrecord
280
     1
  1
c-block
  1
c-*
  1
*
  1
*
 70
     0
  1
*
  1
*
  0
XRECORD
  5
437
102
{ACAD_REACTORS
330
395
102
}
330
395
100
AcDbXrecord
280
     1
  1
c-block-2
  1
c-*
  1
*
  1
*
 70
  1024
  1
*
  1
*
  0
XRECORD
  5
438
102
{ACAD_REACTORS
330
395
102
}
330
395
100
AcDbXrecord
280
     1
  1
caa001
  1
*
  1
*
  1
*
 70
     0
  1
*
  1
*
  0
XRECORD
  5
439
102
{ACAD_REACTORS
330
395
102
}
330
395
100
AcDbXrecord
280
     1
  1
CABINETRY
  1
*CAB*
  1
*
  1
*
 70
     0
  1
*
  1
*
  0
XRECORD
  5
43A
102
{ACAD_REACTORS
330
395
102
}
330
395
100
AcDbXrecord
280
     1
  1
cap-0
  1
*
  1
*
  1
*
 70
     0
  1
*
  1
*
  0
XRECORD
  5
43B
102
{ACAD_REACTORS
330
395
102
}
330
395
100
AcDbXrecord
280
     1
  1
CASTellano
  1
A-*
  1
*
  1
*
 70
     0
  1
*
  1
*
  0
XRECORD
  5
43C
102
{ACAD_REACTORS
330
395
102
}
330
395
100
AcDbXrecord
280
     1
  1
cc
  1
*
  1
*
  1
*
 70
     0
  1
*
  1
*
  0
XRECORD
  5
43D
102
{ACAD_REACTORS
330
395
102
}
330
395
100
AcDbXrecord
280
     1
  1
CCC
  1
*45
  1
*
  1
*
 70
     0
  1
*
  1
*
  0
XRECORD
  5
43E
102
{ACAD_REACTORS
330
395
102
}
330
395
100
AcDbXrecord
280
     1
  1
ＣＤ棟
  1
T15-*
  1
*
  1
*
 70
     0
  1
*
  1
*
  0
XRECORD
  5
43F
102
{ACAD_REACTORS
330
395
102
}
330
395
100
AcDbXrecord
280
     1
  1
ceiling
  1
*-c
  1
*
  1
*
 70
     0
  1
*
  1
*
  0
XRECORD
  5
440
102
{ACAD_REACTORS
330
395
102
}
330
395
100
AcDbXrecord
280
     1
  1
CENTER
  1
*
  1
*
  1
*
 70
     0
  1
*
  1
*
  0
XRECORD
  5
441
102
{ACAD_REACTORS
330
395
102
}
330
395
100
AcDbXrecord
280
     1
  1
che
  1
che*
  1
*
  1
*
 70
     0
  1
*
  1
*
  0
XRECORD
  5
442
102
{ACAD_REACTORS
330
395
102
}
330
395
100
AcDbXrecord
280
     1
  1
com
  1
com*
  1
*
  1
*
 70
     0
  1
*
  1
*
  0
XRECORD
  5
443
102
{ACAD_REACTORS
330
395
102
}
330
395
100
AcDbXrecord
280
     1
  1
conotur
  1
*_*
  1
*
  1
*
 70
     0
  1
*
  1
*
  0
XRECORD
  5
444
102
{ACAD_REACTORS
330
395
102
}
330
395
100
AcDbXrecord
280
     1
  1
CONTI系
  1
*
  1
*
  1
CONTINUOUS
 70
     0
  1
*
  1
*
  0
XRECORD
  5
445
102
{ACAD_REACTORS
330
395
102
}
330
395
100
AcDbXrecord
280
     1
  1
contour
  1
*_*
  1
*
  1
*
 70
     0
  1
*
  1
*
  0
XRECORD
  5
446
102
{ACAD_REACTORS
330
395
102
}
330
395
100
AcDbXrecord
280
     1
  1
conveyors
  1
*conv*
  1
*
  1
*
 70
     0
  1
*
  1
*
  0
XRECORD
  5
447
102
{ACAD_REACTORS
330
395
102
}
330
395
100
AcDbXrecord
280
     1
  1
cyan
  1
*
  1
cyan
  1
*
 70
     0
  1
*
  1
*
  0
XRECORD
  5
448
102
{ACAD_REACTORS
330
395
102
}
330
395
100
AcDbXrecord
280
     1
  1
C衛生
  1
*
  1
*
  1
*
 70
     0
  1
*
  1
EISEI
  0
XRECORD
  5
449
102
{ACAD_REACTORS
330
395
102
}
330
395
100
AcDbXrecord
280
     1
  1
C街区関連
  1
*
  1
*
  1
*
 70
  1024
  1
*
  1
*
  0
XRECORD
  5
44A
102
{ACAD_REACTORS
330
395
102
}
330
395
100
AcDbXrecord
280
     1
  1
c雑金物
  1
c*
  1
*
  1
*
 70
     0
  1
*
  1
*
  0
XRECORD
  5
44B
102
{ACAD_REACTORS
330
395
102
}
330
395
100
AcDbXrecord
280
     1
  1
C打計画図
  1
001*,002*,003*,004*,005*,007*,012*,015*,016*,017*,018*,019*,020*,021*,049*,050*,051*,052*,053*,054*,055*,056*,057*,058*,059*,060*,061*,062*,063*,064*,065*,066*,067*,068*,069*,070*,071*,072*,073*,074*,075*
  1
*
  1
*
 70
     0
  1
*
  1
*
  0
XRECORD
  5
44C
102
{ACAD_REACTORS
330
395
102
}
330
395
100
AcDbXrecord
280
     1
  1
Ｃ断面
  1
DSTD_SECT-C*
  1
*
  1
*
 70
     0
  1
*
  1
*
  0
XRECORD
  5
44D
102
{ACAD_REACTORS
330
395
102
}
330
395
100
AcDbXrecord
280
     1
  1
C棟R部
  1
cr*
  1
*
  1
*
 70
     0
  1
*
  1
*
  0
XRECORD
  5
44E
102
{ACAD_REACTORS
330
395
102
}
330
395
100
AcDbXrecord
280
     1
  1
DASHED
  1
*
  1
*
  1
DASHED
 70
     0
  1
*
  1
*
  0
XRECORD
  5
44F
102
{ACAD_REACTORS
330
395
102
}
330
395
100
AcDbXrecord
280
     1
  1
DASHED2
  1
*
  1
*
  1
DASHED
 70
     0
  1
*
  1
*
  0
XRECORD
  5
450
102
{ACAD_REACTORS
330
395
102
}
330
395
100
AcDbXrecord
280
     1
  1
DDD
  1
*LIN-M
  1
*
  1
*
 70
     0
  1
*
  1
*
  0
XRECORD
  5
451
102
{ACAD_REACTORS
330
395
102
}
330
395
100
AcDbXrecord
280
     1
  1
DEF
  1
DE*
  1
*
  1
*
 70
     0
  1
*
  1
*
  0
XRECORD
  5
452
102
{ACAD_REACTORS
330
395
102
}
330
395
100
AcDbXrecord
280
     1
  1
DENKI
  1
*
  1
*
  1
*
 70
     0
  1
*
  1
*
  0
XRECORD
  5
453
102
{ACAD_REACTORS
330
395
102
}
330
395
100
AcDbXrecord
280
     1
  1
DIM
  1
*DIM*
  1
*
  1
*
 70
     0
  1
*
  1
*
  0
XRECORD
  5
454
102
{ACAD_REACTORS
330
395
102
}
330
395
100
AcDbXrecord
280
     1
  1
DOORS
  1
*ADO*
  1
*
  1
*
 70
     0
  1
*
  1
*
  0
XRECORD
  5
455
102
{ACAD_REACTORS
330
395
102
}
330
395
100
AcDbXrecord
280
     1
  1
drain
  1
ar-dr*
  1
*
  1
*
 70
     0
  1
*
  1
*
  0
XRECORD
  5
456
102
{ACAD_REACTORS
330
395
102
}
330
395
100
AcDbXrecord
280
     1
  1
Drow1
  1
*
  1
*
  1
*
 70
     0
  1
*
  1
*
  0
XRECORD
  5
457
102
{ACAD_REACTORS
330
395
102
}
330
395
100
AcDbXrecord
280
     1
  1
d外構
  1
d*
  1
*
  1
*
 70
     0
  1
*
  1
*
  0
XRECORD
  5
458
102
{ACAD_REACTORS
330
395
102
}
330
395
100
AcDbXrecord
280
     1
  1
E
  1
*
  1
*
  1
*
 70
     0
  1
*
  1
*
  0
XRECORD
  5
459
102
{ACAD_REACTORS
330
395
102
}
330
395
100
AcDbXrecord
280
     1
  1
E 画層
  1
E*,*.
  1
*
  1
*
 70
     0
  1
*
  1
*
  0
XRECORD
  5
45A
102
{ACAD_REACTORS
330
395
102
}
330
395
100
AcDbXrecord
280
     1
  1
EEEE
  1
*
  1
*
  1
*
 70
  1804
  1
*
  1
*
  0
XRECORD
  5
45B
102
{ACAD_REACTORS
330
395
102
}
330
395
100
AcDbXrecord
280
     1
  1
EISEI
  1
*4EISEI
  1
4
  1
*
 70
     0
  1
*
  1
*
  0
XRECORD
  5
45C
102
{ACAD_REACTORS
330
395
102
}
330
395
100
AcDbXrecord
280
     1
  1
EL
  1
ＥＬ??8m
  1
*
  1
*
 70
     0
  1
*
  1
*
  0
XRECORD
  5
45D
102
{ACAD_REACTORS
330
395
102
}
330
395
100
AcDbXrecord
280
     1
  1
ＥＬ３ｍ
  1
ＥＬ*3m
  1
*
  1
*
 70
     0
  1
*
  1
*
  0
XRECORD
  5
45E
102
{ACAD_REACTORS
330
395
102
}
330
395
100
AcDbXrecord
280
     1
  1
ＥＬ8ｍ
  1
ＥＬ*8m
  1
*
  1
*
 70
     0
  1
*
  1
*
  0
XRECORD
  5
45F
102
{ACAD_REACTORS
330
395
102
}
330
395
100
AcDbXrecord
280
     1
  1
ele
  1
ele*
  1
*
  1
*
 70
     0
  1
*
  1
*
  0
XRECORD
  5
460
102
{ACAD_REACTORS
330
395
102
}
330
395
100
AcDbXrecord
280
     1
  1
ELECTRICAL
  1
E*
  1
*
  1
*
 70
     0
  1
*
  1
*
  0
XRECORD
  5
461
102
{ACAD_REACTORS
330
395
102
}
330
395
100
AcDbXrecord
280
     1
  1
ERAS1F
  1
*2ERAS1F
  1
*
  1
*
 70
     0
  1
*
  1
*
  0
XRECORD
  5
462
102
{ACAD_REACTORS
330
395
102
}
330
395
100
AcDbXrecord
280
     1
  1
exterior
  1
*-x
  1
*
  1
*
 70
     0
  1
*
  1
*
  0
XRECORD
  5
463
102
{ACAD_REACTORS
330
395
102
}
330
395
100
AcDbXrecord
280
     1
  1
E南
  1
*E*南*
  1
*
  1
*
 70
     0
  1
*
  1
*
  0
XRECORD
  5
464
102
{ACAD_REACTORS
330
395
102
}
330
395
100
AcDbXrecord
280
     1
  1
F
  1
*
  1
*
  1
*
 70
     4
  1
*
  1
*
  0
XRECORD
  5
465
102
{ACAD_REACTORS
330
395
102
}
330
395
100
AcDbXrecord
280
     1
  1
feaze
  1
*
  1
*
  1
*
 70
     5
  1
*
  1
*
  0
XRECORD
  5
466
102
{ACAD_REACTORS
330
395
102
}
330
395
100
AcDbXrecord
280
     1
  1
FF
  1
*
  1
*
  1
*
 70
     4
  1
*
  1
*
  0
XRECORD
  5
467
102
{ACAD_REACTORS
330
395
102
}
330
395
100
AcDbXrecord
280
     1
  1
FLOW
  1
FLOW*
  1
*
  1
*
 70
     0
  1
*
  1
*
  0
XRECORD
  5
468
102
{ACAD_REACTORS
330
395
102
}
330
395
100
AcDbXrecord
280
     1
  1
Frame
  1
F*
  1
*
  1
*
 70
     0
  1
*
  1
*
  0
XRECORD
  5
469
102
{ACAD_REACTORS
330
395
102
}
330
395
100
AcDbXrecord
280
     1
  1
freaze
  1
*
  1
*
  1
*
 70
     4
  1
*
  1
*
  0
XRECORD
  5
46A
102
{ACAD_REACTORS
330
395
102
}
330
395
100
AcDbXrecord
280
     1
  1
freeze
  1
*
  1
*
  1
*
 70
    12
  1
*
  1
*
  0
XRECORD
  5
46B
102
{ACAD_REACTORS
330
395
102
}
330
395
100
AcDbXrecord
280
     1
  1
Frozen
  1
*
  1
*
  1
*
 70
     4
  1
*
  1
*
  0
XRECORD
  5
46C
102
{ACAD_REACTORS
330
395
102
}
330
395
100
AcDbXrecord
280
     1
  1
Fugou
  1
*-Fugou*
  1
*
  1
*
 70
     0
  1
*
  1
*
  0
XRECORD
  5
46D
102
{ACAD_REACTORS
330
395
102
}
330
395
100
AcDbXrecord
280
     1
  1
FUKI
  1
*FUKI
  1
*
  1
*
 70
     0
  1
*
  1
*
  0
XRECORD
  5
46E
102
{ACAD_REACTORS
330
395
102
}
330
395
100
AcDbXrecord
280
     1
  1
FUSE_00
  1
*
  1
*
  1
*
 70
     0
  1
*
  1
*
  0
XRECORD
  5
46F
102
{ACAD_REACTORS
330
395
102
}
330
395
100
AcDbXrecord
280
     1
  1
G
  1
*-G*
  1
*
  1
*
 70
     0
  1
*
  1
*
  0
XRECORD
  5
470
102
{ACAD_REACTORS
330
395
102
}
330
395
100
AcDbXrecord
280
     1
  1
GAIKOU
  1
*-L
  1
*
  1
*
 70
     0
  1
*
  1
*
  0
XRECORD
  5
471
102
{ACAD_REACTORS
330
395
102
}
330
395
100
AcDbXrecord
280
     1
  1
gasline
  1
*
  1
*
  1
*
 70
     0
  1
*
  1
*
  0
XRECORD
  5
472
102
{ACAD_REACTORS
330
395
102
}
330
395
100
AcDbXrecord
280
     1
  1
GLAZING
  1
*GL*
  1
*
  1
*
 70
     0
  1
*
  1
*
  0
XRECORD
  5
473
102
{ACAD_REACTORS
330
395
102
}
330
395
100
AcDbXrecord
280
     1
  1
green
  1
*
  1
green
  1
*
 70
     0
  1
*
  1
*
  0
XRECORD
  5
474
102
{ACAD_REACTORS
330
395
102
}
330
395
100
AcDbXrecord
280
     1
  1
GRID
  1
G*
  1
*
  1
*
 70
     0
  1
*
  1
*
  0
XRECORD
  5
475
102
{ACAD_REACTORS
330
395
102
}
330
395
100
AcDbXrecord
280
     1
  1
H
  1
00*,01*,02*,03*,05*,06*,1*,2*,3*,4*,5*,6*,8*,
  1
*
  1
*
 70
     0
  1
*
  1
*
  0
XRECORD
  5
476
102
{ACAD_REACTORS
330
395
102
}
330
395
100
AcDbXrecord
280
     1
  1
H 画層
  1
H*,*.
  1
*
  1
*
 70
     0
  1
*
  1
*
  0
XRECORD
  5
477
102
{ACAD_REACTORS
330
395
102
}
330
395
100
AcDbXrecord
280
     1
  1
HAISEN
  1
*1,HAISEN
  1
*
  1
*
 70
     0
  1
*
  1
*
  0
XRECORD
  5
478
102
{ACAD_REACTORS
330
395
102
}
330
395
100
AcDbXrecord
280
     1
  1
HARI
  1
*HARI
  1
*
  1
*
 70
     0
  1
*
  1
*
  0
XRECORD
  5
479
102
{ACAD_REACTORS
330
395
102
}
330
395
100
AcDbXrecord
280
     1
  1
HASIRA
  1
*HASIRA
  1
*
  1
*
 70
     0
  1
*
  1
*
  0
XRECORD
  5
47A
102
{ACAD_REACTORS
330
395
102
}
330
395
100
AcDbXrecord
280
     1
  1
HAT
  1
*HAT*
  1
*
  1
*
 70
     0
  1
*
  1
*
  0
XRECORD
  5
47B
102
{ACAD_REACTORS
330
395
102
}
330
395
100
AcDbXrecord
280
     1
  1
HIDDEN
  1
*
  1
*
  1
HIDDEN
 70
     0
  1
*
  1
*
  0
XRECORD
  5
47C
102
{ACAD_REACTORS
330
395
102
}
330
395
100
AcDbXrecord
280
     1
  1
HM
  1
-*
  1
*
  1
*
 70
     0
  1
*
  1
*
  0
XRECORD
  5
47D
102
{ACAD_REACTORS
330
395
102
}
330
395
100
AcDbXrecord
280
     1
  1
HOJO
  1
*HOJO
  1
*
  1
*
 70
     0
  1
*
  1
*
  0
XRECORD
  5
47E
102
{ACAD_REACTORS
330
395
102
}
330
395
100
AcDbXrecord
280
     1
  1
houki
  1
h*
  1
*
  1
*
 70
     0
  1
*
  1
*
  0
XRECORD
  5
47F
102
{ACAD_REACTORS
330
395
102
}
330
395
100
AcDbXrecord
280
     1
  1
i
  1
*
  1
*
  1
*
 70
     0
  1
*
  1
*
  0
XRECORD
  5
480
102
{ACAD_REACTORS
330
395
102
}
330
395
100
AcDbXrecord
280
     1
  1
I2
  1
*I2CL*
  1
*
  1
*
 70
     0
  1
*
  1
*
  0
XRECORD
  5
481
102
{ACAD_REACTORS
330
395
102
}
330
395
100
AcDbXrecord
280
     1
  1
i2cl
  1
*i2c?*
  1
*
  1
*
 70
     0
  1
*
  1
*
  0
XRECORD
  5
482
102
{ACAD_REACTORS
330
395
102
}
330
395
100
AcDbXrecord
280
     1
  1
i5
  1
*i5*
  1
*
  1
*
 70
     0
  1
*
  1
*
  0
XRECORD
  5
483
102
{ACAD_REACTORS
330
395
102
}
330
395
100
AcDbXrecord
280
     1
  1
IEL
  1
IE*
  1
*
  1
*
 70
     0
  1
*
  1
*
  0
XRECORD
  5
484
102
{ACAD_REACTORS
330
395
102
}
330
395
100
AcDbXrecord
280
     1
  1
INSERT図
  1
*
  1
*
  1
*
 70
    12
  1
*
  1
*
  0
XRECORD
  5
485
102
{ACAD_REACTORS
330
395
102
}
330
395
100
AcDbXrecord
280
     1
  1
irc
  1
irc*
  1
*
  1
*
 70
     0
  1
*
  1
*
  0
XRECORD
  5
486
102
{ACAD_REACTORS
330
395
102
}
330
395
100
AcDbXrecord
280
     1
  1
j
  1
j*
  1
*
  1
*
 70
     0
  1
*
  1
*
  0
XRECORD
  5
487
102
{ACAD_REACTORS
330
395
102
}
330
395
100
AcDbXrecord
280
     1
  1
jiku-0
  1
*
  1
*
  1
*
 70
     0
  1
*
  1
*
  0
XRECORD
  5
488
102
{ACAD_REACTORS
330
395
102
}
330
395
100
AcDbXrecord
280
     1
  1
jkhg8
  1
814706*
  1
*
  1
*
 70
     0
  1
*
  1
*
  0
XRECORD
  5
489
102
{ACAD_REACTORS
330
395
102
}
330
395
100
AcDbXrecord
280
     1
  1
KABE
  1
W-*
  1
*
  1
*
 70
     0
  1
*
  1
*
  0
XRECORD
  5
48A
102
{ACAD_REACTORS
330
395
102
}
330
395
100
AcDbXrecord
280
     1
  1
KABESHIN
  1
*A12
  1
*
  1
*
 70
     0
  1
*
  1
*
  0
XRECORD
  5
48B
102
{ACAD_REACTORS
330
395
102
}
330
395
100
AcDbXrecord
280
     1
  1
KAGU
  1
*7KAGU
  1
9
  1
*
 70
     0
  1
*
  1
*
  0
XRECORD
  5
48C
102
{ACAD_REACTORS
330
395
102
}
330
395
100
AcDbXrecord
280
     1
  1
key
  1
keyplan
  1
*
  1
*
 70
     0
  1
*
  1
*
  0
XRECORD
  5
48D
102
{ACAD_REACTORS
330
395
102
}
330
395
100
AcDbXrecord
280
     1
  1
keyplan
  1
*-k
  1
*
  1
*
 70
     0
  1
*
  1
*
  0
XRECORD
  5
48E
102
{ACAD_REACTORS
330
395
102
}
330
395
100
AcDbXrecord
280
     1
  1
KIJUN
  1
*KIJUN
  1
*
  1
*
 70
     0
  1
*
  1
*
  0
XRECORD
  5
48F
102
{ACAD_REACTORS
330
395
102
}
330
395
100
AcDbXrecord
280
     1
  1
KSIN
  1
*2KSIN
  1
21
  1
*
 70
     0
  1
*
  1
*
  0
XRECORD
  5
490
102
{ACAD_REACTORS
330
395
102
}
330
395
100
AcDbXrecord
280
     1
  1
kui
  1
*
  1
*
  1
*
 70
     4
  1
*
  1
*
  0
XRECORD
  5
491
102
{ACAD_REACTORS
330
395
102
}
330
395
100
AcDbXrecord
280
     1
  1
L 画層
  1
L*,*.
  1
*
  1
*
 70
     0
  1
*
  1
*
  0
XRECORD
  5
492
102
{ACAD_REACTORS
330
395
102
}
330
395
100
AcDbXrecord
280
     1
  1
L1
  1
*
  1
*
  1
*
 70
     0
  1
*
  1
*
  0
XRECORD
  5
493
102
{ACAD_REACTORS
330
395
102
}
330
395
100
AcDbXrecord
280
     1
  1
L2
  1
*
  1
*
  1
*
 70
     0
  1
*
  1
*
  0
XRECORD
  5
494
102
{ACAD_REACTORS
330
395
102
}
330
395
100
AcDbXrecord
280
     1
  1
layout
  1
*
  1
*
  1
*
 70
     0
  1
*
  1
*
  0
XRECORD
  5
495
102
{ACAD_REACTORS
330
395
102
}
330
395
100
AcDbXrecord
280
     1
  1
length
  1
*length*
  1
*
  1
*
 70
     0
  1
*
  1
*
  0
XRECORD
  5
496
102
{ACAD_REACTORS
330
395
102
}
330
395
100
AcDbXrecord
280
     1
  1
LOCK
  1
*
  1
*
  1
*
 70
   256
  1
*
  1
*
  0
XRECORD
  5
497
102
{ACAD_REACTORS
330
395
102
}
330
395
100
AcDbXrecord
280
     1
  1
M
  1
*M-*
  1
*
  1
*
 70
     0
  1
*
  1
*
  0
XRECORD
  5
498
102
{ACAD_REACTORS
330
395
102
}
330
395
100
AcDbXrecord
280
     1
  1
magenta
  1
*
  1
magenta
  1
*
 70
     0
  1
*
  1
*
  0
XRECORD
  5
499
102
{ACAD_REACTORS
330
395
102
}
330
395
100
AcDbXrecord
280
     1
  1
MAJIKIRI
  1
*MAJIKIRI
  1
*
  1
*
 70
     0
  1
*
  1
*
  0
XRECORD
  5
49A
102
{ACAD_REACTORS
330
395
102
}
330
395
100
AcDbXrecord
280
     1
  1
mazenda
  1
*
  1
6
  1
*
 70
     0
  1
*
  1
*
  0
XRECORD
  5
49B
102
{ACAD_REACTORS
330
395
102
}
330
395
100
AcDbXrecord
280
     1
  1
MB
  1
*MB
  1
*
  1
*
 70
     0
  1
*
  1
*
  0
XRECORD
  5
49C
102
{ACAD_REACTORS
330
395
102
}
330
395
100
AcDbXrecord
280
     1
  1
MECHANICAL
  1
M*
  1
*
  1
*
 70
     0
  1
*
  1
*
  0
XRECORD
  5
49D
102
{ACAD_REACTORS
330
395
102
}
330
395
100
AcDbXrecord
280
     1
  1
MEJI
  1
*7MEJI
  1
243
  1
*
 70
     0
  1
*
  1
*
  0
XRECORD
  5
49E
102
{ACAD_REACTORS
330
395
102
}
330
395
100
AcDbXrecord
280
     1
  1
men
  1
*tm*
  1
*
  1
*
 70
     0
  1
*
  1
*
  0
XRECORD
  5
49F
102
{ACAD_REACTORS
330
395
102
}
330
395
100
AcDbXrecord
280
     1
  1
MIE01
  1
MIE01
  1
*
  1
*
 70
     0
  1
*
  1
*
  0
XRECORD
  5
4A0
102
{ACAD_REACTORS
330
395
102
}
330
395
100
AcDbXrecord
280
     1
  1
MOJI
  1
*MOJI
  1
*
  1
*
 70
     0
  1
*
  1
*
  0
XRECORD
  5
4A1
102
{ACAD_REACTORS
330
395
102
}
330
395
100
AcDbXrecord
280
     1
  1
MOJI100
  1
*5MOJI100
  1
3
  1
*
 70
     0
  1
*
  1
*
  0
XRECORD
  5
4A2
102
{ACAD_REACTORS
330
395
102
}
330
395
100
AcDbXrecord
280
     1
  1
MP
  1
MP_*
  1
*
  1
*
 70
     0
  1
*
  1
*
  0
XRECORD
  5
4A3
102
{ACAD_REACTORS
330
395
102
}
330
395
100
AcDbXrecord
280
     1
  1
N
  1
*N
  1
*
  1
*
 70
     0
  1
*
  1
*
  0
XRECORD
  5
4A4
102
{ACAD_REACTORS
330
395
102
}
330
395
100
AcDbXrecord
280
     1
  1
new
  1
new*
  1
*
  1
*
 70
     0
  1
*
  1
*
  0
XRECORD
  5
4A5
102
{ACAD_REACTORS
330
395
102
}
330
395
100
AcDbXrecord
280
     1
  1
New Doors
  1
*ADO*
  1
*
  1
*
 70
     0
  1
*
  1
*
  0
XRECORD
  5
4A6
102
{ACAD_REACTORS
330
395
102
}
330
395
100
AcDbXrecord
280
     1
  1
New Walls
  1
A*,2
  1
*
  1
*
 70
     0
  1
*
  1
*
  0
XRECORD
  5
4A7
102
{ACAD_REACTORS
330
395
102
}
330
395
100
AcDbXrecord
280
     1
  1
nic
  1
*
  1
*
  1
*
 70
     0
  1
253
  1
*
  0
XRECORD
  5
4A8
102
{ACAD_REACTORS
330
395
102
}
330
395
100
AcDbXrecord
280
     1
  1
NS CTS set
  1
*
  1
*
  1
*
 70
     0
  1
*
  1
*
  0
XRECORD
  5
4A9
102
{ACAD_REACTORS
330
395
102
}
330
395
100
AcDbXrecord
280
     1
  1
o
  1
*
  1
*
  1
*
 70
     3
  1
*
  1
*
  0
XRECORD
  5
4AA
102
{ACAD_REACTORS
330
395
102
}
330
395
100
AcDbXrecord
280
     1
  1
OF
  1
*
  1
*
  1
*
 70
     3
  1
*
  1
*
  0
XRECORD
  5
4AB
102
{ACAD_REACTORS
330
395
102
}
330
395
100
AcDbXrecord
280
     1
  1
Off
  1
*
  1
*
  1
*
 70
     3
  1
*
  1
*
  0
XRECORD
  5
4AC
102
{ACAD_REACTORS
330
395
102
}
330
395
100
AcDbXrecord
280
     1
  1
off文字
  1
*TXT*
  1
*
  1
*
 70
     0
  1
*
  1
*
  0
XRECORD
  5
4AD
102
{ACAD_REACTORS
330
395
102
}
330
395
100
AcDbXrecord
280
     1
  1
on
  1
*
  1
*
  1
*
 70
    13
  1
*
  1
*
  0
XRECORD
  5
4AE
102
{ACAD_REACTORS
330
395
102
}
330
395
100
AcDbXrecord
280
     1
  1
p
  1
*
  1
*
  1
*
 70
     0
  1
*
  1
*
  0
XRECORD
  5
4AF
102
{ACAD_REACTORS
330
395
102
}
330
395
100
AcDbXrecord
280
     1
  1
PARKING
  1
P-*
  1
*
  1
*
 70
     0
  1
*
  1
*
  0
XRECORD
  5
4B0
102
{ACAD_REACTORS
330
395
102
}
330
395
100
AcDbXrecord
280
     1
  1
PC
  1
0,11*,12*,13*,14*,15*,18*,23*,25*,30*,31*,32*,51*,52*,54*,59*,60*,66*,67*,69*,76*
  1
*
  1
*
 70
     0
  1
*
  1
*
  0
XRECORD
  5
4B1
102
{ACAD_REACTORS
330
395
102
}
330
395
100
AcDbXrecord
280
     1
  1
plot
  1
*
  1
*
  1
*
 70
     1
  1
*
  1
*
  0
XRECORD
  5
4B2
102
{ACAD_REACTORS
330
395
102
}
330
395
100
AcDbXrecord
280
     1
  1
PLUMBING
  1
P*
  1
*
  1
*
 70
     0
  1
*
  1
*
  0
XRECORD
  5
4B3
102
{ACAD_REACTORS
330
395
102
}
330
395
100
AcDbXrecord
280
     1
  1
Q
  1
*
  1
*
  1
PHANTOM
 70
     0
  1
*
  1
*
  0
XRECORD
  5
4B4
102
{ACAD_REACTORS
330
395
102
}
330
395
100
AcDbXrecord
280
     1
  1
R
  1
*-R
  1
*
  1
*
 70
     0
  1
*
  1
*
  0
XRECORD
  5
4B5
102
{ACAD_REACTORS
330
395
102
}
330
395
100
AcDbXrecord
280
     1
  1
raku
  1
000落書き
  1
*
  1
*
 70
     0
  1
*
  1
*
  0
XRECORD
  5
4B6
102
{ACAD_REACTORS
330
395
102
}
330
395
100
AcDbXrecord
280
     1
  1
red
  1
*
  1
10
  1
*
 70
     0
  1
*
  1
*
  0
XRECORD
  5
4B7
102
{ACAD_REACTORS
330
395
102
}
330
395
100
AcDbXrecord
280
     1
  1
RJRUDDH
  1
*
  1
*
  1
*
 70
     0
  1
*
  1
*
  0
XRECORD
  5
4B8
102
{ACAD_REACTORS
330
395
102
}
330
395
100
AcDbXrecord
280
     1
  1
rock
  1
*
  1
*
  1
*
 70
   768
  1
*
  1
*
  0
XRECORD
  5
4B9
102
{ACAD_REACTORS
330
395
102
}
330
395
100
AcDbXrecord
280
     1
  1
ROOF
  1
*-R
  1
*
  1
*
 70
     0
  1
*
  1
*
  0
XRECORD
  5
4BA
102
{ACAD_REACTORS
330
395
102
}
330
395
100
AcDbXrecord
280
     1
  1
s
  1
s*
  1
*
  1
*
 70
     0
  1
*
  1
*
  0
XRECORD
  5
4BB
102
{ACAD_REACTORS
330
395
102
}
330
395
100
AcDbXrecord
280
     1
  1
saciencewold
  1
*
  1
*
  1
*
 70
     0
  1
*
  1
*
  0
XRECORD
  5
4BC
102
{ACAD_REACTORS
330
395
102
}
330
395
100
AcDbXrecord
280
     1
  1
SC
  1
SC
  1
*
  1
*
 70
     0
  1
*
  1
*
  0
XRECORD
  5
4BD
102
{ACAD_REACTORS
330
395
102
}
330
395
100
AcDbXrecord
280
     1
  1
sdfdf
  1
8141*****
  1
*
  1
*
 70
     0
  1
*
  1
*
  0
XRECORD
  5
4BE
102
{ACAD_REACTORS
330
395
102
}
330
395
100
AcDbXrecord
280
     1
  1
SETUBI
  1
*SETUBI
  1
*
  1
*
 70
     0
  1
*
  1
*
  0
XRECORD
  5
4BF
102
{ACAD_REACTORS
330
395
102
}
330
395
100
AcDbXrecord
280
     1
  1
SHITU
  1
*SHITUMEI*
  1
*
  1
*
 70
     0
  1
*
  1
*
  0
XRECORD
  5
4C0
102
{ACAD_REACTORS
330
395
102
}
330
395
100
AcDbXrecord
280
     1
  1
SHITUMEI
  1
*SHITUMEI2
  1
*
  1
*
 70
     0
  1
*
  1
*
  0
XRECORD
  5
4C1
102
{ACAD_REACTORS
330
395
102
}
330
395
100
AcDbXrecord
280
     1
  1
SIAG
  1
*3SIAG
  1
*
  1
*
 70
     0
  1
*
  1
*
  0
XRECORD
  5
4C2
102
{ACAD_REACTORS
330
395
102
}
330
395
100
AcDbXrecord
280
     1
  1
SIAG-N
  1
*3SIAG-N
  1
7
  1
*
 70
     0
  1
*
  1
*
  0
XRECORD
  5
4C3
102
{ACAD_REACTORS
330
395
102
}
330
395
100
AcDbXrecord
280
     1
  1
SIAG3
  1
*3SIAG3
  1
3
  1
*
 70
     0
  1
*
  1
*
  0
XRECORD
  5
4C4
102
{ACAD_REACTORS
330
395
102
}
330
395
100
AcDbXrecord
280
     1
  1
Sinm
  1
*-Sinm*
  1
*
  1
*
 70
     0
  1
*
  1
*
  0
XRECORD
  5
4C5
102
{ACAD_REACTORS
330
395
102
}
330
395
100
AcDbXrecord
280
     1
  1
SITA
  1
*3SITA
  1
*
  1
*
 70
     0
  1
*
  1
*
  0
XRECORD
  5
4C6
102
{ACAD_REACTORS
330
395
102
}
330
395
100
AcDbXrecord
280
     1
  1
site
  1
site*
  1
*
  1
*
 70
     0
  1
*
  1
*
  0
XRECORD
  5
4C7
102
{ACAD_REACTORS
330
395
102
}
330
395
100
AcDbXrecord
280
     1
  1
SON
  1
1*,9*,*KEL,HASIRA,*N-M,*RID,*DIM,*UBL,00*
  1
*
  1
*
 70
     0
  1
*
  1
*
  0
XRECORD
  5
4C8
102
{ACAD_REACTORS
330
395
102
}
330
395
100
AcDbXrecord
280
     1
  1
SS
  1
*SS*
  1
*
  1
*
 70
     0
  1
*
  1
*
  0
XRECORD
  5
4C9
102
{ACAD_REACTORS
330
395
102
}
330
395
100
AcDbXrecord
280
     1
  1
STAIRS
  1
*ST*
  1
*
  1
*
 70
     0
  1
*
  1
*
  0
XRECORD
  5
4CA
102
{ACAD_REACTORS
330
395
102
}
330
395
100
AcDbXrecord
280
     1
  1
standard
  1
*
  1
*
  1
*
 70
     0
  1
*
  1
*
  0
XRECORD
  5
4CB
102
{ACAD_REACTORS
330
395
102
}
330
395
100
AcDbXrecord
280
     1
  1
SUGA5
  1
*4SUGA5
  1
5
  1
*
 70
     0
  1
*
  1
*
  0
XRECORD
  5
4CC
102
{ACAD_REACTORS
330
395
102
}
330
395
100
AcDbXrecord
280
     1
  1
SUNP
  1
*5SUNP100
  1
1
  1
*
 70
     0
  1
*
  1
*
  0
XRECORD
  5
4CD
102
{ACAD_REACTORS
330
395
102
}
330
395
100
AcDbXrecord
280
     1
  1
SUNP100
  1
*5SUNP100
  1
*
  1
*
 70
     0
  1
*
  1
*
  0
XRECORD
  5
4CE
102
{ACAD_REACTORS
330
395
102
}
330
395
100
AcDbXrecord
280
     1
  1
SYOU
  1
*
  1
*
  1
*
 70
     0
  1
*
  1
SYOU
  0
XRECORD
  5
4CF
102
{ACAD_REACTORS
330
395
102
}
330
395
100
AcDbXrecord
280
     1
  1
S画層
  1
S*
  1
*
  1
*
 70
     0
  1
*
  1
*
  0
XRECORD
  5
4D0
102
{ACAD_REACTORS
330
395
102
}
330
395
100
AcDbXrecord
280
     1
  1
T
  1
00*,01*,02*,04*,05*,06*,1*,2*,3*,4*,7*,9*,
  1
*
  1
*
 70
     0
  1
*
  1
*
  0
XRECORD
  5
4D1
102
{ACAD_REACTORS
330
395
102
}
330
395
100
AcDbXrecord
280
     1
  1
TAKASA
  1
*
  1
2
  1
*
 70
     0
  1
*
  1
*
  0
XRECORD
  5
4D2
102
{ACAD_REACTORS
330
395
102
}
330
395
100
AcDbXrecord
280
     1
  1
TATE161
  1
*4TATE161
  1
161
  1
*
 70
     0
  1
*
  1
*
  0
XRECORD
  5
4D3
102
{ACAD_REACTORS
330
395
102
}
330
395
100
AcDbXrecord
280
     1
  1
TATEGU
  1
*TATEGU
  1
*
  1
*
 70
     0
  1
*
  1
*
  0
XRECORD
  5
4D4
102
{ACAD_REACTORS
330
395
102
}
330
395
100
AcDbXrecord
280
     1
  1
TC
  1
TC_*,0N
  1
*
  1
*
 70
     0
  1
*
  1
*
  0
XRECORD
  5
4D5
102
{ACAD_REACTORS
330
395
102
}
330
395
100
AcDbXrecord
280
     1
  1
TEN
  1
*
  1
*
  1
*
 70
     1
  1
*
  1
*
  0
XRECORD
  5
4D6
102
{ACAD_REACTORS
330
395
102
}
330
395
100
AcDbXrecord
280
     1
  1
TENJYOU
  1
C-*
  1
*
  1
*
 70
     0
  1
*
  1
*
  0
XRECORD
  5
4D7
102
{ACAD_REACTORS
330
395
102
}
330
395
100
AcDbXrecord
280
     1
  1
TENJYOUNAI
  1
CI-*
  1
*
  1
*
 70
     0
  1
*
  1
*
  0
XRECORD
  5
4D8
102
{ACAD_REACTORS
330
395
102
}
330
395
100
AcDbXrecord
280
     1
  1
test
  1
keyplan
  1
*
  1
*
 70
     0
  1
*
  1
*
  0
XRECORD
  5
4D9
102
{ACAD_REACTORS
330
395
102
}
330
395
100
AcDbXrecord
280
     1
  1
test1024
  1
*
  1
*
  1
*
 70
   769
  1
*
  1
*
  0
XRECORD
  5
4DA
102
{ACAD_REACTORS
330
395
102
}
330
395
100
AcDbXrecord
280
     1
  1
test1115
  1
2* 0
  1
*
  1
*
 70
     0
  1
*
  1
*
  0
XRECORD
  5
4DB
102
{ACAD_REACTORS
330
395
102
}
330
395
100
AcDbXrecord
280
     1
  1
test2
  1
*
  1
*
  1
*
 70
    12
  1
*
  1
*
  0
XRECORD
  5
4DC
102
{ACAD_REACTORS
330
395
102
}
330
395
100
AcDbXrecord
280
     1
  1
TEXT
  1
*TEXT*
  1
*
  1
*
 70
     0
  1
*
  1
*
  0
XRECORD
  5
4DD
102
{ACAD_REACTORS
330
395
102
}
330
395
100
AcDbXrecord
280
     1
  1
Thawed
  1
*
  1
*
  1
*
 70
    12
  1
*
  1
*
  0
XRECORD
  5
4DE
102
{ACAD_REACTORS
330
395
102
}
330
395
100
AcDbXrecord
280
     1
  1
TITL
  1
*8TITL
  1
4
  1
*
 70
     0
  1
*
  1
*
  0
XRECORD
  5
4DF
102
{ACAD_REACTORS
330
395
102
}
330
395
100
AcDbXrecord
280
     1
  1
tnjyou
  1
c-*
  1
*
  1
*
 70
     0
  1
*
  1
*
  0
XRECORD
  5
4E0
102
{ACAD_REACTORS
330
395
102
}
330
395
100
AcDbXrecord
280
     1
  1
TORISHIN
  1
*A11
  1
*
  1
*
 70
     0
  1
*
  1
*
  0
XRECORD
  5
4E1
102
{ACAD_REACTORS
330
395
102
}
330
395
100
AcDbXrecord
280
     1
  1
TSIN
  1
*2TSIN
  1
*
  1
*
 70
     0
  1
*
  1
*
  0
XRECORD
  5
4E2
102
{ACAD_REACTORS
330
395
102
}
330
395
100
AcDbXrecord
280
     1
  1
TU
  1
*TU*
  1
*
  1
*
 70
     0
  1
*
  1
*
  0
XRECORD
  5
4E3
102
{ACAD_REACTORS
330
395
102
}
330
395
100
AcDbXrecord
280
     1
  1
unlocked
  1
*
  1
*
  1
*
 70
   768
  1
*
  1
*
  0
XRECORD
  5
4E4
102
{ACAD_REACTORS
330
395
102
}
330
395
100
AcDbXrecord
280
     1
  1
UNROCK
  1
*
  1
*
  1
*
 70
   768
  1
*
  1
*
  0
XRECORD
  5
4E5
102
{ACAD_REACTORS
330
395
102
}
330
395
100
AcDbXrecord
280
     1
  1
VMB
  1
*
  1
*
  1
*
 70
     0
  1
*
  1
*
  0
XRECORD
  5
4E6
102
{ACAD_REACTORS
330
395
102
}
330
395
100
AcDbXrecord
280
     1
  1
VOID
  1
*void*
  1
*
  1
*
 70
     0
  1
*
  1
*
  0
XRECORD
  5
4E7
102
{ACAD_REACTORS
330
395
102
}
330
395
100
AcDbXrecord
280
     1
  1
waku
  1
waku
  1
*
  1
*
 70
     0
  1
*
  1
*
  0
XRECORD
  5
4E8
102
{ACAD_REACTORS
330
395
102
}
330
395
100
AcDbXrecord
280
     1
  1
WALLS
  1
*AWA*
  1
*
  1
*
 70
     0
  1
*
  1
*
  0
XRECORD
  5
4E9
102
{ACAD_REACTORS
330
395
102
}
330
395
100
AcDbXrecord
280
     1
  1
ward
  1
*
  1
*
  1
*
 70
     0
  1
*
  1
*
  0
XRECORD
  5
4EA
102
{ACAD_REACTORS
330
395
102
}
330
395
100
AcDbXrecord
280
     1
  1
X
  1
*$*$*
  1
*
  1
*
 70
     0
  1
*
  1
*
  0
XRECORD
  5
4EB
102
{ACAD_REACTORS
330
395
102
}
330
395
100
AcDbXrecord
280
     1
  1
yaji
  1
*
  1
*
  1
*
 70
     0
  1
*
  1
*
  0
XRECORD
  5
4EC
102
{ACAD_REACTORS
330
395
102
}
330
395
100
AcDbXrecord
280
     1
  1
yellow
  1
*
  1
yellow
  1
*
 70
     0
  1
*
  1
*
  0
XRECORD
  5
4ED
102
{ACAD_REACTORS
330
395
102
}
330
395
100
AcDbXrecord
280
     1
  1
YUKA
  1
F-*
  1
*
  1
*
 70
     0
  1
*
  1
*
  0
XRECORD
  5
4EE
102
{ACAD_REACTORS
330
395
102
}
330
395
100
AcDbXrecord
280
     1
  1
yその他
  1
y*
  1
*
  1
*
 70
     0
  1
*
  1
*
  0
XRECORD
  5
4EF
102
{ACAD_REACTORS
330
395
102
}
330
395
100
AcDbXrecord
280
     1
  1
Z
  1
*Z*
  1
*
  1
*
 70
     0
  1
*
  1
*
  0
XRECORD
  5
4F0
102
{ACAD_REACTORS
330
395
102
}
330
395
100
AcDbXrecord
280
     1
  1
z-CABINETRY
  1
*CAB*
  1
*
  1
*
 70
     0
  1
*
  1
*
  0
XRECORD
  5
4F1
102
{ACAD_REACTORS
330
395
102
}
330
395
100
AcDbXrecord
280
     1
  1
z-WALLS
  1
*AWA*
  1
*
  1
*
 70
     0
  1
*
  1
*
  0
XRECORD
  5
4F2
102
{ACAD_REACTORS
330
395
102
}
330
395
100
AcDbXrecord
280
     1
  1
ZATU
  1
*ZATU
  1
*
  1
*
 70
     0
  1
*
  1
*
  0
XRECORD
  5
4F3
102
{ACAD_REACTORS
330
395
102
}
330
395
100
AcDbXrecord
280
     1
  1
z図枠
  1
z*
  1
*
  1
*
 70
     0
  1
*
  1
*
  0
XRECORD
  5
4F4
102
{ACAD_REACTORS
330
395
102
}
330
395
100
AcDbXrecord
280
     1
  1
ｨｾｨa
  1
B*
  1
*
  1
*
 70
   768
  1
*
  1
*
  0
XRECORD
  5
4F5
102
{ACAD_REACTORS
330
395
102
}
330
395
100
AcDbXrecord
280
     1
  1
ｨﾏ･ﾎ､､
  1
ｨﾏ･ﾎ､､
  1
*
  1
*
 70
     1
  1
*
  1
*
  0
XRECORD
  5
4F6
102
{ACAD_REACTORS
330
395
102
}
330
395
100
AcDbXrecord
280
     1
  1
ガラス
  1
*HMOJI
  1
*
  1
*
 70
     0
  1
*
  1
*
  0
XRECORD
  5
4F7
102
{ACAD_REACTORS
330
395
102
}
330
395
100
AcDbXrecord
280
     1
  1
キ-プラン
  1
*HMOJI,*HOJO2,*HOJO4,*SINSEI
  1
*
  1
*
 70
     0
  1
*
  1
*
  0
XRECORD
  5
4F8
102
{ACAD_REACTORS
330
395
102
}
330
395
100
AcDbXrecord
280
     1
  1
キープラン
  1
キープラン*
  1
*
  1
*
 70
     0
  1
*
  1
*
  0
XRECORD
  5
4F9
102
{ACAD_REACTORS
330
395
102
}
330
395
100
AcDbXrecord
280
     1
  1
きんでん
  1
き-*
  1
*
  1
*
 70
     0
  1
*
  1
*
  0
XRECORD
  5
4FA
102
{ACAD_REACTORS
330
395
102
}
330
395
100
AcDbXrecord
280
     1
  1
ｺﾝ
  1
D*
  1
*
  1
*
 70
     0
  1
*
  1
*
  0
XRECORD
  5
4FB
102
{ACAD_REACTORS
330
395
102
}
330
395
100
AcDbXrecord
280
     1
  1
シェルター
  1
シェルター*
  1
*
  1
*
 70
     0
  1
*
  1
*
  0
XRECORD
  5
4FC
102
{ACAD_REACTORS
330
395
102
}
330
395
100
AcDbXrecord
280
     1
  1
すべての画層を非表示
  1
*
  1
*
  1
*
 70
     3
  1
*
  1
*
  0
XRECORD
  5
4FD
102
{ACAD_REACTORS
330
395
102
}
330
395
100
AcDbXrecord
280
     1
  1
すべて非表示
  1
*
  1
*
  1
*
 70
     3
  1
*
  1
*
  0
XRECORD
  5
4FE
102
{ACAD_REACTORS
330
395
102
}
330
395
100
AcDbXrecord
280
     1
  1
デッキ
  1
SS*
  1
*
  1
*
 70
     0
  1
*
  1
*
  0
XRECORD
  5
4FF
102
{ACAD_REACTORS
330
395
102
}
330
395
100
AcDbXrecord
280
     1
  1
ハッチング
  1
*HAT*
  1
*
  1
*
 70
     0
  1
*
  1
*
  0
XRECORD
  5
500
102
{ACAD_REACTORS
330
395
102
}
330
395
100
AcDbXrecord
280
     1
  1
ﾌﾘｰｽﾞ
  1
*
  1
*
  1
*
 70
    12
  1
*
  1
*
  0
XRECORD
  5
501
102
{ACAD_REACTORS
330
395
102
}
330
395
100
AcDbXrecord
280
     1
  1
フリーズ
  1
*
  1
*
  1
*
 70
    12
  1
*
  1
*
  0
XRECORD
  5
502
102
{ACAD_REACTORS
330
395
102
}
330
395
100
AcDbXrecord
280
     1
  1
フリーズof
  1
*
  1
*
  1
*
 70
    12
  1
*
  1
*
  0
XRECORD
  5
503
102
{ACAD_REACTORS
330
395
102
}
330
395
100
AcDbXrecord
280
     1
  1
フリーズ画層
  1
*
  1
*
  1
*
 70
     4
  1
*
  1
*
  0
XRECORD
  5
504
102
{ACAD_REACTORS
330
395
102
}
330
395
100
AcDbXrecord
280
     1
  1
ﾌﾘｰｽﾞ画層非表示
  1
*
  1
*
  1
*
 70
    12
  1
*
  1
*
  0
XRECORD
  5
505
102
{ACAD_REACTORS
330
395
102
}
330
395
100
AcDbXrecord
280
     1
  1
ﾌﾘｰｽﾞ画面非表示
  1
*
  1
*
  1
*
 70
    12
  1
*
  1
*
  0
XRECORD
  5
506
102
{ACAD_REACTORS
330
395
102
}
330
395
100
AcDbXrecord
280
     1
  1
ﾌﾘｰｽﾞ解除
  1
*
  1
*
  1
*
 70
    12
  1
*
  1
*
  0
XRECORD
  5
507
102
{ACAD_REACTORS
330
395
102
}
330
395
100
AcDbXrecord
280
     1
  1
フリーズ解除
  1
*
  1
*
  1
*
 70
    12
  1
*
  1
*
  0
XRECORD
  5
508
102
{ACAD_REACTORS
330
395
102
}
330
395
100
AcDbXrecord
280
     1
  1
ペーパー空間
  1
DSTD_FRAME*
  1
*
  1
*
 70
     0
  1
*
  1
*
  0
XRECORD
  5
509
102
{ACAD_REACTORS
330
395
102
}
330
395
100
AcDbXrecord
280
     1
  1
マーク
  1
*マーク
  1
*
  1
*
 70
     0
  1
*
  1
*
  0
XRECORD
  5
50A
102
{ACAD_REACTORS
330
395
102
}
330
395
100
AcDbXrecord
280
     1
  1
ｭｱｿn
  1
*
  1
*
  1
*
 70
     3
  1
*
  1
*
  0
XRECORD
  5
50B
102
{ACAD_REACTORS
330
395
102
}
330
395
100
AcDbXrecord
280
     1
  1
ｭｫｭnｼh
  1
8154*010
  1
*
  1
*
 70
     0
  1
*
  1
*
  0
XRECORD
  5
50C
102
{ACAD_REACTORS
330
395
102
}
330
395
100
AcDbXrecord
280
     1
  1
ランプ
  1
*ランプ*
  1
*
  1
*
 70
     0
  1
*
  1
*
  0
XRECORD
  5
50D
102
{ACAD_REACTORS
330
395
102
}
330
395
100
AcDbXrecord
280
     1
  1
ロック以外
  1
*
  1
*
  1
*
 70
   768
  1
*
  1
*
  0
XRECORD
  5
50E
102
{ACAD_REACTORS
330
395
102
}
330
395
100
AcDbXrecord
280
     1
  1
ロック画層
  1
*
  1
*
  1
*
 70
   256
  1
*
  1
*
  0
XRECORD
  5
50F
102
{ACAD_REACTORS
330
395
102
}
330
395
100
AcDbXrecord
280
     1
  1
ロック解除
  1
*
  1
*
  1
*
 70
   768
  1
*
  1
*
  0
XRECORD
  5
510
102
{ACAD_REACTORS
330
395
102
}
330
395
100
AcDbXrecord
280
     1
  1
ｦLｨ
  1
*
  1
*
  1
*
 70
    13
  1
*
  1
*
  0
XRECORD
  5
511
102
{ACAD_REACTORS
330
395
102
}
330
395
100
AcDbXrecord
280
     1
  1
一括非表示
  1
*
  1
*
  1
*
 70
     3
  1
*
  1
*
  0
XRECORD
  5
512
102
{ACAD_REACTORS
330
395
102
}
330
395
100
AcDbXrecord
280
     1
  1
一般
  1
*般*
  1
*
  1
*
 70
     0
  1
*
  1
*
  0
XRECORD
  5
513
102
{ACAD_REACTORS
330
395
102
}
330
395
100
AcDbXrecord
280
     1
  1
一般画層
  1
.*
  1
*
  1
*
 70
     0
  1
*
  1
*
  0
XRECORD
  5
514
102
{ACAD_REACTORS
330
395
102
}
330
395
100
AcDbXrecord
280
     1
  1
印刷不可を表示
  1
*
  1
*
  1
*
 70
  3072
  1
*
  1
*
  0
XRECORD
  5
515
102
{ACAD_REACTORS
330
395
102
}
330
395
100
AcDbXrecord
280
     1
  1
荏原 機器
  1
kiki*
  1
*
  1
*
 70
     0
  1
*
  1
*
  0
XRECORD
  5
516
102
{ACAD_REACTORS
330
395
102
}
330
395
100
AcDbXrecord
280
     1
  1
荏原　機器基礎
  1
a3*,KIKI*,text*,stage,矢視記号,WAKU*
  1
*
  1
*
 70
     0
  1
*
  1
*
  0
XRECORD
  5
517
102
{ACAD_REACTORS
330
395
102
}
330
395
100
AcDbXrecord
280
     1
  1
荏原機器
  1
KIKI*
  1
*
  1
*
 70
     0
  1
*
  1
*
  0
XRECORD
  5
518
102
{ACAD_REACTORS
330
395
102
}
330
395
100
AcDbXrecord
280
     1
  1
荏原機器基礎
  1
a3*,KIKI*,text*,stage,矢視記号
  1
*
  1
*
 70
     0
  1
*
  1
*
  0
XRECORD
  5
519
102
{ACAD_REACTORS
330
395
102
}
330
395
100
AcDbXrecord
280
     1
  1
衛生設備図
  1
001*,002*,004*,005*,007*,010*,039*,040*,041*,042*,043*
  1
*
  1
*
 70
     0
  1
*
  1
*
  0
XRECORD
  5
51A
102
{ACAD_REACTORS
330
395
102
}
330
395
100
AcDbXrecord
280
     1
  1
黄色
  1
*
  1
YELLOW
  1
*
 70
     0
  1
*
  1
*
  0
XRECORD
  5
51B
102
{ACAD_REACTORS
330
395
102
}
330
395
100
AcDbXrecord
280
     1
  1
下地
  1
*下地*
  1
*
  1
*
 70
     0
  1
*
  1
*
  0
XRECORD
  5
51C
102
{ACAD_REACTORS
330
395
102
}
330
395
100
AcDbXrecord
280
     1
  1
仮設
  1
仮設*
  1
*
  1
*
 70
     0
  1
*
  1
*
  0
XRECORD
  5
51D
102
{ACAD_REACTORS
330
395
102
}
330
395
100
AcDbXrecord
280
     1
  1
家具
  1
*FUN*
  1
*
  1
*
 70
     0
  1
*
  1
*
  0
XRECORD
  5
51E
102
{ACAD_REACTORS
330
395
102
}
330
395
100
AcDbXrecord
280
     1
  1
開発画層
  1
L*,B*
  1
*
  1
*
 70
     0
  1
*
  1
*
  0
XRECORD
  5
51F
102
{ACAD_REACTORS
330
395
102
}
330
395
100
AcDbXrecord
280
     1
  1
外構
  1
外構*
  1
*
  1
*
 70
     0
  1
*
  1
*
  0
XRECORD
  5
520
102
{ACAD_REACTORS
330
395
102
}
330
395
100
AcDbXrecord
280
     1
  1
外構一般画層
  1
L*,B*
  1
*
  1
*
 70
     0
  1
*
  1
*
  0
XRECORD
  5
521
102
{ACAD_REACTORS
330
395
102
}
330
395
100
AcDbXrecord
280
     1
  1
外構図
  1
*
  1
*
  1
*
 70
     7
  1
*
  1
*
  0
XRECORD
  5
522
102
{ACAD_REACTORS
330
395
102
}
330
395
100
AcDbXrecord
280
     1
  1
外部-フリーズ解除
  1
*|*
  1
*
  1
*
 70
    12
  1
*
  1
*
  0
XRECORD
  5
523
102
{ACAD_REACTORS
330
395
102
}
330
395
100
AcDbXrecord
280
     1
  1
外部参照－建築
  1
A*
  1
9
  1
*
 70
     0
  1
*
  1
*
  0
XRECORD
  5
524
102
{ACAD_REACTORS
330
395
102
}
330
395
100
AcDbXrecord
280
     1
  1
外部参照の非表示画層
  1
*
  1
*
  1
*
 70
     0
  1
*
  1
*
  0
XRECORD
  5
525
102
{ACAD_REACTORS
330
395
102
}
330
395
100
AcDbXrecord
280
     1
  1
岩級
  1
*岩級
  1
*
  1
*
 70
     0
  1
*
  1
*
  0
XRECORD
  5
526
102
{ACAD_REACTORS
330
395
102
}
330
395
100
AcDbXrecord
280
     1
  1
基
  1
*_基
  1
*
  1
*
 70
     0
  1
*
  1
*
  0
XRECORD
  5
527
102
{ACAD_REACTORS
330
395
102
}
330
395
100
AcDbXrecord
280
     1
  1
基準
  1
基*
  1
*
  1
*
 70
     0
  1
*
  1
*
  0
XRECORD
  5
528
102
{ACAD_REACTORS
330
395
102
}
330
395
100
AcDbXrecord
280
     1
  1
基礎伏図
  1
SIZE,HOJO,ZATU,HATCH,GL-HARI,GL-HASIRA,KISO,KUI,MOJI-K1,GL-FUGO,SUNPO-K1,SUNPO,SUNPO2,SUNPO1,KIJUN3,KIJUN,SIZE
  1
*
  1
*
 70
     0
  1
*
  1
*
  0
XRECORD
  5
529
102
{ACAD_REACTORS
330
395
102
}
330
395
100
AcDbXrecord
280
     1
  1
既存杭
  1
既存杭*
  1
*
  1
*
 70
     0
  1
*
  1
*
  0
XRECORD
  5
52A
102
{ACAD_REACTORS
330
395
102
}
330
395
100
AcDbXrecord
280
     1
  1
機器
  1
KIKI*
  1
*
  1
*
 70
     0
  1
*
  1
*
  0
XRECORD
  5
52B
102
{ACAD_REACTORS
330
395
102
}
330
395
100
AcDbXrecord
280
     1
  1
機器基礎
  1
a3*,KIKI*,text*,stage,矢視記号
  1
*
  1
*
 70
     0
  1
*
  1
*
  0
XRECORD
  5
52C
102
{ACAD_REACTORS
330
395
102
}
330
395
100
AcDbXrecord
280
     1
  1
記号
  1
*記号
  1
*
  1
*
 70
     0
  1
*
  1
*
  0
XRECORD
  5
52D
102
{ACAD_REACTORS
330
395
102
}
330
395
100
AcDbXrecord
280
     1
  1
旧
  1
*旧*
  1
*
  1
*
 70
     0
  1
*
  1
*
  0
XRECORD
  5
52E
102
{ACAD_REACTORS
330
395
102
}
330
395
100
AcDbXrecord
280
     1
  1
共通
  1
*共*
  1
*
  1
*
 70
     0
  1
*
  1
*
  0
XRECORD
  5
52F
102
{ACAD_REACTORS
330
395
102
}
330
395
100
AcDbXrecord
280
     1
  1
区画
  1
区画*
  1
*
  1
*
 70
     0
  1
*
  1
*
  0
XRECORD
  5
530
102
{ACAD_REACTORS
330
395
102
}
330
395
100
AcDbXrecord
280
     1
  1
躯体
  1
*躯*
  1
*
  1
*
 70
     0
  1
*
  1
*
  0
XRECORD
  5
531
102
{ACAD_REACTORS
330
395
102
}
330
395
100
AcDbXrecord
280
     1
  1
躯体図
  1
001*,002*,003*,004*,005*,006*,007*,008*,009*,010*,011*,012*,027*
  1
*
  1
*
 70
     0
  1
*
  1
*
  0
XRECORD
  5
532
102
{ACAD_REACTORS
330
395
102
}
330
395
100
AcDbXrecord
280
     1
  1
駆体
  1
*A09*
  1
*
  1
*
 70
     0
  1
*
  1
*
  0
XRECORD
  5
533
102
{ACAD_REACTORS
330
395
102
}
330
395
100
AcDbXrecord
280
     1
  1
空調設備図
  1
001*,002*,004*,005*,007*,010*,033*,034*,035*,036*,037*,038*
  1
*
  1
*
 70
     0
  1
*
  1
*
  0
XRECORD
  5
534
102
{ACAD_REACTORS
330
395
102
}
330
395
100
AcDbXrecord
280
     1
  1
郡川
  1
kijun,kabe,sunpo
  1
*
  1
*
 70
     3
  1
*
  1
*
  0
XRECORD
  5
535
102
{ACAD_REACTORS
330
395
102
}
330
395
100
AcDbXrecord
280
     1
  1
型枠計画図
  1
001*,002*,003*,004*,005*,006*,007*,010*,012*,050*,051*,055*,056*,057*,058*,059*,060*,061*,062*,063*,064*,065*,066*,067*,068*,069*,070*,071*,072*,073*,074*,075*
  1
*
  1
*
 70
     0
  1
*
  1
*
  0
XRECORD
  5
536
102
{ACAD_REACTORS
330
395
102
}
330
395
100
AcDbXrecord
280
     1
  1
形状
  1
pen1,pen3,pen4,up,dia,low
  1
*
  1
*
 70
     0
  1
*
  1
*
  0
XRECORD
  5
537
102
{ACAD_REACTORS
330
395
102
}
330
395
100
AcDbXrecord
280
     1
  1
形状以外
  1
dim,cen,text,sakuzu1,sakuzu2,siten,defpoints,0
  1
*
  1
*
 70
     0
  1
*
  1
*
  0
XRECORD
  5
538
102
{ACAD_REACTORS
330
395
102
}
330
395
100
AcDbXrecord
280
     1
  1
建具
  1
*TAT*
  1
*
  1
*
 70
     0
  1
*
  1
*
  0
XRECORD
  5
539
102
{ACAD_REACTORS
330
395
102
}
330
395
100
AcDbXrecord
280
     1
  1
建築
  1
*
  1
*
  1
*
 70
     0
  1
*
  1
*
  0
XRECORD
  5
53A
102
{ACAD_REACTORS
330
395
102
}
330
395
100
AcDbXrecord
280
     1
  1
建築1
  1
K*
  1
*
  1
*
 70
     3
  1
*
  1
*
  0
XRECORD
  5
53B
102
{ACAD_REACTORS
330
395
102
}
330
395
100
AcDbXrecord
280
     1
  1
建築一般画層
  1
B*,A*
  1
*
  1
*
 70
     0
  1
*
  1
*
  0
XRECORD
  5
53C
102
{ACAD_REACTORS
330
395
102
}
330
395
100
AcDbXrecord
280
     1
  1
建築図
  1
*
  1
9
  1
*
 70
     0
  1
*
  1
*
  0
XRECORD
  5
53D
102
{ACAD_REACTORS
330
395
102
}
330
395
100
AcDbXrecord
280
     1
  1
建築接地図
  1
A01*
  1
*
  1
*
 70
     0
  1
*
  1
*
  0
XRECORD
  5
53E
102
{ACAD_REACTORS
330
395
102
}
330
395
100
AcDbXrecord
280
     1
  1
建物
  1
T-*
  1
*
  1
*
 70
     0
  1
*
  1
*
  0
XRECORD
  5
53F
102
{ACAD_REACTORS
330
395
102
}
330
395
100
AcDbXrecord
280
     1
  1
見え
  1
*KEN*
  1
*
  1
*
 70
     0
  1
*
  1
*
  0
XRECORD
  5
540
102
{ACAD_REACTORS
330
395
102
}
330
395
100
AcDbXrecord
280
     1
  1
見上
  1
*上*
  1
*
  1
*
 70
     0
  1
*
  1
*
  0
XRECORD
  5
541
102
{ACAD_REACTORS
330
395
102
}
330
395
100
AcDbXrecord
280
     1
  1
現況
  1
00wrk*
  1
*
  1
*
 70
     0
  1
*
  1
*
  0
XRECORD
  5
542
102
{ACAD_REACTORS
330
395
102
}
330
395
100
AcDbXrecord
280
     1
  1
現況＆境界
  1
*wrk*
  1
*
  1
*
 70
     0
  1
*
  1
*
  0
XRECORD
  5
543
102
{ACAD_REACTORS
330
395
102
}
330
395
100
AcDbXrecord
280
     1
  1
現在以外のすべてを選択
  1
*
  1
*
  1
*
 70
     0
  1
*
  1
*
  0
XRECORD
  5
544
102
{ACAD_REACTORS
330
395
102
}
330
395
100
AcDbXrecord
280
     1
  1
後付
  1
*後付*
  1
*
  1
*
 70
     0
  1
*
  1
*
  0
XRECORD
  5
545
102
{ACAD_REACTORS
330
395
102
}
330
395
100
AcDbXrecord
280
     1
  1
公園
  1
K*
  1
*
  1
*
 70
     0
  1
*
  1
*
  0
XRECORD
  5
546
102
{ACAD_REACTORS
330
395
102
}
330
395
100
AcDbXrecord
280
     1
  1
杭頭詳細図
  1
DSTD_PILE*
  1
*
  1
*
 70
     0
  1
*
  1
*
  0
XRECORD
  5
547
102
{ACAD_REACTORS
330
395
102
}
330
395
100
AcDbXrecord
280
     1
  1
杭伏図
  1
SIZE,HOJO,KUI,SUNPO,KIJUN,KUI-SUNPO,KUI-MOJI
  1
*
  1
*
 70
     0
  1
*
  1
*
  0
XRECORD
  5
548
102
{ACAD_REACTORS
330
395
102
}
330
395
100
AcDbXrecord
280
     1
  1
高さ
  1
204-TEXT,東西道路*
  1
*
  1
*
 70
     0
  1
*
  1
*
  0
XRECORD
  5
549
102
{ACAD_REACTORS
330
395
102
}
330
395
100
AcDbXrecord
280
     1
  1
高圧電気
  1
高*
  1
*
  1
*
 70
     0
  1
*
  1
*
  0
XRECORD
  5
54A
102
{ACAD_REACTORS
330
395
102
}
330
395
100
AcDbXrecord
280
     1
  1
座席のみ
  1
*
  1
*
  1
*
 70
     0
  1
*
  1
*
  0
XRECORD
  5
54B
102
{ACAD_REACTORS
330
395
102
}
330
395
100
AcDbXrecord
280
     1
  1
作業
  1
100-*,地区*,
  1
*
  1
*
 70
     1
  1
*
  1
*
  0
XRECORD
  5
54C
102
{ACAD_REACTORS
330
395
102
}
330
395
100
AcDbXrecord
280
     1
  1
山止根切計画図
  1
001*,002*,003*,004*,005*,007*,012*,049*,050*,051*,052*,053*,054*,055*,056*,057*,058*,059*,060*,061*,062*,064*,065*,066*,067*,068*,069*,070*,071*,072*,073*,074*,075*
  1
*
  1
*
 70
     0
  1
*
  1
*
  0
XRECORD
  5
54D
102
{ACAD_REACTORS
330
395
102
}
330
395
100
AcDbXrecord
280
     1
  1
仕
  1
*_仕
  1
*
  1
*
 70
     0
  1
*
  1
*
  0
XRECORD
  5
54E
102
{ACAD_REACTORS
330
395
102
}
330
395
100
AcDbXrecord
280
     1
  1
仕上
  1
D*
  1
*
  1
*
 70
     0
  1
*
  1
*
  0
XRECORD
  5
54F
102
{ACAD_REACTORS
330
395
102
}
330
395
100
AcDbXrecord
280
     1
  1
仕上げ
  1
*FIN*
  1
*
  1
*
 70
     0
  1
*
  1
*
  0
XRECORD
  5
550
102
{ACAD_REACTORS
330
395
102
}
330
395
100
AcDbXrecord
280
     1
  1
仕上図
  1
C*
  1
*
  1
*
 70
     0
  1
*
  1
*
  0
XRECORD
  5
551
102
{ACAD_REACTORS
330
395
102
}
330
395
100
AcDbXrecord
280
     1
  1
支柱取付部
  1
DSTD_COLMN-DET*
  1
*
  1
*
 70
     0
  1
*
  1
*
  0
XRECORD
  5
552
102
{ACAD_REACTORS
330
395
102
}
330
395
100
AcDbXrecord
280
     1
  1
施工図
  1
*
  1
*
  1
*
 70
     0
  1
*
  1
*
  0
XRECORD
  5
553
102
{ACAD_REACTORS
330
395
102
}
330
395
100
AcDbXrecord
280
     1
  1
紫
  1
*
  1
Magenta
  1
*
 70
     0
  1
*
  1
*
  0
XRECORD
  5
554
102
{ACAD_REACTORS
330
395
102
}
330
395
100
AcDbXrecord
280
     1
  1
従属
  1
*|*
  1
*
  1
*
 70
     0
  1
*
  1
*
  0
XRECORD
  5
555
102
{ACAD_REACTORS
330
395
102
}
330
395
100
AcDbXrecord
280
     1
  1
出図
  1
*
  1
*
  1
*
 70
     1
  1
*
  1
*
  0
XRECORD
  5
556
102
{ACAD_REACTORS
330
395
102
}
330
395
100
AcDbXrecord
280
     1
  1
床伏
  1
*床*
  1
*
  1
*
 70
     0
  1
*
  1
*
  0
XRECORD
  5
557
102
{ACAD_REACTORS
330
395
102
}
330
395
100
AcDbXrecord
280
     1
  1
床伏図
  1
*U*,20,Z20,Z22,Z23
  1
*
  1
*
 70
     0
  1
*
  1
*
  0
XRECORD
  5
558
102
{ACAD_REACTORS
330
395
102
}
330
395
100
AcDbXrecord
280
     1
  1
昇降機
  1
T*
  1
*
  1
*
 70
     0
  1
*
  1
*
  0
XRECORD
  5
559
102
{ACAD_REACTORS
330
395
102
}
330
395
100
AcDbXrecord
280
     1
  1
詳細
  1
詳細*
  1
*
  1
*
 70
     0
  1
*
  1
*
  0
XRECORD
  5
55A
102
{ACAD_REACTORS
330
395
102
}
330
395
100
AcDbXrecord
280
     1
  1
詳細一般画層
  1
B*,A*,D*
  1
*
  1
*
 70
     0
  1
*
  1
*
  0
XRECORD
  5
55B
102
{ACAD_REACTORS
330
395
102
}
330
395
100
AcDbXrecord
280
     1
  1
詳細図
  1
9*
  1
*
  1
*
 70
    12
  1
*
  1
*
  0
XRECORD
  5
55C
102
{ACAD_REACTORS
330
395
102
}
330
395
100
AcDbXrecord
280
     1
  1
上階躯体図
  1
KUTAI-Z,SIZE,HOJO,ZATU,HATCH,BR-S,KABE2,KABE,MAJIKIRI,KOBARI-S,KOBARI-R,HARI-S,HARI-R,HASIRA-S,HASIRA-R,MOJI-K2,FL-FUGO,FUGO-W,SUNPO-K2,SUNPO,SUNPO2,SUNPO1,KIJUN2,KIJUN1,KIJUN,
  1
*
  1
*
 70
     0
  1
*
  1
*
  0
XRECORD
  5
55D
102
{ACAD_REACTORS
330
395
102
}
330
395
100
AcDbXrecord
280
     1
  1
植栽
  1
T*
  1
*
  1
*
 70
     0
  1
*
  1
*
  0
XRECORD
  5
55E
102
{ACAD_REACTORS
330
395
102
}
330
395
100
AcDbXrecord
280
     1
  1
色番号8
  1
*
  1
8
  1
*
 70
     0
  1
*
  1
*
  0
XRECORD
  5
55F
102
{ACAD_REACTORS
330
395
102
}
330
395
100
AcDbXrecord
280
     1
  1
新
  1
*新*
  1
*
  1
*
 70
     0
  1
*
  1
*
  0
XRECORD
  5
560
102
{ACAD_REACTORS
330
395
102
}
330
395
100
AcDbXrecord
280
     1
  1
新菱
  1
新菱*
  1
*
  1
*
 70
     0
  1
*
  1
*
  0
XRECORD
  5
561
102
{ACAD_REACTORS
330
395
102
}
330
395
100
AcDbXrecord
280
     1
  1
申請用
  1
*あ*,*き*,*グ*,*み*,*オ*,*ピ*,*92*
  1
*
  1
*
 70
     0
  1
*
  1
*
  0
XRECORD
  5
562
102
{ACAD_REACTORS
330
395
102
}
330
395
100
AcDbXrecord
280
     1
  1
芯
  1
*芯*
  1
*
  1
*
 70
     0
  1
*
  1
*
  0
XRECORD
  5
563
102
{ACAD_REACTORS
330
395
102
}
330
395
100
AcDbXrecord
280
     1
  1
芯関係
  1
001*,002*,032*
  1
*
  1
*
 70
     0
  1
*
  1
*
  0
XRECORD
  5
564
102
{ACAD_REACTORS
330
395
102
}
330
395
100
AcDbXrecord
280
     1
  1
水
  1
*
  1
cyan
  1
*
 70
     0
  1
*
  1
*
  0
XRECORD
  5
565
102
{ACAD_REACTORS
330
395
102
}
330
395
100
AcDbXrecord
280
     1
  1
水色
  1
*
  1
Cyan
  1
*
 70
     0
  1
*
  1
*
  0
XRECORD
  5
566
102
{ACAD_REACTORS
330
395
102
}
330
395
100
AcDbXrecord
280
     1
  1
寸法
  1
*寸法
  1
*
  1
*
 70
     0
  1
*
  1
*
  0
XRECORD
  5
567
102
{ACAD_REACTORS
330
395
102
}
330
395
100
AcDbXrecord
280
     1
  1
正面図
  1
DSTD_FRONT*
  1
*
  1
*
 70
     0
  1
*
  1
*
  0
XRECORD
  5
568
102
{ACAD_REACTORS
330
395
102
}
330
395
100
AcDbXrecord
280
     1
  1
製作
  1
B*
  1
*
  1
*
 70
     0
  1
*
  1
*
  0
XRECORD
  5
569
102
{ACAD_REACTORS
330
395
102
}
330
395
100
AcDbXrecord
280
     1
  1
製作-躯体
  1
BS*
  1
*
  1
*
 70
     0
  1
*
  1
*
  0
XRECORD
  5
56A
102
{ACAD_REACTORS
330
395
102
}
330
395
100
AcDbXrecord
280
     1
  1
製作-建築
  1
BD*
  1
*
  1
*
 70
     0
  1
*
  1
*
  0
XRECORD
  5
56B
102
{ACAD_REACTORS
330
395
102
}
330
395
100
AcDbXrecord
280
     1
  1
製作-昇降機
  1
BT*
  1
*
  1
*
 70
     0
  1
*
  1
*
  0
XRECORD
  5
56C
102
{ACAD_REACTORS
330
395
102
}
330
395
100
AcDbXrecord
280
     1
  1
青
  1
*
  1
blue
  1
*
 70
     0
  1
*
  1
*
  0
XRECORD
  5
56D
102
{ACAD_REACTORS
330
395
102
}
330
395
100
AcDbXrecord
280
     1
  1
設備
  1
*SET*
  1
*
  1
*
 70
     0
  1
*
  1
*
  0
XRECORD
  5
56E
102
{ACAD_REACTORS
330
395
102
}
330
395
100
AcDbXrecord
280
     1
  1
設備１
  1
*
  1
*
  1
*
 70
     0
  1
*
  1
*
  0
XRECORD
  5
56F
102
{ACAD_REACTORS
330
395
102
}
330
395
100
AcDbXrecord
280
     1
  1
専北
  1
*専北*
  1
*
  1
*
 70
     0
  1
*
  1
*
  0
XRECORD
  5
570
102
{ACAD_REACTORS
330
395
102
}
330
395
100
AcDbXrecord
280
     1
  1
専用
  1
*専*
  1
*
  1
*
 70
     0
  1
*
  1
*
  0
XRECORD
  5
571
102
{ACAD_REACTORS
330
395
102
}
330
395
100
AcDbXrecord
280
     1
  1
川畑
  1
*川畑
  1
*
  1
*
 70
     0
  1
*
  1
*
  0
XRECORD
  5
572
102
{ACAD_REACTORS
330
395
102
}
330
395
100
AcDbXrecord
280
     1
  1
線形
  1
*線形*
  1
*
  1
*
 70
     0
  1
*
  1
*
  0
XRECORD
  5
573
102
{ACAD_REACTORS
330
395
102
}
330
395
100
AcDbXrecord
280
     1
  1
全階平面図
  1
*
  1
*
  1
*
 70
     0
  1
*
  1
*
  0
XRECORD
  5
574
102
{ACAD_REACTORS
330
395
102
}
330
395
100
AcDbXrecord
280
     1
  1
全帯
  1
*帯*
  1
*
  1
*
 70
     0
  1
*
  1
*
  0
XRECORD
  5
575
102
{ACAD_REACTORS
330
395
102
}
330
395
100
AcDbXrecord
280
     1
  1
総合仮設図
  1
001*,002*,003*,004*,005*,007*,012*,015*,016*,017*,018*,019*,020*,021*,049*,050*,051*,052*,053*,054*,055*,056*,057*,058*,059*,060*,061*,062*,063*,064*,065*,066*,067*,068*,069*,070*,071*,072*,073*,074*,075*
  1
*
  1
*
 70
     0
  1
*
  1
*
  0
XRECORD
  5
576
102
{ACAD_REACTORS
330
395
102
}
330
395
100
AcDbXrecord
280
     1
  1
総合図
  1
*
  1
*
  1
*
 70
     0
  1
*
  1
*
  0
XRECORD
  5
577
102
{ACAD_REACTORS
330
395
102
}
330
395
100
AcDbXrecord
280
     1
  1
総合図1
  1
*
  1
*
  1
*
 70
    13
  1
*
  1
*
  0
XRECORD
  5
578
102
{ACAD_REACTORS
330
395
102
}
330
395
100
AcDbXrecord
280
     1
  1
足場計画図
  1
001*,002*,003*,004*,005*,007*,012*,015*,049*,050*,051*,055*,056*,057*,058*,059*,060*,061*,062*,064*,065*,066*,067*,068*,069*,070*,071*,072*,073*,074*,075*
  1
*
  1
*
 70
     0
  1
*
  1
*
  0
XRECORD
  5
579
102
{ACAD_REACTORS
330
395
102
}
330
395
100
AcDbXrecord
280
     1
  1
耐火
  1
耐火*
  1
*
  1
*
 70
     0
  1
*
  1
*
  0
XRECORD
  5
57A
102
{ACAD_REACTORS
330
395
102
}
330
395
100
AcDbXrecord
280
     1
  1
断面
  1
*断面*
  1
*
  1
*
 70
     0
  1
*
  1
*
  0
XRECORD
  5
57B
102
{ACAD_REACTORS
330
395
102
}
330
395
100
AcDbXrecord
280
     1
  1
断面図
  1
DSTD_SECT*
  1
*
  1
*
 70
     0
  1
*
  1
*
  0
XRECORD
  5
57C
102
{ACAD_REACTORS
330
395
102
}
330
395
100
AcDbXrecord
280
     1
  1
中
  1
*中*
  1
*
  1
*
 70
     0
  1
*
  1
*
  0
XRECORD
  5
57D
102
{ACAD_REACTORS
330
395
102
}
330
395
100
AcDbXrecord
280
     1
  1
中野
  1
中野*
  1
*
  1
*
 70
     0
  1
*
  1
*
  0
XRECORD
  5
57E
102
{ACAD_REACTORS
330
395
102
}
330
395
100
AcDbXrecord
280
     1
  1
通り芯
  1
sin*
  1
*
  1
*
 70
     0
  1
*
  1
*
  0
XRECORD
  5
57F
102
{ACAD_REACTORS
330
395
102
}
330
395
100
AcDbXrecord
280
     1
  1
低圧
  1
低*
  1
*
  1
*
 70
     0
  1
*
  1
*
  0
XRECORD
  5
580
102
{ACAD_REACTORS
330
395
102
}
330
395
100
AcDbXrecord
280
     1
  1
鉄筋
  1
TEA*,TEB*,TEC*
  1
*
  1
*
 70
     0
  1
*
  1
*
  0
XRECORD
  5
581
102
{ACAD_REACTORS
330
395
102
}
330
395
100
AcDbXrecord
280
     1
  1
鉄骨
  1
*鉄骨*
  1
*
  1
*
 70
     0
  1
*
  1
*
  0
XRECORD
  5
582
102
{ACAD_REACTORS
330
395
102
}
330
395
100
AcDbXrecord
280
     1
  1
鉄骨建方計画図
  1
001*,002*,003*,004*,005*,007*,012*,013*,049*,050*,051*,052*,053*,054*,055*,056*,057*,058*,059*,060*,061*,062*,063*,064*,065*,066*,067*,068*,069*,070*,071*,072*,073*,074*,075*
  1
*
  1
*
 70
     0
  1
*
  1
*
  0
XRECORD
  5
583
102
{ACAD_REACTORS
330
395
102
}
330
395
100
AcDbXrecord
280
     1
  1
鉄骨梁見下げ
  1
000*,110*,141*
  1
*
  1
*
 70
     0
  1
*
  1
*
  0
XRECORD
  5
584
102
{ACAD_REACTORS
330
395
102
}
330
395
100
AcDbXrecord
280
     1
  1
鉄骨梁見下げ3
  1
20*
  1
*
  1
*
 70
     0
  1
*
  1
*
  0
XRECORD
  5
585
102
{ACAD_REACTORS
330
395
102
}
330
395
100
AcDbXrecord
280
     1
  1
天井
  1
C*
  1
*
  1
*
 70
     0
  1
*
  1
*
  0
XRECORD
  5
586
102
{ACAD_REACTORS
330
395
102
}
330
395
100
AcDbXrecord
280
     1
  1
天井インサート図
  1
001*,002*,004*,010*,022*,023*,024*,025*,026*,027*,028*,029*,037*,042*
  1
*
  1
*
 70
     0
  1
*
  1
*
  0
XRECORD
  5
587
102
{ACAD_REACTORS
330
395
102
}
330
395
100
AcDbXrecord
280
     1
  1
天井総合図
  1
001*,002*,004*,005*,007*,010*,022*,023*,024*,025*,026*,027*,028*,029*,030*,031*,033*,035*,036*,037*,039*,041*,042*,044*,046*,047*
  1
*
  1
*
 70
     0
  1
*
  1
*
  0
XRECORD
  5
588
102
{ACAD_REACTORS
330
395
102
}
330
395
100
AcDbXrecord
280
     1
  1
天井伏
  1
0,03*,1a*,160*,17*,28*,29*,2a*,41*,42*,43*,5*,6*,SUNPO
  1
*
  1
*
 70
     0
  1
*
  1
*
  0
XRECORD
  5
589
102
{ACAD_REACTORS
330
395
102
}
330
395
100
AcDbXrecord
280
     1
  1
天井伏図
  1
001*,002*,004*,010*,022*,023*,024*,025*,026*,027*,028*,029*,033*,039*,044*
  1
*
  1
*
 70
     0
  1
*
  1
*
  0
XRECORD
  5
58A
102
{ACAD_REACTORS
330
395
102
}
330
395
100
AcDbXrecord
280
     1
  1
天伏
  1
****-H
  1
*
  1
*
 70
     0
  1
*
  1
*
  0
XRECORD
  5
58B
102
{ACAD_REACTORS
330
395
102
}
330
395
100
AcDbXrecord
280
     1
  1
展開図
  1
4*,9*,0*
  1
*
  1
*
 70
     0
  1
*
  1
*
  0
XRECORD
  5
58C
102
{ACAD_REACTORS
330
395
102
}
330
395
100
AcDbXrecord
280
     1
  1
電ｺﾝｾﾝﾄ
  1
電-ｺﾝｾﾝﾄ*
  1
*
  1
*
 70
     0
  1
*
  1
*
  0
XRECORD
  5
58D
102
{ACAD_REACTORS
330
395
102
}
330
395
100
AcDbXrecord
280
     1
  1
電ﾃﾚﾋﾞ
  1
電-ﾃﾚﾋﾞ*
  1
*
  1
*
 70
     0
  1
*
  1
*
  0
XRECORD
  5
58E
102
{ACAD_REACTORS
330
395
102
}
330
395
100
AcDbXrecord
280
     1
  1
電の画層
  1
電-*
  1
*
  1
*
 70
     0
  1
*
  1
*
  0
XRECORD
  5
58F
102
{ACAD_REACTORS
330
395
102
}
330
395
100
AcDbXrecord
280
     1
  1
電の総画層
  1
電-*
  1
*
  1
*
 70
     0
  1
*
  1
*
  0
XRECORD
  5
590
102
{ACAD_REACTORS
330
395
102
}
330
395
100
AcDbXrecord
280
     1
  1
電医療接地
  1
電-医療*
  1
*
  1
*
 70
     0
  1
*
  1
*
  0
XRECORD
  5
591
102
{ACAD_REACTORS
330
395
102
}
330
395
100
AcDbXrecord
280
     1
  1
電気
  1
電*
  1
*
  1
*
 70
     0
  1
*
  1
*
  0
XRECORD
  5
592
102
{ACAD_REACTORS
330
395
102
}
330
395
100
AcDbXrecord
280
     1
  1
電気画層
  1
電-*
  1
*
  1
*
 70
     0
  1
*
  1
*
  0
XRECORD
  5
593
102
{ACAD_REACTORS
330
395
102
}
330
395
100
AcDbXrecord
280
     1
  1
電気設計図
  1
電-S*
  1
*
  1
*
 70
     0
  1
*
  1
*
  0
XRECORD
  5
594
102
{ACAD_REACTORS
330
395
102
}
330
395
100
AcDbXrecord
280
     1
  1
電気設備図
  1
001*,002*,004*,005*,007*,010*,030*,031*,044*,045*,046*,047*,048*
  1
*
  1
*
 70
     0
  1
*
  1
*
  0
XRECORD
  5
595
102
{ACAD_REACTORS
330
395
102
}
330
395
100
AcDbXrecord
280
     1
  1
電電話
  1
電-電話*
  1
*
  1
*
 70
     0
  1
*
  1
*
  0
XRECORD
  5
596
102
{ACAD_REACTORS
330
395
102
}
330
395
100
AcDbXrecord
280
     1
  1
土留板
  1
*_CONC
  1
*
  1
*
 70
     0
  1
*
  1
*
  0
XRECORD
  5
597
102
{ACAD_REACTORS
330
395
102
}
330
395
100
AcDbXrecord
280
     1
  1
土留板取付詳細図
  1
DSTD_CONC*
  1
*
  1
*
 70
     0
  1
*
  1
*
  0
XRECORD
  5
598
102
{ACAD_REACTORS
330
395
102
}
330
395
100
AcDbXrecord
280
     1
  1
動力
  1
D*
  1
*
  1
*
 70
    12
  1
*
  1
*
  0
XRECORD
  5
599
102
{ACAD_REACTORS
330
395
102
}
330
395
100
AcDbXrecord
280
     1
  1
道路
  1
D-*
  1
*
  1
*
 70
     0
  1
*
  1
*
  0
XRECORD
  5
59A
102
{ACAD_REACTORS
330
395
102
}
330
395
100
AcDbXrecord
280
     1
  1
道路関係図
  1
001*,002*,003*,004*,007*,012*,015*,016*,017*,018*,019*,020*,021*,049*,050*,051*,052*,053*,054*,055*,056*,057*,058*,059*,060*,061*,062*,063*,064*,065*,066*,067*,068*,069*,070*,071*,072*,073*,074*,075*
  1
*
  1
*
 70
     0
  1
*
  1
*
  0
XRECORD
  5
59B
102
{ACAD_REACTORS
330
395
102
}
330
395
100
AcDbXrecord
280
     1
  1
読み込み時表示層
  1
*
  1
*
  1
*
 70
     0
  1
*
  1
*
  0
XRECORD
  5
59C
102
{ACAD_REACTORS
330
395
102
}
330
395
100
AcDbXrecord
280
     1
  1
日比谷
  1
日比谷*
  1
*
  1
*
 70
     0
  1
*
  1
*
  0
XRECORD
  5
59D
102
{ACAD_REACTORS
330
395
102
}
330
395
100
AcDbXrecord
280
     1
  1
日比谷1
  1
日*管
  1
*
  1
*
 70
     0
  1
*
  1
*
  0
XRECORD
  5
59E
102
{ACAD_REACTORS
330
395
102
}
330
395
100
AcDbXrecord
280
     1
  1
背面図
  1
DSTD_BACK*
  1
*
  1
*
 70
     0
  1
*
  1
*
  0
XRECORD
  5
59F
102
{ACAD_REACTORS
330
395
102
}
330
395
100
AcDbXrecord
280
     1
  1
配管
  1
PIPE*
  1
*
  1
*
 70
     0
  1
*
  1
*
  0
XRECORD
  5
5A0
102
{ACAD_REACTORS
330
395
102
}
330
395
100
AcDbXrecord
280
     1
  1
配筋図
  1
DSTD_STEEL*
  1
*
  1
*
 70
     0
  1
*
  1
*
  0
XRECORD
  5
5A1
102
{ACAD_REACTORS
330
395
102
}
330
395
100
AcDbXrecord
280
     1
  1
配置樹木
  1
*
  1
*
  1
*
 70
     0
  1
*
  1
*
  0
XRECORD
  5
5A2
102
{ACAD_REACTORS
330
395
102
}
330
395
100
AcDbXrecord
280
     1
  1
配置図
  1
*
  1
*
  1
*
 70
  1024
  1
*
  1
*
  0
XRECORD
  5
5A3
102
{ACAD_REACTORS
330
395
102
}
330
395
100
AcDbXrecord
280
     1
  1
盤
  1
盤*
  1
*
  1
*
 70
     0
  1
*
  1
*
  0
XRECORD
  5
5A4
102
{ACAD_REACTORS
330
395
102
}
330
395
100
AcDbXrecord
280
     1
  1
非表示
  1
z*
  1
*
  1
*
 70
     0
  1
*
  1
*
  0
XRECORD
  5
5A5
102
{ACAD_REACTORS
330
395
102
}
330
395
100
AcDbXrecord
280
     1
  1
非表示層のみ表示
  1
*
  1
*
  1
*
 70
     7
  1
*
  1
*
  0
XRECORD
  5
5A6
102
{ACAD_REACTORS
330
395
102
}
330
395
100
AcDbXrecord
280
     1
  1
表示
  1
*
  1
*
  1
*
 70
     1
  1
*
  1
*
  0
XRECORD
  5
5A7
102
{ACAD_REACTORS
330
395
102
}
330
395
100
AcDbXrecord
280
     1
  1
表示-ﾊﾟｼｺﾝ作成画層のみ
  1
ﾊﾟｼｺﾝ*
  1
*
  1
*
 70
     0
  1
*
  1
*
  0
XRECORD
  5
5A8
102
{ACAD_REACTORS
330
395
102
}
330
395
100
AcDbXrecord
280
     1
  1
表示-近代作成画層のみ
  1
近*
  1
*
  1
*
 70
     0
  1
*
  1
*
  0
XRECORD
  5
5A9
102
{ACAD_REACTORS
330
395
102
}
330
395
100
AcDbXrecord
280
     1
  1
表示-東電作成画層のみ
  1
東*
  1
*
  1
*
 70
     0
  1
*
  1
*
  0
XRECORD
  5
5AA
102
{ACAD_REACTORS
330
395
102
}
330
395
100
AcDbXrecord
280
     1
  1
表示-日技作成画層のみ
  1
日*
  1
*
  1
*
 70
     0
  1
*
  1
*
  0
XRECORD
  5
5AB
102
{ACAD_REACTORS
330
395
102
}
330
395
100
AcDbXrecord
280
     1
  1
表示-福山作成画層のみ
  1
福*
  1
*
  1
*
 70
     0
  1
*
  1
*
  0
XRECORD
  5
5AC
102
{ACAD_REACTORS
330
395
102
}
330
395
100
AcDbXrecord
280
     1
  1
表示・非表示
  1
*
  1
*
  1
*
 70
     1
  1
*
  1
*
  0
XRECORD
  5
5AD
102
{ACAD_REACTORS
330
395
102
}
330
395
100
AcDbXrecord
280
     1
  1
表示2
  1
*
  1
*
  1
*
 70
   257
  1
*
  1
*
  0
XRECORD
  5
5AE
102
{ACAD_REACTORS
330
395
102
}
330
395
100
AcDbXrecord
280
     1
  1
表示層のみ表示
  1
*
  1
*
  1
*
 70
    13
  1
*
  1
*
  0
XRECORD
  5
5AF
102
{ACAD_REACTORS
330
395
102
}
330
395
100
AcDbXrecord
280
     1
  1
副道
  1
*副*
  1
*
  1
*
 70
     0
  1
*
  1
*
  0
XRECORD
  5
5B0
102
{ACAD_REACTORS
330
395
102
}
330
395
100
AcDbXrecord
280
     1
  1
分割枠
  1
枠*
  1
*
  1
*
 70
     0
  1
*
  1
*
  0
XRECORD
  5
5B1
102
{ACAD_REACTORS
330
395
102
}
330
395
100
AcDbXrecord
280
     1
  1
文字
  1
*NAM*
  1
*
  1
*
 70
     0
  1
*
  1
*
  0
XRECORD
  5
5B2
102
{ACAD_REACTORS
330
395
102
}
330
395
100
AcDbXrecord
280
     1
  1
平詳
  1
****-T
  1
*
  1
*
 70
     0
  1
*
  1
*
  0
XRECORD
  5
5B3
102
{ACAD_REACTORS
330
395
102
}
330
395
100
AcDbXrecord
280
     1
  1
平詳仕上表1
  1
1_h*3,1_t*2,2_s*2
  1
*
  1
*
 70
     0
  1
*
  1
*
  0
XRECORD
  5
5B4
102
{ACAD_REACTORS
330
395
102
}
330
395
100
AcDbXrecord
280
     1
  1
平面
  1
*-T
  1
*
  1
*
 70
     0
  1
*
  1
*
  0
XRECORD
  5
5B5
102
{ACAD_REACTORS
330
395
102
}
330
395
100
AcDbXrecord
280
     1
  1
平面詳細
  1
04*,7*,9*,hojo
  1
*
  1
*
 70
     0
  1
*
  1
*
  0
XRECORD
  5
5B6
102
{ACAD_REACTORS
330
395
102
}
330
395
100
AcDbXrecord
280
     1
  1
平面詳細図
  1
SUNPO-S,SIZE,HOJO,ZATU,HATCH,HWAKU,HMOJI,WARITUKE-T,WARITUKE-Y,WARITUKE-K,TATEGU1,TATEGU,BR-S,MAJIKIRI,KABE2,SIAGE,KABE1,KABE,KOBARI-S,KOBARI-R,HARI-S,HARI-R,HASIRA-S,HASIRA-R,MOJI,SHITUMEI,LABEL,FL-FUGO,FUGO-W,SUNPO,SUNPO2,SUNPO1,KIJUN2,KIJUN1,KIJUN
  1
*
  1
*
 70
     0
  1
*
  1
*
  0
XRECORD
  5
5B7
102
{ACAD_REACTORS
330
395
102
}
330
395
100
AcDbXrecord
280
     1
  1
平面図
  1
DSTD_PLN*
  1
*
  1
*
 70
     0
  1
*
  1
*
  0
XRECORD
  5
5B8
102
{ACAD_REACTORS
330
395
102
}
330
395
100
AcDbXrecord
280
     1
  1
平面図のみ＠1
  1
*
  1
*
  1
*
 70
     1
  1
*
  1
*
  0
XRECORD
  5
5B9
102
{ACAD_REACTORS
330
395
102
}
330
395
100
AcDbXrecord
280
     1
  1
平面図のみ＠２
  1
*
  1
*
  1
*
 70
     1
  1
*
  1
*
  0
XRECORD
  5
5BA
102
{ACAD_REACTORS
330
395
102
}
330
395
100
AcDbXrecord
280
     1
  1
平面総合図
  1
001*,002*,004*,010*,013*,014*,015*,016*,017*,018*,019*,020*,021*,030*,031*,034*,040*,045*
  1
*
  1
*
 70
     0
  1
*
  1
*
  0
XRECORD
  5
5BB
102
{ACAD_REACTORS
330
395
102
}
330
395
100
AcDbXrecord
280
     1
  1
保留
  1
保留*
  1
*
  1
*
 70
     0
  1
*
  1
*
  0
XRECORD
  5
5BC
102
{ACAD_REACTORS
330
395
102
}
330
395
100
AcDbXrecord
280
     1
  1
補助線
  1
*0
  1
*
  1
*
 70
     0
  1
*
  1
*
  0
XRECORD
  5
5BD
102
{ACAD_REACTORS
330
395
102
}
330
395
100
AcDbXrecord
280
     1
  1
法規チェック－区画
  1
*92
  1
*
  1
*
 70
     0
  1
*
  1
*
  0
XRECORD
  5
5BE
102
{ACAD_REACTORS
330
395
102
}
330
395
100
AcDbXrecord
280
     1
  1
法規チェック－範囲
  1
*0
  1
*
  1
*
 70
     0
  1
*
  1
*
  0
XRECORD
  5
5BF
102
{ACAD_REACTORS
330
395
102
}
330
395
100
AcDbXrecord
280
     1
  1
鳳文字入力
  1
*
  1
*
  1
*
 70
     0
  1
*
  1
*
  0
XRECORD
  5
5C0
102
{ACAD_REACTORS
330
395
102
}
330
395
100
AcDbXrecord
280
     1
  1
防災
  1
B*
  1
*
  1
*
 70
   768
  1
*
  1
*
  0
XRECORD
  5
5C1
102
{ACAD_REACTORS
330
395
102
}
330
395
100
AcDbXrecord
280
     1
  1
名称
  1
*名称
  1
*
  1
*
 70
     0
  1
*
  1
*
  0
XRECORD
  5
5C2
102
{ACAD_REACTORS
330
395
102
}
330
395
100
AcDbXrecord
280
     1
  1
面積
  1
*面積
  1
*
  1
*
 70
     0
  1
*
  1
*
  0
XRECORD
  5
5C3
102
{ACAD_REACTORS
330
395
102
}
330
395
100
AcDbXrecord
280
     1
  1
立面図
  1
*HOJO2
  1
*
  1
*
 70
     0
  1
*
  1
*
  0
XRECORD
  5
5C4
102
{ACAD_REACTORS
330
395
102
}
330
395
100
AcDbXrecord
280
     1
  1
梁
  1
0,08*,17*,梁*
  1
*
  1
*
 70
     0
  1
*
  1
*
  0
XRECORD
  5
5C5
102
{ACAD_REACTORS
330
395
102
}
330
395
100
AcDbXrecord
280
     1
  1
緑
  1
*
  1
Green
  1
*
 70
     0
  1
*
  1
*
  0
ENDSEC
  0
EOF
