  0
SECTION
  2
HEADER
  9
$ACADVER
  1
AC1015
  9
$ACADMAINTVER
 70
     6
  9
$DWGCODEPAGE
  3
ANSI_932
  9
$INSBASE
 10
0.0
 20
0.0
 30
0.0
  9
$EXTMIN
 10
17.93617536701731
 20
65.34969947413265
 30
0.0
  9
$EXTMAX
 10
457.8106821638658
 20
248.2800576785966
 30
0.0
  9
$LIMMIN
 10
0.0
 20
0.0
  9
$LIMMAX
 10
409.8899999999999
 20
282.8899999999999
  9
$ORTHOMODE
 70
     1
  9
$REGENMODE
 70
     1
  9
$FILLMODE
 70
     1
  9
$QTEXTMODE
 70
     0
  9
$MIRRTEXT
 70
     1
  9
$LTSCALE
 40
10.0
  9
$ATTMODE
 70
     1
  9
$TEXTSIZE
 40
3.5
  9
$TRACEWID
 40
1.0
  9
$TEXTSTYLE
  7
AD-STANDARD
  9
$CLAYER
  8
0
  9
$CELTYPE
  6
BYLAYER
  9
$CECOLOR
 62
   256
  9
$CELTSCALE
 40
1.0
  9
$DISPSILH
 70
     0
  9
$DIMSCALE
 40
1.0
  9
$DIMASZ
 40
0.18
  9
$DIMEXO
 40
0.0625
  9
$DIMDLI
 40
0.38
  9
$DIMRND
 40
0.0
  9
$DIMDLE
 40
0.0
  9
$DIMEXE
 40
0.18
  9
$DIMTP
 40
0.0
  9
$DIMTM
 40
0.0
  9
$DIMTXT
 40
0.18
  9
$DIMCEN
 40
0.09
  9
$DIMTSZ
 40
0.0
  9
$DIMTOL
 70
     0
  9
$DIMLIM
 70
     0
  9
$DIMTIH
 70
     1
  9
$DIMTOH
 70
     1
  9
$DIMSE1
 70
     0
  9
$DIMSE2
 70
     0
  9
$DIMTAD
 70
     0
  9
$DIMZIN
 70
     0
  9
$DIMBLK
  1

  9
$DIMASO
 70
     1
  9
$DIMSHO
 70
     1
  9
$DIMPOST
  1

  9
$DIMAPOST
  1

  9
$DIMALT
 70
     0
  9
$DIMALTD
 70
     2
  9
$DIMALTF
 40
25.4
  9
$DIMLFAC
 40
1.0
  9
$DIMTOFL
 70
     0
  9
$DIMTVP
 40
0.0
  9
$DIMTIX
 70
     0
  9
$DIMSOXD
 70
     0
  9
$DIMSAH
 70
     0
  9
$DIMBLK1
  1

  9
$DIMBLK2
  1

  9
$DIMSTYLE
  2
STANDARD
  9
$DIMCLRD
 70
     0
  9
$DIMCLRE
 70
     0
  9
$DIMCLRT
 70
     0
  9
$DIMTFAC
 40
1.0
  9
$DIMGAP
 40
0.09
  9
$DIMJUST
 70
     0
  9
$DIMSD1
 70
     0
  9
$DIMSD2
 70
     0
  9
$DIMTOLJ
 70
     1
  9
$DIMTZIN
 70
     0
  9
$DIMALTZ
 70
     0
  9
$DIMALTTZ
 70
     0
  9
$DIMUPT
 70
     0
  9
$DIMDEC
 70
     4
  9
$DIMTDEC
 70
     4
  9
$DIMALTU
 70
     2
  9
$DIMALTTD
 70
     2
  9
$DIMTXSTY
  7
STANDARD
  9
$DIMAUNIT
 70
     0
  9
$DIMADEC
 70
     0
  9
$DIMALTRND
 40
0.0
  9
$DIMAZIN
 70
     0
  9
$DIMDSEP
 70
    46
  9
$DIMATFIT
 70
     3
  9
$DIMFRAC
 70
     0
  9
$DIMLDRBLK
  1

  9
$DIMLUNIT
 70
     2
  9
$DIMLWD
 70
    -2
  9
$DIMLWE
 70
    -2
  9
$DIMTMOVE
 70
     0
  9
$LUNITS
 70
     2
  9
$LUPREC
 70
     4
  9
$SKETCHINC
 40
1.0
  9
$FILLETRAD
 40
0.0
  9
$AUNITS
 70
     0
  9
$AUPREC
 70
     0
  9
$MENU
  1
.
  9
$ELEVATION
 40
0.0
  9
$PELEVATION
 40
0.0
  9
$THICKNESS
 40
0.0
  9
$LIMCHECK
 70
     0
  9
$CHAMFERA
 40
0.0
  9
$CHAMFERB
 40
0.0
  9
$CHAMFERC
 40
673.4006734006733
  9
$CHAMFERD
 40
0.0
  9
$SKPOLY
 70
     0
  9
$TDCREATE
 40
2455079.477832176
  9
$TDUCREATE
 40
2455079.102832176
  9
$TDUPDATE
 40
2455503.488347037
  9
$TDUUPDATE
 40
2455503.113347037
  9
$TDINDWG
 40
0.9366889352
  9
$TDUSRTIMER
 40
0.9366889352
  9
$USRTIMER
 70
     1
  9
$ANGBASE
 50
0.0
  9
$ANGDIR
 70
     0
  9
$PDMODE
 70
     0
  9
$PDSIZE
 40
0.0
  9
$PLINEWID
 40
0.0
  9
$SPLFRAME
 70
     0
  9
$SPLINETYPE
 70
     6
  9
$SPLINESEGS
 70
     8
  9
$HANDSEED
  5
D37
  9
$SURFTAB1
 70
     6
  9
$SURFTAB2
 70
     6
  9
$SURFTYPE
 70
     6
  9
$SURFU
 70
     6
  9
$SURFV
 70
     6
  9
$UCSBASE
  2

  9
$UCSNAME
  2

  9
$UCSORG
 10
0.0
 20
0.0
 30
0.0
  9
$UCSXDIR
 10
1.0
 20
0.0
 30
0.0
  9
$UCSYDIR
 10
0.0
 20
1.0
 30
0.0
  9
$UCSORTHOREF
  2

  9
$UCSORTHOVIEW
 70
     0
  9
$UCSORGTOP
 10
0.0
 20
0.0
 30
0.0
  9
$UCSORGBOTTOM
 10
0.0
 20
0.0
 30
0.0
  9
$UCSORGLEFT
 10
0.0
 20
0.0
 30
0.0
  9
$UCSORGRIGHT
 10
0.0
 20
0.0
 30
0.0
  9
$UCSORGFRONT
 10
0.0
 20
0.0
 30
0.0
  9
$UCSORGBACK
 10
0.0
 20
0.0
 30
0.0
  9
$PUCSBASE
  2

  9
$PUCSNAME
  2

  9
$PUCSORG
 10
0.0
 20
0.0
 30
0.0
  9
$PUCSXDIR
 10
1.0
 20
0.0
 30
0.0
  9
$PUCSYDIR
 10
0.0
 20
1.0
 30
0.0
  9
$PUCSORTHOREF
  2

  9
$PUCSORTHOVIEW
 70
     0
  9
$PUCSORGTOP
 10
0.0
 20
0.0
 30
0.0
  9
$PUCSORGBOTTOM
 10
0.0
 20
0.0
 30
0.0
  9
$PUCSORGLEFT
 10
0.0
 20
0.0
 30
0.0
  9
$PUCSORGRIGHT
 10
0.0
 20
0.0
 30
0.0
  9
$PUCSORGFRONT
 10
0.0
 20
0.0
 30
0.0
  9
$PUCSORGBACK
 10
0.0
 20
0.0
 30
0.0
  9
$USERI1
 70
     0
  9
$USERI2
 70
     0
  9
$USERI3
 70
     0
  9
$USERI4
 70
     0
  9
$USERI5
 70
     0
  9
$USERR1
 40
0.0
  9
$USERR2
 40
0.0
  9
$USERR3
 40
0.0
  9
$USERR4
 40
0.0
  9
$USERR5
 40
0.0
  9
$WORLDVIEW
 70
     1
  9
$SHADEDGE
 70
     3
  9
$SHADEDIF
 70
    70
  9
$TILEMODE
 70
     1
  9
$MAXACTVP
 70
    16
  9
$PINSBASE
 10
0.0
 20
0.0
 30
0.0
  9
$PLIMCHECK
 70
     0
  9
$PEXTMIN
 10
20.0
 20
12.0
 30
0.0
  9
$PEXTMAX
 10
405.0
 20
276.9999999999999
 30
0.0
  9
$PLIMMIN
 10
0.0
 20
0.0
  9
$PLIMMAX
 10
409.8899999999999
 20
282.8899999999999
  9
$UNITMODE
 70
     0
  9
$VISRETAIN
 70
     0
  9
$PLINEGEN
 70
     0
  9
$PSLTSCALE
 70
     1
  9
$TREEDEPTH
 70
  3020
  9
$CMLSTYLE
  2
STANDARD
  9
$CMLJUST
 70
     0
  9
$CMLSCALE
 40
1.0
  9
$PROXYGRAPHICS
 70
     1
  9
$MEASUREMENT
 70
     1
  9
$CELWEIGHT
370
    -1
  9
$ENDCAPS
280
     0
  9
$JOINSTYLE
280
     0
  9
$LWDISPLAY
290
     0
  9
$INSUNITS
 70
     0
  9
$HYPERLINKBASE
  1

  9
$STYLESHEET
  1

  9
$XEDIT
290
     1
  9
$CEPSNTYPE
380
     0
  9
$PSTYLEMODE
290
     1
  9
$FINGERPRINTGUID
  2
{8ACAE060-96A8-11D3-AA4A-00A0247712C1}
  9
$VERSIONGUID
  2
{832D3FBC-C999-4BD6-953C-A9732E987687}
  9
$EXTNAMES
290
     1
  9
$PSVPSCALE
 40
0.0
  9
$OLESTARTUP
290
     0
  0
ENDSEC
  0
SECTION
  2
CLASSES
  0
CLASS
  1
LWPOLYLINE
  2
AcDbPolyline
  3
AutoCAD 2000
 90
    32768
280
     0
281
     1
  0
CLASS
  1
ACDBDICTIONARYWDFLT
  2
AcDbDictionaryWithDefault
  3
AutoCAD 2000
 90
        0
280
     0
281
     0
  0
CLASS
  1
ACDBPLACEHOLDER
  2
AcDbPlaceHolder
  3
AutoCAD 2000
 90
        0
280
     0
281
     0
  0
CLASS
  1
LAYOUT
  2
AcDbLayout
  3
AutoCAD 2000
 90
        0
280
     0
281
     0
  0
CLASS
  1
PLOTSETTINGS
  2
AcDbPlotSettings
  3
AutoCAD 2000
 90
        0
280
     0
281
     0
  0
ENDSEC
  0
SECTION
  2
TABLES
  0
TABLE
  2
VPORT
  5
8
330
0
100
AcDbSymbolTable
 70
     7
  0
VPORT
  5
D36
330
8
100
AcDbSymbolTableRecord
100
AcDbViewportTableRecord
  2
*Active
 70
     0
 10
0.0
 20
0.0
 11
1.0
 21
1.0
 12
236.7225164917359
 22
166.3381472706248
 13
0.0
 23
0.0
 14
168.0
 24
168.0
 15
0.0
 25
0.0
 16
0.0
 26
0.0
 36
1.0
 17
0.0
 27
0.0
 37
0.0
 40
447.8252213071264
 41
1.287220026350461
 42
50.0
 43
0.0
 44
0.0
 50
0.0
 51
0.0
 71
     0
 72
   100
 73
     1
 74
     0
 75
     0
 76
     0
 77
     0
 78
     1
281
     0
 65
     1
110
0.0
120
0.0
130
0.0
111
1.0
121
0.0
131
0.0
112
0.0
122
1.0
132
0.0
 79
     0
146
0.0
  0
ENDTAB
  0
TABLE
  2
LTYPE
  5
5
330
0
100
AcDbSymbolTable
 70
     3
  0
LTYPE
  5
14
330
5
100
AcDbSymbolTableRecord
100
AcDbLinetypeTableRecord
  2
BYBLOCK
 70
     0
  3

 72
    65
 73
     0
 40
0.0
  0
LTYPE
  5
15
330
5
100
AcDbSymbolTableRecord
100
AcDbLinetypeTableRecord
  2
BYLAYER
 70
     0
  3

 72
    65
 73
     0
 40
0.0
  0
LTYPE
  5
16
330
5
100
AcDbSymbolTableRecord
100
AcDbLinetypeTableRecord
  2
CONTINUOUS
 70
     0
  3
Solid line
 72
    65
 73
     0
 40
0.0
  0
LTYPE
  5
6E
330
5
100
AcDbSymbolTableRecord
100
AcDbLinetypeTableRecord
  2
CENTER
 70
     0
  3
____ _ ____ _ ____ _ ____ _ ____ _ ____ _ ____ 
 72
    65
 73
     4
 40
2.0
 49
1.25
 74
     0
 49
-0.25
 74
     0
 49
0.25
 74
     0
 49
-0.25
 74
     0
  0
LTYPE
  5
6F
330
5
100
AcDbSymbolTableRecord
100
AcDbLinetypeTableRecord
  2
HIDDEN
 70
     0
  3
__ __ __ __ __ __ __ __ __ __ __ __ __ __ __ __
 72
    65
 73
     2
 40
0.375
 49
0.25
 74
     0
 49
-0.125
 74
     0
  0
ENDTAB
  0
TABLE
  2
LAYER
  5
2
102
{ACAD_XDICTIONARY
360
394
102
}
330
0
100
AcDbSymbolTable
 70
    12
  0
LAYER
  5
F
330
2
100
AcDbSymbolTableRecord
100
AcDbLayerTableRecord
  2
0
 70
     0
 62
     7
  6
CONTINUOUS
370
    -3
390
2C1
  0
LAYER
  5
71
330
2
100
AcDbSymbolTableRecord
100
AcDbLayerTableRecord
  2
MEASURE
 70
     0
 62
     9
  6
CONTINUOUS
370
    -3
390
2C1
  0
LAYER
  5
72
330
2
100
AcDbSymbolTableRecord
100
AcDbLayerTableRecord
  2
DEFPOINTS
 70
     0
 62
     7
  6
CONTINUOUS
290
     0
370
    -3
390
2C1
  0
LAYER
  5
74
330
2
100
AcDbSymbolTableRecord
100
AcDbLayerTableRecord
  2
CENTER
 70
     0
 62
     9
  6
CENTER
370
    -3
390
2C1
  0
LAYER
  5
D22
330
2
100
AcDbSymbolTableRecord
100
AcDbLayerTableRecord
  2
1
 70
     0
 62
     7
  6
CONTINUOUS
370
    -3
390
2C1
  0
ENDTAB
  0
TABLE
  2
STYLE
  5
3
330
0
100
AcDbSymbolTable
 70
     5
  0
STYLE
  5
10
330
3
100
AcDbSymbolTableRecord
100
AcDbTextStyleTableRecord
  2
STANDARD
 70
     0
 40
0.0
 41
0.8
 50
0.0
 71
     0
 42
84.17508417508416
  3
TXT
  4
bigfont.shx
  0
STYLE
  5
63
330
3
100
AcDbSymbolTableRecord
100
AcDbTextStyleTableRecord
  2
AD-STANDARD
 70
     0
 40
0.0
 41
0.8
 50
0.0
 71
     0
 42
3.5
  3
C:\Program Files\AutoCAD LT\romans.shx
  4
bigfont.shx
  0
ENDTAB
  0
TABLE
  2
VIEW
  5
6
330
0
100
AcDbSymbolTable
 70
     0
  0
ENDTAB
  0
TABLE
  2
UCS
  5
7
330
0
100
AcDbSymbolTable
 70
     0
  0
ENDTAB
  0
TABLE
  2
APPID
  5
9
330
0
100
AcDbSymbolTable
 70
     5
  0
APPID
  5
11
330
9
100
AcDbSymbolTableRecord
100
AcDbRegAppTableRecord
  2
ACAD
 70
     0
  0
APPID
  5
22A
330
9
100
AcDbSymbolTableRecord
100
AcDbRegAppTableRecord
  2
CONTENTTABDATA
 70
     0
  0
APPID
  5
22B
330
9
100
AcDbSymbolTableRecord
100
AcDbRegAppTableRecord
  2
CONTENTCURRENTTAB
 70
     0
  0
APPID
  5
232
330
9
100
AcDbSymbolTableRecord
100
AcDbRegAppTableRecord
  2
CONTENTBLOCKDESCRIPTION
 70
     0
  0
APPID
  5
233
330
9
100
AcDbSymbolTableRecord
100
AcDbRegAppTableRecord
  2
CONTENTBLOCKICON
 70
     0
  0
ENDTAB
  0
TABLE
  2
DIMSTYLE
  5
A
330
0
100
AcDbSymbolTable
 70
     2
100
AcDbDimStyleTable
 71
     1
340
1D
  0
DIMSTYLE
105
1D
330
A
100
AcDbSymbolTableRecord
100
AcDbDimStyleTableRecord
  2
STANDARD
 70
     0
340
10
  0
ENDTAB
  0
TABLE
  2
BLOCK_RECORD
  5
1
330
0
100
AcDbSymbolTable
 70
    26
  0
BLOCK_RECORD
  5
1A
330
1
100
AcDbSymbolTableRecord
100
AcDbBlockTableRecord
  2
*MODEL_SPACE
340
2C4
  0
BLOCK_RECORD
  5
17
330
1
100
AcDbSymbolTableRecord
100
AcDbBlockTableRecord
  2
*PAPER_SPACE
340
2C5
  0
ENDTAB
  0
ENDSEC
  0
SECTION
  2
BLOCKS
  0
BLOCK
  5
1B
330
1A
100
AcDbEntity
  8
0
100
AcDbBlockBegin
  2
*MODEL_SPACE
 70
     0
 10
0.0
 20
0.0
 30
0.0
  3
*MODEL_SPACE
  1

  0
ENDBLK
  5
1C
330
1A
100
AcDbEntity
  8
0
100
AcDbBlockEnd
  0
BLOCK
  5
18
330
17
100
AcDbEntity
 67
     1
  8
0
100
AcDbBlockBegin
  2
*PAPER_SPACE
 70
     0
 10
0.0
 20
0.0
 30
0.0
  3
*PAPER_SPACE
  1

  0
ENDBLK
  5
19
330
17
100
AcDbEntity
 67
     1
  8
0
100
AcDbBlockEnd
  0
ENDSEC
  0
SECTION
  2
ENTITIES
  0
LINE
  5
84C
330
1A
100
AcDbEntity
  8
1
100
AcDbLine
 10
240.0860597897899
 20
244.2800576785966
 30
0.0
 11
232.086059789789
 21
244.2800576785966
 31
0.0
  0
LINE
  5
84D
330
1A
100
AcDbEntity
  8
1
100
AcDbLine
 10
240.0860597897899
 20
164.2800576785948
 30
0.0
 11
232.086059789789
 21
164.2800576785948
 31
0.0
  0
LINE
  5
84E
330
1A
100
AcDbEntity
  8
1
100
AcDbLine
 10
240.086059789789
 20
119.483753741998
 30
0.0
 11
229.086059789789
 21
119.4837537419989
 31
0.0
  0
LINE
  5
84F
330
1A
100
AcDbEntity
  8
1
100
AcDbLine
 10
240.086059789789
 20
73.48375374199623
 30
0.0
 11
229.086059789789
 21
73.48375374199531
 31
0.0
  0
LINE
  5
852
330
1A
100
AcDbEntity
  8
CENTER
100
AcDbLine
 10
135.7242670197702
 20
96.48375374199714
 30
0.0
 11
20.42776652302472
 21
96.48375374199714
 31
0.0
  0
LINE
  5
853
330
1A
100
AcDbEntity
  8
CENTER
100
AcDbLine
 10
306.2390819475704
 20
204.2800576785957
 30
0.0
 11
17.93617536701731
 21
204.2800576785957
 31
0.0
  0
LINE
  5
856
330
1A
100
AcDbEntity
  8
1
100
AcDbLine
 10
96.5680018036228
 20
79.98375374199622
 30
0.0
 11
101.9680018036224
 21
79.98375374199622
 31
0.0
  0
LINE
  5
857
330
1A
100
AcDbEntity
  8
1
100
AcDbLine
 10
96.5680018036228
 20
112.9837537419962
 30
0.0
 11
101.9680018036224
 21
112.9837537419962
 31
0.0
  0
ARC
  5
858
330
1A
100
AcDbEntity
  8
1
100
AcDbCircle
 10
88.2685916840237
 20
80.89529647387463
 30
0.0
 40
8.29941011959649
100
AcDbArc
 50
338.5026913532688
 51
21.49730864679872
  0
ARC
  5
859
330
1A
100
AcDbEntity
  8
1
100
AcDbCircle
 10
63.26741192321787
 20
80.89529647387463
 30
0.0
 40
8.29941011959649
100
AcDbArc
 50
158.5026913532012
 51
201.4973086467311
  0
LINE
  5
85A
330
1A
100
AcDbEntity
  8
1
100
AcDbLine
 10
54.96800180362242
 20
79.98375374199622
 30
0.0
 11
54.96800180362152
 21
112.9837537419962
 31
0.0
  0
LINE
  5
85B
330
1A
100
AcDbEntity
  8
1
100
AcDbLine
 10
96.56800180362189
 20
78.48375374199441
 30
0.0
 11
96.5680018036237
 21
114.4837537419971
 31
0.0
  0
LINE
  5
85C
330
1A
100
AcDbEntity
  8
1
100
AcDbLine
 10
54.96800180362152
 20
114.4837537419971
 30
0.0
 11
54.96800180362152
 21
78.48375374199713
 31
0.0
  0
LINE
  5
85D
330
1A
100
AcDbEntity
  8
1
100
AcDbLine
 10
55.54535207281332
 20
77.48375374199622
 30
0.0
 11
95.9906515344319
 21
77.48375374199622
 31
0.0
  0
LINE
  5
85E
330
1A
100
AcDbEntity
  8
1
100
AcDbLine
 10
55.54535207281151
 20
77.85391520872599
 30
0.0
 11
95.9906515344328
 21
77.8539152087269
 31
0.0
  0
LINE
  5
85F
330
1A
100
AcDbEntity
  8
1
100
AcDbLine
 10
55.54535207281151
 20
77.85391520872599
 30
0.0
 11
55.54535207281332
 21
77.48375374199622
 31
0.0
  0
LINE
  5
860
330
1A
100
AcDbEntity
  8
1
100
AcDbLine
 10
54.96800180362152
 20
78.48375374199713
 30
0.0
 11
55.54535207281242
 21
77.48375374199714
 31
0.0
  0
LINE
  5
861
330
1A
100
AcDbEntity
  8
1
100
AcDbLine
 10
95.99065153443097
 20
77.8539152087269
 30
0.0
 11
95.9906515344319
 21
77.48375374199622
 31
0.0
  0
LINE
  5
862
330
1A
100
AcDbEntity
  8
1
100
AcDbLine
 10
96.5680018036237
 20
78.48375374199713
 30
0.0
 11
95.9906515344328
 21
77.48375374199714
 31
0.0
  0
LINE
  5
863
330
1A
100
AcDbEntity
  8
1
100
AcDbLine
 10
45.06800180362279
 20
99.98375374199714
 30
0.0
 11
28.73307208751703
 21
99.98375374199714
 31
0.0
  0
LINE
  5
864
330
1A
100
AcDbEntity
  8
1
100
AcDbLine
 10
45.06800180362279
 20
92.98375374199713
 30
0.0
 11
28.73307208751703
 21
92.98375374199713
 31
0.0
  0
LINE
  5
865
330
1A
100
AcDbEntity
  8
1
100
AcDbLine
 10
55.54535207281242
 20
115.483753741998
 30
0.0
 11
95.9906515344328
 21
115.4837537419971
 31
0.0
  0
LINE
  5
866
330
1A
100
AcDbEntity
  8
1
100
AcDbLine
 10
55.5453520728106
 20
115.1135922752646
 30
0.0
 11
95.9906515344319
 21
115.1135922752646
 31
0.0
  0
LINE
  5
867
330
1A
100
AcDbEntity
  8
1
100
AcDbLine
 10
55.5453520728106
 20
83.93667773902416
 30
0.0
 11
95.9906515344319
 21
83.93667773902325
 31
0.0
  0
LINE
  5
868
330
1A
100
AcDbEntity
  8
1
100
AcDbLine
 10
55.54535207281151
 20
90.40099121169896
 30
0.0
 11
95.9906515344328
 21
90.40099121169896
 31
0.0
  0
LINE
  5
869
330
1A
100
AcDbEntity
  8
1
100
AcDbLine
 10
55.5453520728106
 20
102.566516272298
 30
0.0
 11
95.9906515344319
 21
102.5665162722971
 31
0.0
  0
LINE
  5
86A
330
1A
100
AcDbEntity
  8
1
100
AcDbLine
 10
55.54535207281151
 20
109.0308297449682
 30
0.0
 11
95.9906515344319
 21
109.0308297449682
 31
0.0
  0
LINE
  5
86B
330
1A
100
AcDbEntity
  8
1
100
AcDbLine
 10
54.56800180362279
 20
102.1018050055572
 30
0.0
 11
54.56800180362279
 21
90.86570247843519
 31
0.0
  0
LINE
  5
86C
330
1A
100
AcDbEntity
  8
1
100
AcDbLine
 10
45.06800180362279
 20
83.23375374199622
 30
0.0
 11
45.06800180362279
 21
109.7337537419953
 31
0.0
  0
LINE
  5
86D
330
1A
100
AcDbEntity
  8
1
 62
     9
100
AcDbLine
 10
54.56800180362279
 20
102.1018050055572
 30
0.0
 11
45.06800180362279
 21
90.86570247843519
 31
0.0
  0
LINE
  5
86E
330
1A
100
AcDbEntity
  8
1
 62
     9
100
AcDbLine
 10
45.06800180362279
 20
102.1018050055572
 30
0.0
 11
54.56800180362279
 21
90.86570247843519
 31
0.0
  0
ARC
  5
86F
330
1A
100
AcDbEntity
  8
1
100
AcDbCircle
 10
87.29961687828472
 20
96.48375374199805
 30
0.0
 40
32.33161507466238
100
AcDbArc
 50
169.1559374363017
 51
190.8440625636982
  0
LINE
  5
870
330
1A
100
AcDbEntity
  8
1
100
AcDbLine
 10
45.06800180362279
 20
83.23375374199622
 30
0.0
 11
54.96800180362334
 21
83.23375374199622
 31
0.0
  0
LINE
  5
871
330
1A
100
AcDbEntity
  8
1
100
AcDbLine
 10
54.56800180362279
 20
90.86570247843519
 30
0.0
 11
45.06800180362279
 21
90.86570247843519
 31
0.0
  0
LINE
  5
872
330
1A
100
AcDbEntity
  8
1
100
AcDbLine
 10
55.54535207281151
 20
90.40099121169896
 30
0.0
 11
55.54535207281151
 21
83.93667773902416
 31
0.0
  0
LINE
  5
873
330
1A
100
AcDbEntity
  8
1
100
AcDbLine
 10
45.06800180362279
 20
102.1018050055572
 30
0.0
 11
54.56800180362279
 21
102.1018050055572
 31
0.0
  0
LINE
  5
874
330
1A
100
AcDbEntity
  8
1
100
AcDbLine
 10
45.06800180362279
 20
109.7337537419962
 30
0.0
 11
54.96800180362152
 21
109.7337537419962
 31
0.0
  0
LINE
  5
875
330
1A
100
AcDbEntity
  8
1
100
AcDbLine
 10
55.54535207281242
 20
115.483753741998
 30
0.0
 11
55.54535207281151
 21
115.1135922752646
 31
0.0
  0
LINE
  5
876
330
1A
100
AcDbEntity
  8
1
100
AcDbLine
 10
54.96800180362152
 20
114.4837537419971
 30
0.0
 11
55.54535207281242
 21
115.4837537419971
 31
0.0
  0
LINE
  5
877
330
1A
100
AcDbEntity
  8
1
100
AcDbLine
 10
55.54535207281151
 20
109.0308297449682
 30
0.0
 11
55.5453520728106
 21
102.566516272298
 31
0.0
  0
ARC
  5
878
330
1A
100
AcDbEntity
  8
1
100
AcDbCircle
 10
63.26741192321424
 20
112.072211010116
 30
0.0
 40
8.299410119592771
100
AcDbArc
 50
158.5026913532012
 51
201.4973086467311
  0
ARC
  5
879
330
1A
100
AcDbEntity
  8
1
100
AcDbCircle
 10
64.23638672895686
 20
96.48375374199805
 30
0.0
 40
32.33161507466238
100
AcDbArc
 50
349.1559374363017
 51
10.84406256369821
  0
LINE
  5
87A
330
1A
100
AcDbEntity
  8
1
100
AcDbLine
 10
95.9906515344319
 20
90.40099121169896
 30
0.0
 11
95.9906515344328
 21
83.93667773902325
 31
0.0
  0
LINE
  5
87B
330
1A
100
AcDbEntity
  8
1
100
AcDbLine
 10
95.9906515344328
 20
115.4837537419971
 30
0.0
 11
95.99065153443007
 21
115.1135922752646
 31
0.0
  0
LINE
  5
87C
330
1A
100
AcDbEntity
  8
1
100
AcDbLine
 10
96.5680018036237
 20
114.4837537419971
 30
0.0
 11
95.9906515344328
 21
115.4837537419971
 31
0.0
  0
LINE
  5
87D
330
1A
100
AcDbEntity
  8
1
100
AcDbLine
 10
95.9906515344319
 20
109.0308297449682
 30
0.0
 11
95.9906515344319
 21
102.5665162722971
 31
0.0
  0
ARC
  5
87E
330
1A
100
AcDbEntity
  8
1
100
AcDbCircle
 10
88.26859168402734
 20
112.072211010116
 30
0.0
 40
8.299410119592771
100
AcDbArc
 50
338.5026913532688
 51
21.49730864679872
  0
LINE
  5
87F
330
1A
100
AcDbEntity
  8
1
  6
HIDDEN
100
AcDbLine
 10
219.0860597897917
 20
116.983753741998
 30
0.0
 11
219.0860597897917
 21
73.98375374199713
 31
0.0
  0
LINE
  5
880
330
1A
100
AcDbEntity
  8
1
  6
HIDDEN
100
AcDbLine
 10
205.0860597897917
 20
116.983753741998
 30
0.0
 11
205.0860597897917
 21
73.98375374199713
 31
0.0
  0
LINE
  5
881
330
1A
100
AcDbEntity
  8
1
  6
HIDDEN
100
AcDbLine
 10
194.0860597897899
 20
116.983753741998
 30
0.0
 11
194.0860597897899
 21
73.98375374199713
 31
0.0
  0
LINE
  5
882
330
1A
100
AcDbEntity
  8
1
  6
HIDDEN
100
AcDbLine
 10
180.0860597897899
 20
116.983753741998
 30
0.0
 11
180.0860597897899
 21
73.98375374199713
 31
0.0
  0
LINE
  5
883
330
1A
100
AcDbEntity
  8
1
100
AcDbLine
 10
111.9680018036224
 20
79.98375374199622
 30
0.0
 11
111.9680018036233
 21
112.9837537419962
 31
0.0
  0
ARC
  5
884
330
1A
100
AcDbEntity
  8
1
100
AcDbCircle
 10
103.6685916840269
 20
80.89529647387463
 30
0.0
 40
8.29941011959649
100
AcDbArc
 50
338.5026913532688
 51
21.49730864679872
  0
ARC
  5
885
330
1A
100
AcDbEntity
  8
1
100
AcDbCircle
 10
110.2674119232215
 20
80.89529647387463
 30
0.0
 40
8.29941011959649
100
AcDbArc
 50
158.5026913532012
 51
201.4973086467311
  0
LINE
  5
887
330
1A
100
AcDbEntity
  8
1
100
AcDbLine
 10
111.9680018036233
 20
114.4837537419971
 30
0.0
 11
111.9680018036233
 21
78.48375374199713
 31
0.0
  0
LINE
  5
888
330
1A
100
AcDbEntity
  8
1
100
AcDbLine
 10
101.9680018036233
 20
78.48375374199441
 30
0.0
 11
101.9680018036215
 21
114.4837537419971
 31
0.0
  0
LINE
  5
889
330
1A
100
AcDbEntity
  8
1
100
AcDbLine
 10
115.0860597897908
 20
115.483753741998
 30
0.0
 11
115.0860597897917
 21
77.48375374199622
 31
0.0
  0
LINE
  5
88A
330
1A
100
AcDbEntity
  8
1
100
AcDbLine
 10
131.086059789789
 20
115.483753741998
 30
0.0
 11
131.0860597897908
 21
77.48375374199532
 31
0.0
  0
LINE
  5
88B
330
1A
100
AcDbEntity
  8
1
100
AcDbLine
 10
131.0860597897899
 20
73.98375374199713
 30
0.0
 11
131.0860597897899
 21
116.9837537419971
 31
0.0
  0
LINE
  5
88C
330
1A
100
AcDbEntity
  8
1
100
AcDbLine
 10
225.086059789789
 20
73.98375374199713
 30
0.0
 11
225.086059789789
 21
116.983753741998
 31
0.0
  0
LINE
  5
88D
330
1A
100
AcDbEntity
  8
1
100
AcDbLine
 10
229.086059789789
 20
73.48375374199531
 30
0.0
 11
229.086059789789
 21
119.483753741998
 31
0.0
  0
LINE
  5
88E
330
1A
100
AcDbEntity
  8
CENTER
 62
     9
100
AcDbLine
 10
187.0860597897881
 20
121.7743123589962
 30
0.0
 11
187.0860597897881
 21
65.34969947413265
 31
0.0
  0
LINE
  5
88F
330
1A
100
AcDbEntity
  8
CENTER
 62
     9
100
AcDbLine
 10
212.0860597897899
 20
121.5056208442574
 30
0.0
 11
212.0860597897899
 21
65.34969947413265
 31
0.0
  0
LINE
  5
890
330
1A
100
AcDbEntity
  8
1
100
AcDbLine
 10
226.086059789789
 20
116.9837537419971
 30
0.0
 11
226.086059789789
 21
75.98375374199713
 31
0.0
  0
LINE
  5
891
330
1A
100
AcDbEntity
  8
1
100
AcDbLine
 10
228.0860597897872
 20
118.9837537419971
 30
0.0
 11
228.0860597897872
 21
73.98375374199713
 31
0.0
  0
LINE
  5
893
330
1A
100
AcDbEntity
  8
1
100
AcDbLine
 10
131.0860597897899
 20
73.98375374199713
 30
0.0
 11
225.0860597897899
 21
73.98375374199713
 31
0.0
  0
LINE
  5
894
330
1A
100
AcDbEntity
  8
1
 48
0.2
100
AcDbLine
 10
115.0860597897917
 20
77.48375374199622
 30
0.0
 11
131.086059789789
 21
77.48375374199622
 31
0.0
  0
LINE
  5
895
330
1A
100
AcDbEntity
  8
1
100
AcDbLine
 10
115.0860597897917
 20
77.8539152087269
 30
0.0
 11
131.0860597897908
 21
77.85391520872599
 31
0.0
  0
LINE
  5
896
330
1A
100
AcDbEntity
  8
1
100
AcDbLine
 10
111.9680018036233
 20
78.48375374199713
 30
0.0
 11
115.0860597897908
 21
78.48375374199713
 31
0.0
  0
LINE
  5
897
330
1A
100
AcDbEntity
  8
1
100
AcDbLine
 10
111.3906515344333
 20
77.85391520872599
 30
0.0
 11
102.5453520728124
 21
77.8539152087269
 31
0.0
  0
LINE
  5
898
330
1A
100
AcDbEntity
  8
1
100
AcDbLine
 10
111.3906515344315
 20
77.48375374199622
 30
0.0
 11
102.5453520728133
 21
77.48375374199622
 31
0.0
  0
LINE
  5
899
330
1A
100
AcDbEntity
  8
1
100
AcDbLine
 10
111.9680018036233
 20
78.48375374199713
 30
0.0
 11
111.3906515344324
 21
77.48375374199714
 31
0.0
  0
LINE
  5
89A
330
1A
100
AcDbEntity
  8
1
100
AcDbLine
 10
101.9680018036215
 20
78.48375374199713
 30
0.0
 11
102.5453520728124
 21
77.48375374199714
 31
0.0
  0
LINE
  5
89B
330
1A
100
AcDbEntity
  8
1
100
AcDbLine
 10
102.5453520728142
 20
77.8539152087269
 30
0.0
 11
102.5453520728133
 21
77.48375374199622
 31
0.0
  0
LINE
  5
89C
330
1A
100
AcDbEntity
  8
1
100
AcDbLine
 10
111.3906515344333
 20
77.85391520872599
 30
0.0
 11
111.3906515344315
 21
77.48375374199622
 31
0.0
  0
LINE
  5
89D
330
1A
100
AcDbEntity
  8
1
100
AcDbLine
 10
226.086059789789
 20
75.98375374199713
 30
0.0
 11
228.0860597897872
 21
73.98375374199713
 31
0.0
  0
LINE
  5
89E
330
1A
100
AcDbEntity
  8
1
100
AcDbLine
 10
228.0860597897881
 20
73.98375374199713
 30
0.0
 11
229.086059789789
 21
73.98375374199713
 31
0.0
  0
LINE
  5
89F
330
1A
100
AcDbEntity
  8
1
100
AcDbLine
 10
225.086059789789
 20
77.98375374199713
 30
0.0
 11
225.086059789789
 21
75.98375374199713
 31
0.0
  0
LINE
  5
8A0
330
1A
100
AcDbEntity
  8
1
100
AcDbLine
 10
225.086059789789
 20
75.98375374199713
 30
0.0
 11
226.086059789789
 21
75.98375374199713
 31
0.0
  0
LINE
  5
8A1
330
1A
100
AcDbEntity
  8
1
100
AcDbLine
 10
131.0860597897899
 20
116.9837537419971
 30
0.0
 11
225.0860597897899
 21
116.983753741998
 31
0.0
  0
ARC
  5
8A2
330
1A
100
AcDbEntity
  8
1
100
AcDbCircle
 10
79.63638672896014
 20
96.48375374199805
 30
0.0
 40
32.33161507466238
100
AcDbArc
 50
349.1559374363017
 51
10.84406256369821
  0
ARC
  5
8A3
330
1A
100
AcDbEntity
  8
1
100
AcDbCircle
 10
134.2996168782883
 20
96.48375374199805
 30
0.0
 40
32.33161507466238
100
AcDbArc
 50
169.1559374363017
 51
190.8440625636982
  0
LINE
  5
8A4
330
1A
100
AcDbEntity
  8
1
100
AcDbLine
 10
115.0860597897908
 20
90.40099121169896
 30
0.0
 11
131.086059789789
 21
90.40099121169987
 31
0.0
  0
LINE
  5
8A5
330
1A
100
AcDbEntity
  8
1
100
AcDbLine
 10
115.0860597897917
 20
83.93667773902325
 30
0.0
 11
131.0860597897899
 21
83.93667773902325
 31
0.0
  0
LINE
  5
8A6
330
1A
100
AcDbEntity
  8
1
100
AcDbLine
 10
111.3906515344333
 20
90.40099121169896
 30
0.0
 11
102.5453520728124
 21
90.40099121169896
 31
0.0
  0
LINE
  5
8A7
330
1A
100
AcDbEntity
  8
1
100
AcDbLine
 10
111.3906515344342
 20
83.93667773902416
 30
0.0
 11
102.5453520728133
 21
83.93667773902325
 31
0.0
  0
LINE
  5
8A8
330
1A
100
AcDbEntity
  8
1
100
AcDbLine
 10
111.3906515344333
 20
90.40099121169896
 30
0.0
 11
111.3906515344333
 21
83.93667773902416
 31
0.0
  0
LINE
  5
8A9
330
1A
100
AcDbEntity
  8
1
100
AcDbLine
 10
102.5453520728133
 20
90.40099121169896
 30
0.0
 11
102.5453520728124
 21
83.93667773902325
 31
0.0
  0
LINE
  5
8AA
330
1A
100
AcDbEntity
  8
1
 48
0.2
100
AcDbLine
 10
115.0860597897917
 20
115.483753741998
 30
0.0
 11
131.086059789789
 21
115.483753741998
 31
0.0
  0
LINE
  5
8AB
330
1A
100
AcDbEntity
  8
1
100
AcDbLine
 10
115.0860597897908
 20
115.1135922752646
 30
0.0
 11
131.086059789789
 21
115.1135922752646
 31
0.0
  0
LINE
  5
8AC
330
1A
100
AcDbEntity
  8
1
100
AcDbLine
 10
115.0860597897899
 20
109.0308297449682
 30
0.0
 11
131.086059789789
 21
109.0308297449682
 31
0.0
  0
LINE
  5
8AD
330
1A
100
AcDbEntity
  8
1
100
AcDbLine
 10
115.0860597897908
 20
102.5665162722971
 30
0.0
 11
131.086059789789
 21
102.5665162722971
 31
0.0
  0
LINE
  5
8AE
330
1A
100
AcDbEntity
  8
1
100
AcDbLine
 10
111.9680018036233
 20
114.4837537419971
 30
0.0
 11
115.0860597897908
 21
114.4837537419971
 31
0.0
  0
LINE
  5
8AF
330
1A
100
AcDbEntity
  8
1
100
AcDbLine
 10
111.3906515344324
 20
115.483753741998
 30
0.0
 11
102.5453520728124
 21
115.4837537419971
 31
0.0
  0
LINE
  5
8B0
330
1A
100
AcDbEntity
  8
1
100
AcDbLine
 10
111.3906515344342
 20
115.1135922752646
 30
0.0
 11
102.5453520728133
 21
115.1135922752646
 31
0.0
  0
LINE
  5
8B1
330
1A
100
AcDbEntity
  8
1
100
AcDbLine
 10
111.9680018036233
 20
114.4837537419971
 30
0.0
 11
111.3906515344324
 21
115.4837537419971
 31
0.0
  0
LINE
  5
8B2
330
1A
100
AcDbEntity
  8
1
100
AcDbLine
 10
101.9680018036215
 20
114.4837537419971
 30
0.0
 11
102.5453520728124
 21
115.4837537419971
 31
0.0
  0
LINE
  5
8B3
330
1A
100
AcDbEntity
  8
1
100
AcDbLine
 10
111.3906515344324
 20
115.483753741998
 30
0.0
 11
111.3906515344333
 21
115.1135922752646
 31
0.0
  0
LINE
  5
8B4
330
1A
100
AcDbEntity
  8
1
100
AcDbLine
 10
102.5453520728124
 20
115.4837537419971
 30
0.0
 11
102.5453520728151
 21
115.1135922752646
 31
0.0
  0
LINE
  5
8B5
330
1A
100
AcDbEntity
  8
1
100
AcDbLine
 10
111.3906515344333
 20
109.0308297449682
 30
0.0
 11
102.5453520728133
 21
109.0308297449682
 31
0.0
  0
LINE
  5
8B6
330
1A
100
AcDbEntity
  8
1
100
AcDbLine
 10
111.3906515344342
 20
102.566516272298
 30
0.0
 11
102.5453520728133
 21
102.5665162722971
 31
0.0
  0
LINE
  5
8B7
330
1A
100
AcDbEntity
  8
1
100
AcDbLine
 10
111.3906515344333
 20
109.0308297449682
 30
0.0
 11
111.3906515344342
 21
102.566516272298
 31
0.0
  0
LINE
  5
8B8
330
1A
100
AcDbEntity
  8
1
100
AcDbLine
 10
102.5453520728133
 20
109.0308297449682
 30
0.0
 11
102.5453520728133
 21
102.5665162722971
 31
0.0
  0
ARC
  5
8B9
330
1A
100
AcDbEntity
  8
1
100
AcDbCircle
 10
103.6685916840306
 20
112.072211010116
 30
0.0
 40
8.299410119592771
100
AcDbArc
 50
338.5026913532688
 51
21.49730864679872
  0
ARC
  5
8BA
330
1A
100
AcDbEntity
  8
1
100
AcDbCircle
 10
110.2674119232178
 20
112.072211010116
 30
0.0
 40
8.299410119592771
100
AcDbArc
 50
158.5026913532012
 51
201.4973086467311
  0
LINE
  5
8BB
330
1A
100
AcDbEntity
  8
1
100
AcDbLine
 10
225.086059789789
 20
114.9837537419971
 30
0.0
 11
225.086059789789
 21
116.9837537419971
 31
0.0
  0
LINE
  5
8BC
330
1A
100
AcDbEntity
  8
1
100
AcDbLine
 10
226.086059789789
 20
116.9837537419971
 30
0.0
 11
228.0860597897872
 21
118.9837537419971
 31
0.0
  0
LINE
  5
8BD
330
1A
100
AcDbEntity
  8
1
100
AcDbLine
 10
228.0860597897881
 20
118.9837537419971
 30
0.0
 11
229.086059789789
 21
118.9837537419971
 31
0.0
  0
LINE
  5
8BE
330
1A
100
AcDbEntity
  8
1
100
AcDbLine
 10
225.086059789789
 20
116.9837537419971
 30
0.0
 11
226.086059789789
 21
116.9837537419971
 31
0.0
  0
LINE
  5
8BF
330
1A
100
AcDbEntity
  8
1
100
AcDbLine
 10
96.56799338504152
 20
220.7800576785948
 30
0.0
 11
101.9679933850411
 21
220.7800576785948
 31
0.0
  0
LINE
  5
8C0
330
1A
100
AcDbEntity
  8
1
100
AcDbLine
 10
96.56799338504152
 20
187.7800576785948
 30
0.0
 11
101.9679933850411
 21
187.7800576785948
 31
0.0
  0
LINE
  5
8C1
330
1A
100
AcDbEntity
  8
1
100
AcDbLine
 10
96.56799338504152
 20
186.2800576785957
 30
0.0
 11
96.56799338504152
 21
222.2800576785957
 31
0.0
  0
ARC
  5
8C2
330
1A
100
AcDbEntity
  8
1
100
AcDbCircle
 10
72.24745950455417
 20
213.2800576785975
 30
0.0
 40
24.32053388048727
100
AcDbArc
 50
347.4905891078892
 51
12.50941089211071
  0
ARC
  5
8C3
330
1A
100
AcDbEntity
  8
1
100
AcDbCircle
 10
79.28921969389921
 20
213.2800576785967
 30
0.0
 40
24.32122630885832
100
AcDbArc
 50
167.4909510210406
 51
192.5090489789593
  0
LINE
  5
8C4
330
1A
100
AcDbEntity
  8
1
100
AcDbLine
 10
54.96799338504115
 20
222.2800576785957
 30
0.0
 11
54.96799338504115
 21
186.2800576785957
 31
0.0
  0
LINE
  5
8C5
330
1A
100
AcDbEntity
  8
1
100
AcDbLine
 10
45.06799338504151
 20
200.7800576785957
 30
0.0
 11
28.73306366893575
 21
200.7800576785957
 31
0.0
  0
LINE
  5
8C6
330
1A
100
AcDbEntity
  8
1
100
AcDbLine
 10
45.06799338504151
 20
207.7800576785957
 30
0.0
 11
28.73306366893575
 21
207.7800576785957
 31
0.0
  0
LINE
  5
8C7
330
1A
100
AcDbEntity
  8
1
100
AcDbLine
 10
95.99063469726752
 20
190.0122308021764
 30
0.0
 11
55.54533523565078
 21
190.0122308021764
 31
0.0
  0
LINE
  5
8C8
330
1A
100
AcDbEntity
  8
1
100
AcDbLine
 10
95.99063469726752
 20
200.5478845550141
 30
0.0
 11
55.54533523565078
 21
200.5478845550151
 31
0.0
  0
LINE
  5
8C9
330
1A
100
AcDbEntity
  8
1
100
AcDbLine
 10
95.99063469726752
 20
208.0122308021655
 30
0.0
 11
55.54533523565078
 21
208.0122308021655
 31
0.0
  0
LINE
  5
8CA
330
1A
100
AcDbEntity
  8
1
100
AcDbLine
 10
96.56799338504152
 20
186.2800576785957
 30
0.0
 11
54.96799338504115
 21
186.2800576785957
 31
0.0
  0
LINE
  5
8CB
330
1A
100
AcDbEntity
  8
1
100
AcDbLine
 10
55.54533523564987
 20
200.5478845550151
 30
0.0
 11
55.54533523564987
 21
208.0122308021655
 31
0.0
  0
LINE
  5
8CC
330
1A
100
AcDbEntity
  8
1
100
AcDbLine
 10
45.06799338504061
 20
192.2800576785957
 30
0.0
 11
45.06799338504151
 21
216.2800576785957
 31
0.0
  0
LINE
  5
8CD
330
1A
100
AcDbEntity
  8
1
100
AcDbLine
 10
45.06799338504151
 20
192.2800576785957
 30
0.0
 11
54.56799338504151
 21
192.2800576785957
 31
0.0
  0
LINE
  5
8CE
330
1A
100
AcDbEntity
  8
1
100
AcDbLine
 10
54.56799338504151
 20
191.0300576785948
 30
0.0
 11
54.96799338504207
 21
191.0300576785948
 31
0.0
  0
LINE
  5
8CF
330
1A
100
AcDbEntity
  8
1
100
AcDbLine
 10
55.54533523564987
 20
186.2800576785957
 30
0.0
 11
55.54533523564896
 21
190.0122308021782
 31
0.0
  0
ARC
  5
8D0
330
1A
100
AcDbEntity
  8
1
100
AcDbCircle
 10
79.28921969379917
 20
195.2800576785966
 30
0.0
 40
24.32122630875789
100
AcDbArc
 50
167.4909510210406
 51
192.5090489789593
  0
LINE
  5
8D1
330
1A
100
AcDbEntity
  8
1
100
AcDbLine
 10
54.56799338504151
 20
192.2800576785957
 30
0.0
 11
54.56799338504151
 21
191.0300576785948
 31
0.0
  0
LINE
  5
8D2
330
1A
100
AcDbEntity
  8
1
100
AcDbLine
 10
45.06799338504151
 20
216.2800576785957
 30
0.0
 11
54.56799338504151
 21
216.2800576785957
 31
0.0
  0
LINE
  5
8D3
330
1A
100
AcDbEntity
  8
1
100
AcDbLine
 10
54.56799338504151
 20
217.5300576785948
 30
0.0
 11
54.96799338504025
 21
217.5300576785948
 31
0.0
  0
LINE
  5
8D4
330
1A
100
AcDbEntity
  8
1
100
AcDbLine
 10
54.56799338504151
 20
217.5300576785948
 30
0.0
 11
54.56799338504151
 21
216.2800576785957
 31
0.0
  0
LINE
  5
8D5
330
1A
100
AcDbEntity
  8
1
100
AcDbLine
 10
95.99063469726752
 20
200.5478845550151
 30
0.0
 11
95.99063469726752
 21
208.0122308021655
 31
0.0
  0
LINE
  5
8D6
330
1A
100
AcDbEntity
  8
1
100
AcDbLine
 10
95.99063469726843
 20
186.2800576785957
 30
0.0
 11
95.99063469726752
 21
190.0122308021773
 31
0.0
  0
ARC
  5
8D7
330
1A
100
AcDbEntity
  8
1
100
AcDbCircle
 10
72.24745950466331
 20
195.2800576785957
 30
0.0
 40
24.32053388037816
100
AcDbArc
 50
347.4905891078384
 51
12.50941089216158
  0
LINE
  5
8D8
330
1A
100
AcDbEntity
  8
1
100
AcDbLine
 10
95.99063469726752
 20
218.5478845550287
 30
0.0
 11
55.54533523565078
 21
218.5478845550278
 31
0.0
  0
LINE
  5
8D9
330
1A
100
AcDbEntity
  8
1
100
AcDbLine
 10
96.56799338504152
 20
222.2800576785957
 30
0.0
 11
54.96799338504115
 21
222.2800576785957
 31
0.0
  0
LINE
  5
8DA
330
1A
100
AcDbEntity
  8
1
100
AcDbLine
 10
55.54533523565078
 20
218.5478845550278
 30
0.0
 11
55.54533523564987
 21
222.2800576785957
 31
0.0
  0
LINE
  5
8DB
330
1A
100
AcDbEntity
  8
1
100
AcDbLine
 10
95.99063469726752
 20
218.5478845550278
 30
0.0
 11
95.99063469726752
 21
222.2800576785957
 31
0.0
  0
LINE
  5
8DE
330
1A
100
AcDbEntity
  8
1
100
AcDbLine
 10
225.0860597897899
 20
182.7800576785957
 30
0.0
 11
225.0860597897899
 21
225.7800576785957
 31
0.0
  0
LINE
  5
8DF
330
1A
100
AcDbEntity
  8
1
100
AcDbLine
 10
229.0860597897899
 20
167.2800576785957
 30
0.0
 11
229.0860597897899
 21
241.2800576785966
 31
0.0
  0
LINE
  5
8E0
330
1A
100
AcDbEntity
  8
1
100
AcDbLine
 10
226.0860597897899
 20
225.7800576785957
 30
0.0
 11
226.0860597897899
 21
182.7800576785957
 31
0.0
  0
LINE
  5
8E1
330
1A
100
AcDbEntity
  8
1
100
AcDbLine
 10
228.0860597897881
 20
227.7800576785957
 30
0.0
 11
228.0860597897881
 21
180.7800576785957
 31
0.0
  0
LINE
  5
8E2
330
1A
100
AcDbEntity
  8
1
100
AcDbLine
 10
232.0860597897908
 20
244.2800576785966
 30
0.0
 11
232.0860597897908
 21
164.2800576785948
 31
0.0
  0
LINE
  5
8E3
330
1A
100
AcDbEntity
  8
1
100
AcDbLine
 10
111.967993385042
 20
222.2800576785957
 30
0.0
 11
111.967993385042
 21
186.2800576785957
 31
0.0
  0
LINE
  5
8E4
330
1A
100
AcDbEntity
  8
1
100
AcDbLine
 10
101.9679933850411
 20
186.2800576785957
 30
0.0
 11
101.9679933850411
 21
222.2800576785957
 31
0.0
  0
LINE
  5
8E5
330
1A
100
AcDbEntity
  8
1
100
AcDbLine
 10
131.0860513712086
 20
182.7800576785957
 30
0.0
 11
131.0860513712086
 21
225.7800576785957
 31
0.0
  0
LINE
  5
8E6
330
1A
100
AcDbEntity
  8
1
100
AcDbLine
 10
131.0860513712077
 20
223.2800576785966
 30
0.0
 11
131.0860513712095
 21
185.2800576785939
 31
0.0
  0
LINE
  5
8E7
330
1A
100
AcDbEntity
  8
1
100
AcDbLine
 10
115.0860513712095
 20
222.2800576785957
 30
0.0
 11
115.0860513712104
 21
186.2800576785957
 31
0.0
  0
ARC
  5
8E8
330
1A
100
AcDbEntity
  8
1
100
AcDbCircle
 10
87.646767076184
 20
213.2800576785967
 30
0.0
 40
24.32122630885832
100
AcDbArc
 50
347.4909510210406
 51
12.50904897895936
  0
ARC
  5
8E9
330
1A
100
AcDbEntity
  8
1
100
AcDbCircle
 10
126.2885272655285
 20
213.2800576785975
 30
0.0
 40
24.32053388048727
100
AcDbArc
 50
167.4905891078892
 51
192.5094108921107
  0
LINE
  5
8EC
330
1A
100
AcDbEntity
  8
1
100
AcDbLine
 10
131.0860597897899
 20
182.7800576785957
 30
0.0
 11
225.0860597897899
 21
182.7800576785966
 31
0.0
  0
LINE
  5
8EE
330
1A
100
AcDbEntity
  8
1
100
AcDbLine
 10
111.3906515344333
 20
200.5478845550151
 30
0.0
 11
111.3906515344333
 21
208.0122308021655
 31
0.0
  0
LINE
  5
8EF
330
1A
100
AcDbEntity
  8
1
100
AcDbLine
 10
102.5453520728151
 20
200.5478845550151
 30
0.0
 11
102.5453520728151
 21
208.0122308021655
 31
0.0
  0
LINE
  5
8F0
330
1A
100
AcDbEntity
  8
1
100
AcDbLine
 10
115.0860513712104
 20
186.2800576785966
 30
0.0
 11
131.0860513712095
 21
186.2800576785957
 31
0.0
  0
LINE
  5
8F1
330
1A
100
AcDbEntity
  8
1
100
AcDbLine
 10
115.0860513712086
 20
190.0122308021718
 30
0.0
 11
131.0860513712095
 21
190.0122308021718
 31
0.0
  0
LINE
  5
8F2
330
1A
100
AcDbEntity
  8
1
100
AcDbLine
 10
115.0860513712095
 20
200.5478845550214
 30
0.0
 11
131.0860513712086
 21
200.5478845550214
 31
0.0
  0
LINE
  5
8F3
330
1A
100
AcDbEntity
  8
1
100
AcDbLine
 10
102.5453520728151
 20
200.5478845550141
 30
0.0
 11
111.3906515344324
 21
200.5478845550151
 31
0.0
  0
LINE
  5
8F4
330
1A
100
AcDbEntity
  8
1
100
AcDbLine
 10
111.967993385042
 20
186.2800576785957
 30
0.0
 11
115.0860513712095
 21
186.2800576785957
 31
0.0
  0
LINE
  5
8F5
330
1A
100
AcDbEntity
  8
1
100
AcDbLine
 10
102.5453520728151
 20
190.0122308021764
 30
0.0
 11
111.3906515344324
 21
190.0122308021764
 31
0.0
  0
LINE
  5
8F6
330
1A
100
AcDbEntity
  8
1
100
AcDbLine
 10
101.9679933850411
 20
186.2800576785957
 30
0.0
 11
111.967993385042
 21
186.2800576785957
 31
0.0
  0
LINE
  5
8F7
330
1A
100
AcDbEntity
  8
1
100
AcDbLine
 10
111.3906515344333
 20
186.2800576785957
 30
0.0
 11
111.3906515344342
 21
190.0122308021782
 31
0.0
  0
LINE
  5
8F8
330
1A
100
AcDbEntity
  8
1
100
AcDbLine
 10
102.5453520728142
 20
186.2800576785957
 30
0.0
 11
102.5453520728151
 21
190.0122308021773
 31
0.0
  0
ARC
  5
8F9
330
1A
100
AcDbEntity
  8
1
100
AcDbCircle
 10
87.64676707628405
 20
195.2800576785966
 30
0.0
 40
24.32122630875789
100
AcDbArc
 50
347.4909510210406
 51
12.50904897895936
  0
ARC
  5
8FA
330
1A
100
AcDbEntity
  8
1
100
AcDbCircle
 10
126.2885272654193
 20
195.2800576785957
 30
0.0
 40
24.32053388037816
100
AcDbArc
 50
167.4905891078384
 51
192.5094108921615
  0
LINE
  5
8FB
330
1A
100
AcDbEntity
  8
1
100
AcDbLine
 10
115.0860513712095
 20
208.0122308021691
 30
0.0
 11
131.0860513712086
 21
208.0122308021682
 31
0.0
  0
LINE
  5
8FC
330
1A
100
AcDbEntity
  8
1
100
AcDbLine
 10
102.5453520728151
 20
208.0122308021655
 30
0.0
 11
111.3906515344324
 21
208.0122308021655
 31
0.0
  0
MTEXT
  5
8FE
102
{ACAD_REACTORS
330
8FD
102
}
330
1A
100
AcDbEntity
  8
MEASURE
 62
     2
100
AcDbMText
 10
5034.411669941274
 20
5022.749661921313
 30
0.0
 40
7.0
 41
20.0
 71
     9
 72
     1
  1

  7
AD-STANDARD
 73
     1
 44
1.0
  0
LINE
  5
8FF
330
1A
100
AcDbEntity
  8
1
100
AcDbLine
 10
225.0860597897899
 20
184.7800576785957
 30
0.0
 11
225.0860597897899
 21
182.7800576785957
 31
0.0
  0
LINE
  5
900
330
1A
100
AcDbEntity
  8
1
100
AcDbLine
 10
232.0860597897899
 20
164.2800576785957
 30
0.0
 11
229.0860597897899
 21
167.2800576785948
 31
0.0
  0
LINE
  5
901
330
1A
100
AcDbEntity
  8
1
100
AcDbLine
 10
226.0860597897899
 20
182.7800576785957
 30
0.0
 11
228.0860597897881
 21
180.7800576785957
 31
0.0
  0
LINE
  5
902
330
1A
100
AcDbEntity
  8
1
100
AcDbLine
 10
228.086059789789
 20
180.7800576785957
 30
0.0
 11
229.0860597897899
 21
180.7800576785957
 31
0.0
  0
LINE
  5
903
330
1A
100
AcDbEntity
  8
1
100
AcDbLine
 10
225.0860597897899
 20
182.7800576785957
 30
0.0
 11
226.0860597897899
 21
182.7800576785957
 31
0.0
  0
CIRCLE
  5
904
330
1A
100
AcDbEntity
  8
1
100
AcDbCircle
 10
187.0860597897899
 20
204.2800576785957
 30
0.0
 40
7.0
  0
LINE
  5
906
330
1A
100
AcDbEntity
  8
CENTER
 62
     9
100
AcDbLine
 10
187.0860597897881
 20
194.3554925041053
 30
0.0
 11
187.0860597897881
 21
213.7972740276072
 31
0.0
  0
CIRCLE
  5
908
330
1A
100
AcDbEntity
  8
1
100
AcDbCircle
 10
212.0860597897899
 20
204.2800576785957
 30
0.0
 40
7.0
  0
LINE
  5
90A
330
1A
100
AcDbEntity
  8
CENTER
 62
     9
100
AcDbLine
 10
212.0860597897899
 20
193.6354264255851
 30
0.0
 11
212.0860597897899
 21
214.2773176471982
 31
0.0
  0
LINE
  5
90C
330
1A
100
AcDbEntity
  8
1
100
AcDbLine
 10
131.0860597897899
 20
225.7800576785957
 30
0.0
 11
225.0860597897899
 21
225.7800576785948
 31
0.0
  0
LINE
  5
90D
330
1A
100
AcDbEntity
  8
1
100
AcDbLine
 10
115.0860513712095
 20
222.2800576785957
 30
0.0
 11
131.0860513712077
 21
222.2800576785957
 31
0.0
  0
LINE
  5
90E
330
1A
100
AcDbEntity
  8
1
100
AcDbLine
 10
115.0860513712086
 20
218.5478845550233
 30
0.0
 11
131.0860513712077
 21
218.5478845550233
 31
0.0
  0
LINE
  5
90F
330
1A
100
AcDbEntity
  8
1
100
AcDbLine
 10
111.967993385042
 20
222.2800576785957
 30
0.0
 11
115.0860513712095
 21
222.2800576785957
 31
0.0
  0
LINE
  5
910
330
1A
100
AcDbEntity
  8
1
100
AcDbLine
 10
102.5453520728151
 20
218.5478845550287
 30
0.0
 11
111.3906515344324
 21
218.5478845550278
 31
0.0
  0
LINE
  5
911
330
1A
100
AcDbEntity
  8
1
100
AcDbLine
 10
101.9679933850411
 20
222.2800576785957
 30
0.0
 11
111.967993385042
 21
222.2800576785957
 31
0.0
  0
LINE
  5
912
330
1A
100
AcDbEntity
  8
1
100
AcDbLine
 10
111.3906515344324
 20
218.5478845550278
 30
0.0
 11
111.3906515344333
 21
222.2800576785957
 31
0.0
  0
LINE
  5
913
330
1A
100
AcDbEntity
  8
1
100
AcDbLine
 10
102.5453520728151
 20
218.5478845550278
 30
0.0
 11
102.5453520728151
 21
222.2800576785957
 31
0.0
  0
LINE
  5
914
330
1A
100
AcDbEntity
  8
1
100
AcDbLine
 10
228.086059789789
 20
227.7800576785957
 30
0.0
 11
229.0860597897899
 21
227.7800576785957
 31
0.0
  0
LINE
  5
915
330
1A
100
AcDbEntity
  8
1
100
AcDbLine
 10
226.0860597897899
 20
225.7800576785957
 30
0.0
 11
228.0860597897881
 21
227.7800576785957
 31
0.0
  0
LINE
  5
916
330
1A
100
AcDbEntity
  8
1
100
AcDbLine
 10
225.0860597897899
 20
223.7800576785957
 30
0.0
 11
225.0860597897899
 21
225.7800576785957
 31
0.0
  0
LINE
  5
917
330
1A
100
AcDbEntity
  8
1
100
AcDbLine
 10
225.0860597897899
 20
225.7800576785957
 30
0.0
 11
226.0860597897899
 21
225.7800576785957
 31
0.0
  0
LINE
  5
918
330
1A
100
AcDbEntity
  8
1
100
AcDbLine
 10
232.0860597897899
 20
244.2800576785957
 30
0.0
 11
229.0860597897899
 21
241.2800576785966
 31
0.0
  0
LINE
  5
91A
330
1A
100
AcDbEntity
  8
1
  6
HIDDEN
 62
     9
100
AcDbLine
 10
294.0860597897881
 20
96.48375374199805
 30
0.0
 11
294.0860597897881
 21
75.98375374199713
 31
0.0
  0
LINE
  5
91B
330
1A
100
AcDbEntity
  8
1
  6
HIDDEN
100
AcDbLine
 10
293.086059789789
 20
95.48375374199986
 30
0.0
 11
293.0860597897872
 21
76.9837537419944
 31
0.0
  0
LINE
  5
91C
330
1A
100
AcDbEntity
  8
1
  6
HIDDEN
100
AcDbLine
 10
283.0860597897881
 20
95.48375374199896
 30
0.0
 11
283.0860597897881
 21
76.98375374199532
 31
0.0
  0
LINE
  5
91D
330
1A
100
AcDbEntity
  8
1
  6
HIDDEN
 62
     9
100
AcDbLine
 10
282.0860597897881
 20
96.48375374199805
 30
0.0
 11
282.0860597897872
 21
75.98375374199713
 31
0.0
  0
LINE
  5
91F
330
1A
100
AcDbEntity
  8
1
100
AcDbLine
 10
301.0860597897917
 20
75.98375374199713
 30
0.0
 11
301.0860597897908
 21
116.983753741998
 31
0.0
  0
LINE
  5
920
330
1A
100
AcDbEntity
  8
CENTER
 62
     9
100
AcDbLine
 10
288.086059789789
 20
67.68089739814058
 30
0.0
 11
288.086059789789
 21
124.5439377366601
 31
0.0
  0
LINE
  5
921
330
1A
100
AcDbEntity
  8
1
100
AcDbLine
 10
273.086059789789
 20
75.98375374199713
 30
0.0
 11
273.086059789789
 21
116.983753741998
 31
0.0
  0
LINE
  5
922
330
1A
100
AcDbEntity
  8
1
100
AcDbLine
 10
269.0860597897908
 20
73.48375374199713
 30
0.0
 11
269.0860597897908
 21
119.483753741998
 31
0.0
  0
LINE
  5
923
330
1A
100
AcDbEntity
  8
1
100
AcDbLine
 10
270.0860597897926
 20
118.9837537419971
 30
0.0
 11
270.0860597897926
 21
73.98375374199713
 31
0.0
  0
LINE
  5
924
330
1A
100
AcDbEntity
  8
1
100
AcDbLine
 10
272.0860597897908
 20
116.9837537419971
 30
0.0
 11
272.0860597897908
 21
75.98375374199713
 31
0.0
  0
LINE
  5
925
330
1A
100
AcDbEntity
  8
1
100
AcDbLine
 10
240.086059789789
 20
118.483753741998
 30
0.0
 11
240.086059789789
 21
74.48375374199622
 31
0.0
  0
LINE
  5
926
330
1A
100
AcDbEntity
  8
1
100
AcDbLine
 10
246.086059789789
 20
118.4837537419971
 30
0.0
 11
246.086059789789
 21
74.48375374199532
 31
0.0
  0
LINE
  5
927
330
1A
100
AcDbEntity
  8
1
100
AcDbLine
 10
252.086059789789
 20
118.4837537419971
 30
0.0
 11
252.086059789789
 21
74.48375374199532
 31
0.0
  0
LINE
  5
928
330
1A
100
AcDbEntity
  8
1
100
AcDbLine
 10
258.086059789789
 20
118.483753741998
 30
0.0
 11
258.086059789789
 21
74.48375374199622
 31
0.0
  0
LINE
  5
929
330
1A
100
AcDbEntity
  8
1
100
AcDbLine
 10
243.086059789789
 20
121.4837537419971
 30
0.0
 11
243.086059789789
 21
71.48375374199713
 31
0.0
  0
LINE
  5
92A
330
1A
100
AcDbEntity
  8
1
100
AcDbLine
 10
249.086059789789
 20
121.4837537419971
 30
0.0
 11
249.086059789789
 21
71.48375374199713
 31
0.0
  0
LINE
  5
92B
330
1A
100
AcDbEntity
  8
1
100
AcDbLine
 10
255.086059789789
 20
121.4837537419971
 30
0.0
 11
255.086059789789
 21
71.48375374199713
 31
0.0
  0
LINE
  5
92C
330
1A
100
AcDbEntity
  8
1
100
AcDbLine
 10
273.086059789789
 20
75.98375374199713
 30
0.0
 11
301.0860597897908
 21
75.98375374199713
 31
0.0
  0
LINE
  5
92D
330
1A
100
AcDbEntity
  8
1
100
AcDbLine
 10
269.0860597897917
 20
73.48375374199713
 30
0.0
 11
258.086059789789
 21
73.48375374199623
 31
0.0
  0
ARC
  5
92E
330
1A
100
AcDbEntity
  8
1
100
AcDbCircle
 10
249.086059789789
 20
71.48375374199713
 30
0.0
 40
2.0
100
AcDbArc
 50
195.2452637187216
 51
344.7547362813287
  0
LINE
  5
92F
330
1A
100
AcDbEntity
  8
1
100
AcDbLine
 10
245.6036552579553
 20
73.11522947233061
 30
0.0
 11
245.015677917122
 21
70.95785082066413
 31
0.0
  0
LINE
  5
930
330
1A
100
AcDbEntity
  8
1
100
AcDbLine
 10
247.156441662456
 20
70.95785082066413
 30
0.0
 11
246.5684643216227
 21
73.11522947233061
 31
0.0
  0
ARC
  5
931
330
1A
100
AcDbEntity
  8
1
100
AcDbCircle
 10
246.086059789789
 20
72.98375374199713
 30
0.0
 40
0.5
100
AcDbArc
 50
15.24526371867132
 51
164.7547362813286
  0
LINE
  5
932
330
1A
100
AcDbEntity
  8
1
100
AcDbLine
 10
241.156441662456
 20
70.95785082066413
 30
0.0
 11
240.5684643216227
 21
73.11522947233061
 31
0.0
  0
ARC
  5
933
330
1A
100
AcDbEntity
  8
1
100
AcDbCircle
 10
240.086059789789
 20
72.98375374199713
 30
0.0
 40
0.5
100
AcDbArc
 50
15.24526371872159
 51
90.0
  0
ARC
  5
934
330
1A
100
AcDbEntity
  8
1
100
AcDbCircle
 10
243.086059789789
 20
71.48375374199713
 30
0.0
 40
2.0
100
AcDbArc
 50
195.2452637187216
 51
344.7547362812784
  0
LINE
  5
935
330
1A
100
AcDbEntity
  8
1
100
AcDbLine
 10
257.015677917122
 20
70.95785082066413
 30
0.0
 11
257.6036552579553
 21
73.11522947233061
 31
0.0
  0
ARC
  5
936
330
1A
100
AcDbEntity
  8
1
100
AcDbCircle
 10
255.086059789789
 20
71.48375374199713
 30
0.0
 40
2.0
100
AcDbArc
 50
195.2452637187216
 51
344.7547362812784
  0
LINE
  5
937
330
1A
100
AcDbEntity
  8
1
100
AcDbLine
 10
251.015677917122
 20
70.95785082066413
 30
0.0
 11
251.6036552579553
 21
73.11522947233061
 31
0.0
  0
LINE
  5
938
330
1A
100
AcDbEntity
  8
1
100
AcDbLine
 10
252.5684643216227
 20
73.11522947233061
 30
0.0
 11
253.156441662456
 21
70.95785082066413
 31
0.0
  0
ARC
  5
939
330
1A
100
AcDbEntity
  8
1
100
AcDbCircle
 10
252.086059789789
 20
72.98375374199713
 30
0.0
 40
0.5
100
AcDbArc
 50
15.24526371872159
 51
164.7547362812783
  0
ARC
  5
93A
330
1A
100
AcDbEntity
  8
1
100
AcDbCircle
 10
258.086059789789
 20
72.98375374199713
 30
0.0
 40
0.5
100
AcDbArc
 50
90.0
 51
164.7547362813286
  0
LINE
  5
93B
330
1A
100
AcDbEntity
  8
1
  6
HIDDEN
100
AcDbLine
 10
293.086059789789
 20
76.9837537419944
 30
0.0
 11
283.0860597897881
 21
76.98375374199532
 31
0.0
  0
LINE
  5
93C
330
1A
100
AcDbEntity
  8
1
100
AcDbLine
 10
282.0860597897881
 20
75.98375374199623
 30
0.0
 11
283.0860597897863
 21
76.9837537419935
 31
0.0
  0
LINE
  5
93D
330
1A
100
AcDbEntity
  8
1
100
AcDbLine
 10
273.0860597897908
 20
77.98375374199713
 30
0.0
 11
273.0860597897908
 21
75.98375374199713
 31
0.0
  0
LINE
  5
93E
330
1A
100
AcDbEntity
  8
1
100
AcDbLine
 10
272.0860597897908
 20
75.98375374199713
 30
0.0
 11
270.0860597897926
 21
73.98375374199713
 31
0.0
  0
LINE
  5
93F
330
1A
100
AcDbEntity
  8
1
100
AcDbLine
 10
273.0860597897908
 20
75.98375374199713
 30
0.0
 11
272.0860597897908
 21
75.98375374199713
 31
0.0
  0
LINE
  5
940
330
1A
100
AcDbEntity
  8
1
100
AcDbLine
 10
270.0860597897917
 20
73.98375374199713
 30
0.0
 11
269.0860597897908
 21
73.98375374199713
 31
0.0
  0
LINE
  5
941
330
1A
100
AcDbEntity
  8
1
100
AcDbLine
 10
294.0860597897881
 20
75.98375374199623
 30
0.0
 11
293.0860597897899
 21
76.9837537419935
 31
0.0
  0
LINE
  5
942
330
1A
100
AcDbEntity
  8
1
100
AcDbLine
 10
273.086059789789
 20
116.983753741998
 30
0.0
 11
301.0860597897908
 21
116.983753741998
 31
0.0
  0
LINE
  5
943
330
1A
100
AcDbEntity
  8
1
  6
HIDDEN
100
AcDbLine
 10
277.5860597897899
 20
96.48375374199714
 30
0.0
 11
277.586059789789
 21
116.9837537419989
 31
0.0
  0
LINE
  5
944
330
1A
100
AcDbEntity
  8
1
  6
HIDDEN
100
AcDbLine
 10
298.586059789789
 20
96.48375374199714
 30
0.0
 11
298.586059789789
 21
116.983753741998
 31
0.0
  0
LINE
  5
945
330
1A
100
AcDbEntity
  8
1
100
AcDbLine
 10
273.0860597897908
 20
114.9837537419971
 30
0.0
 11
273.0860597897908
 21
116.9837537419971
 31
0.0
  0
LINE
  5
946
330
1A
100
AcDbEntity
  8
1
  6
HIDDEN
100
AcDbLine
 10
293.086059789789
 20
95.48375374199986
 30
0.0
 11
283.0860597897881
 21
95.48375374199896
 31
0.0
  0
LINE
  5
947
330
1A
100
AcDbEntity
  8
1
  6
HIDDEN
100
AcDbLine
 10
298.586059789789
 20
96.48375374199714
 30
0.0
 11
277.586059789789
 21
96.48375374199714
 31
0.0
  0
LINE
  5
948
330
1A
100
AcDbEntity
  8
1
100
AcDbLine
 10
282.0860597897881
 20
96.48375374199805
 30
0.0
 11
283.0860597897863
 21
95.48375374200077
 31
0.0
  0
LINE
  5
949
330
1A
100
AcDbEntity
  8
1
100
AcDbLine
 10
294.0860597897881
 20
96.48375374199805
 30
0.0
 11
293.0860597897899
 21
95.48375374200077
 31
0.0
  0
LINE
  5
94A
330
1A
100
AcDbEntity
  8
1
100
AcDbLine
 10
269.0860597897917
 20
119.4837537419971
 30
0.0
 11
258.086059789789
 21
119.483753741998
 31
0.0
  0
ARC
  5
94B
330
1A
100
AcDbEntity
  8
1
100
AcDbCircle
 10
249.086059789789
 20
121.4837537419971
 30
0.0
 40
2.0
100
AcDbArc
 50
15.24526371867132
 51
164.7547362812783
  0
ARC
  5
94C
330
1A
100
AcDbEntity
  8
1
100
AcDbCircle
 10
243.086059789789
 20
121.4837537419971
 30
0.0
 40
2.0
100
AcDbArc
 50
15.24526371872159
 51
164.7547362812783
  0
ARC
  5
94D
330
1A
100
AcDbEntity
  8
1
100
AcDbCircle
 10
240.086059789789
 20
119.9837537419971
 30
0.0
 40
0.5
100
AcDbArc
 50
270.0
 51
344.7547362812784
  0
LINE
  5
94E
330
1A
100
AcDbEntity
  8
1
100
AcDbLine
 10
241.156441662456
 20
122.0096566633301
 30
0.0
 11
240.5684643216227
 21
119.8522780116636
 31
0.0
  0
ARC
  5
94F
330
1A
100
AcDbEntity
  8
1
100
AcDbCircle
 10
246.086059789789
 20
119.9837537419971
 30
0.0
 40
0.5
100
AcDbArc
 50
195.2452637186713
 51
344.7547362813287
  0
LINE
  5
950
330
1A
100
AcDbEntity
  8
1
100
AcDbLine
 10
247.156441662456
 20
122.0096566633301
 30
0.0
 11
246.5684643216227
 21
119.8522780116636
 31
0.0
  0
LINE
  5
951
330
1A
100
AcDbEntity
  8
1
100
AcDbLine
 10
245.6036552579553
 20
119.8522780116636
 30
0.0
 11
245.015677917122
 21
122.0096566633301
 31
0.0
  0
ARC
  5
952
330
1A
100
AcDbEntity
  8
1
100
AcDbCircle
 10
252.086059789789
 20
119.9837537419971
 30
0.0
 40
0.5
100
AcDbArc
 50
195.2452637187216
 51
344.7547362812784
  0
ARC
  5
953
330
1A
100
AcDbEntity
  8
1
100
AcDbCircle
 10
258.086059789789
 20
119.9837537419971
 30
0.0
 40
0.5
100
AcDbArc
 50
195.2452637186713
 51
270.0
  0
LINE
  5
954
330
1A
100
AcDbEntity
  8
1
100
AcDbLine
 10
257.015677917122
 20
122.0096566633301
 30
0.0
 11
257.6036552579553
 21
119.8522780116636
 31
0.0
  0
LINE
  5
955
330
1A
100
AcDbEntity
  8
1
100
AcDbLine
 10
252.5684643216227
 20
119.8522780116636
 30
0.0
 11
253.156441662456
 21
122.0096566633301
 31
0.0
  0
LINE
  5
956
330
1A
100
AcDbEntity
  8
1
100
AcDbLine
 10
251.015677917122
 20
122.0096566633301
 30
0.0
 11
251.6036552579553
 21
119.8522780116636
 31
0.0
  0
ARC
  5
957
330
1A
100
AcDbEntity
  8
1
100
AcDbCircle
 10
255.086059789789
 20
121.4837537419971
 30
0.0
 40
2.0
100
AcDbArc
 50
15.24526371872159
 51
164.7547362812783
  0
LINE
  5
958
330
1A
100
AcDbEntity
  8
1
100
AcDbLine
 10
270.0860597897917
 20
118.9837537419971
 30
0.0
 11
269.0860597897908
 21
118.9837537419971
 31
0.0
  0
LINE
  5
959
330
1A
100
AcDbEntity
  8
1
100
AcDbLine
 10
273.0860597897908
 20
116.9837537419971
 30
0.0
 11
272.0860597897908
 21
116.9837537419971
 31
0.0
  0
LINE
  5
95A
330
1A
100
AcDbEntity
  8
1
100
AcDbLine
 10
272.0860597897908
 20
116.9837537419971
 30
0.0
 11
270.0860597897926
 21
118.9837537419971
 31
0.0
  0
LINE
  5
95B
330
1A
100
AcDbEntity
  8
CENTER
100
AcDbLine
 10
412.4644880861542
 20
128.869082503169
 30
0.0
 11
412.4644880861542
 21
66.96340505980515
 31
0.0
  0
LINE
  5
95C
330
1A
100
AcDbEntity
  8
1
100
AcDbLine
 10
396.4644880861551
 20
116.983753741998
 30
0.0
 11
396.4644880861542
 21
75.98375374199623
 31
0.0
  0
LINE
  5
95D
330
1A
100
AcDbEntity
  8
1
100
AcDbLine
 10
428.4644880861551
 20
116.983753741998
 30
0.0
 11
428.4644880861542
 21
75.98375374199713
 31
0.0
  0
LINE
  5
95E
330
1A
100
AcDbEntity
  8
1
100
AcDbLine
 10
368.4644880861551
 20
116.9837537419971
 30
0.0
 11
368.4644880861533
 21
75.98375374199713
 31
0.0
  0
LINE
  5
95F
330
1A
100
AcDbEntity
  8
1
100
AcDbLine
 10
456.4644880861524
 20
116.9837537419971
 30
0.0
 11
456.4644880861533
 21
75.98375374199713
 31
0.0
  0
LINE
  5
960
330
1A
100
AcDbEntity
  8
1
100
AcDbLine
 10
396.4644880861551
 20
116.983753741998
 30
0.0
 11
396.4644880861542
 21
75.98375374199623
 31
0.0
  0
LINE
  5
961
330
1A
100
AcDbEntity
  8
1
100
AcDbLine
 10
428.4644880861542
 20
75.98375374199713
 30
0.0
 11
428.4644880861551
 21
116.9837537419971
 31
0.0
  0
LINE
  5
962
330
1A
100
AcDbEntity
  8
1
100
AcDbLine
 10
394.4644880861551
 20
118.983753741998
 30
0.0
 11
394.4644880861533
 21
73.98375374199531
 31
0.0
  0
LINE
  5
963
330
1A
100
AcDbEntity
  8
1
100
AcDbLine
 10
430.4644880861533
 20
73.98375374199622
 30
0.0
 11
430.4644880861551
 21
118.983753741998
 31
0.0
  0
LINE
  5
964
330
1A
100
AcDbEntity
  8
1
100
AcDbLine
 10
375.4644880861551
 20
116.9837537419971
 30
0.0
 11
375.4644880861542
 21
75.98375374199713
 31
0.0
  0
LINE
  5
965
330
1A
100
AcDbEntity
  8
1
100
AcDbLine
 10
449.4644880861533
 20
75.98375374199713
 30
0.0
 11
449.4644880861542
 21
116.9837537419971
 31
0.0
  0
LINE
  5
966
330
1A
100
AcDbEntity
  8
1
100
AcDbLine
 10
372.4644880861542
 20
116.9837537419971
 30
0.0
 11
372.4644880861524
 21
75.98375374199713
 31
0.0
  0
LINE
  5
967
330
1A
100
AcDbEntity
  8
1
100
AcDbLine
 10
452.4644880861542
 20
116.9837537419971
 30
0.0
 11
452.4644880861542
 21
75.98375374199713
 31
0.0
  0
LINE
  5
969
330
1A
100
AcDbEntity
  8
1
100
AcDbLine
 10
396.4644880861542
 20
75.98375374199623
 30
0.0
 11
428.4644880861542
 21
75.98375374199713
 31
0.0
  0
LINE
  5
96A
330
1A
100
AcDbEntity
  8
1
100
AcDbLine
 10
394.4644880861542
 20
73.98375374199622
 30
0.0
 11
430.4644880861551
 21
73.98375374199713
 31
0.0
  0
LINE
  5
96B
330
1A
100
AcDbEntity
  8
1
100
AcDbLine
 10
374.9644880861533
 20
69.48375374199713
 30
0.0
 11
449.9644880861533
 21
69.48375374199713
 31
0.0
  0
LINE
  5
96C
330
1A
100
AcDbEntity
  8
1
100
AcDbLine
 10
374.9644880861551
 20
73.48375374199713
 30
0.0
 11
449.9644880861533
 21
73.48375374199713
 31
0.0
  0
ARC
  5
96D
330
1A
100
AcDbEntity
  8
1
100
AcDbCircle
 10
374.9644880861533
 20
75.98375374199713
 30
0.0
 40
6.5
100
AcDbArc
 50
180.0
 51
270.0
  0
ARC
  5
96E
330
1A
100
AcDbEntity
  8
1
100
AcDbCircle
 10
374.9644880861551
 20
75.98375374199713
 30
0.0
 40
2.5
100
AcDbArc
 50
180.0
 51
270.0
  0
ARC
  5
96F
330
1A
100
AcDbEntity
  8
1
100
AcDbCircle
 10
377.9644880861551
 20
75.98375374199713
 30
0.0
 40
2.5
100
AcDbArc
 50
180.0
 51
270.0
  0
LINE
  5
970
330
1A
100
AcDbEntity
  8
1
100
AcDbLine
 10
396.4644880861542
 20
75.98375374199623
 30
0.0
 11
394.4644880861533
 21
73.98375374199622
 31
0.0
  0
ARC
  5
971
330
1A
100
AcDbEntity
  8
1
100
AcDbCircle
 10
449.9644880861533
 20
75.98375374199713
 30
0.0
 40
6.5
100
AcDbArc
 50
270.0
 51
0.0
  0
ARC
  5
972
330
1A
100
AcDbEntity
  8
1
100
AcDbCircle
 10
449.9644880861533
 20
75.98375374199713
 30
0.0
 40
2.5
100
AcDbArc
 50
270.0
 51
0.0
  0
LINE
  5
973
330
1A
100
AcDbEntity
  8
1
100
AcDbLine
 10
428.4644880861542
 20
75.98375374199713
 30
0.0
 11
430.4644880861533
 21
73.98375374199713
 31
0.0
  0
ARC
  5
974
330
1A
100
AcDbEntity
  8
1
100
AcDbCircle
 10
446.9644880861533
 20
75.98375374199713
 30
0.0
 40
2.5
100
AcDbArc
 50
270.0
 51
0.0
  0
LINE
  5
975
330
1A
100
AcDbEntity
  8
1
100
AcDbLine
 10
428.4644880861551
 20
116.9837537419971
 30
0.0
 11
396.4644880861551
 21
116.983753741998
 31
0.0
  0
LINE
  5
976
330
1A
100
AcDbEntity
  8
1
100
AcDbLine
 10
430.4644880861551
 20
118.983753741998
 30
0.0
 11
394.4644880861542
 21
118.983753741998
 31
0.0
  0
LINE
  5
977
330
1A
100
AcDbEntity
  8
1
100
AcDbLine
 10
374.9644880861551
 20
123.4837537419971
 30
0.0
 11
449.9644880861524
 21
123.4837537419971
 31
0.0
  0
LINE
  5
978
330
1A
100
AcDbEntity
  8
1
100
AcDbLine
 10
374.9644880861551
 20
119.4837537419971
 30
0.0
 11
449.9644880861533
 21
119.4837537419971
 31
0.0
  0
ARC
  5
97A
330
1A
100
AcDbEntity
  8
1
100
AcDbCircle
 10
374.9644880861551
 20
116.9837537419971
 30
0.0
 40
6.5
100
AcDbArc
 50
90.0
 51
180.0
  0
ARC
  5
97B
330
1A
100
AcDbEntity
  8
1
100
AcDbCircle
 10
374.9644880861551
 20
116.9837537419971
 30
0.0
 40
2.5
100
AcDbArc
 50
90.0
 51
180.0
  0
ARC
  5
97C
330
1A
100
AcDbEntity
  8
1
100
AcDbCircle
 10
377.9644880861551
 20
116.9837537419971
 30
0.0
 40
2.5
100
AcDbArc
 50
90.0
 51
180.0
  0
LINE
  5
97D
330
1A
100
AcDbEntity
  8
1
100
AcDbLine
 10
394.4644880861551
 20
118.983753741998
 30
0.0
 11
396.4644880861551
 21
116.983753741998
 31
0.0
  0
ARC
  5
97E
330
1A
100
AcDbEntity
  8
1
100
AcDbCircle
 10
449.9644880861524
 20
116.9837537419971
 30
0.0
 40
6.5
100
AcDbArc
 50
0.0
 51
90.0
  0
ARC
  5
97F
330
1A
100
AcDbEntity
  8
1
100
AcDbCircle
 10
449.9644880861533
 20
116.9837537419971
 30
0.0
 40
2.5
100
AcDbArc
 50
0.0
 51
90.0
  0
LINE
  5
980
330
1A
100
AcDbEntity
  8
1
100
AcDbLine
 10
430.4644880861551
 20
118.983753741998
 30
0.0
 11
428.4644880861551
 21
116.9837537419971
 31
0.0
  0
ARC
  5
981
330
1A
100
AcDbEntity
  8
1
100
AcDbCircle
 10
446.9644880861533
 20
116.9837537419971
 30
0.0
 40
2.5
100
AcDbArc
 50
0.0
 51
90.0
  0
LINE
  5
985
330
1A
100
AcDbEntity
  8
1
100
AcDbLine
 10
301.0860597897917
 20
188.2800576785957
 30
0.0
 11
301.0860597897908
 21
220.2800576785957
 31
0.0
  0
LINE
  5
987
330
1A
100
AcDbEntity
  8
1
100
AcDbLine
 10
273.0860597897899
 20
188.2800576785957
 30
0.0
 11
273.0860597897899
 21
220.2800576785957
 31
0.0
  0
LINE
  5
988
330
1A
100
AcDbEntity
  8
1
100
AcDbLine
 10
269.0860597897899
 20
167.2800576785948
 30
0.0
 11
269.0860597897899
 21
241.2800576785957
 31
0.0
  0
LINE
  5
989
330
1A
100
AcDbEntity
  8
1
100
AcDbLine
 10
270.086059789789
 20
222.2800576785957
 30
0.0
 11
270.086059789789
 21
186.2800576785957
 31
0.0
  0
LINE
  5
98A
330
1A
100
AcDbEntity
  8
1
100
AcDbLine
 10
272.0860597897899
 20
220.2800576785957
 30
0.0
 11
272.0860597897899
 21
188.2800576785957
 31
0.0
  0
LINE
  5
98B
330
1A
100
AcDbEntity
  8
1
100
AcDbLine
 10
266.0860597897899
 20
244.2800576785957
 30
0.0
 11
266.0860597897899
 21
164.2800576785957
 31
0.0
  0
LINE
  5
98C
330
1A
100
AcDbEntity
  8
1
100
AcDbLine
 10
240.0860597897899
 20
243.2800576785966
 30
0.0
 11
240.0860597897899
 21
165.2800576785948
 31
0.0
  0
LINE
  5
98D
330
1A
100
AcDbEntity
  8
1
100
AcDbLine
 10
246.0860597897899
 20
243.2800576785957
 30
0.0
 11
246.0860597897899
 21
165.2800576785939
 31
0.0
  0
LINE
  5
98E
330
1A
100
AcDbEntity
  8
1
100
AcDbLine
 10
252.0860597897899
 20
243.2800576785957
 30
0.0
 11
252.0860597897899
 21
165.2800576785939
 31
0.0
  0
LINE
  5
98F
330
1A
100
AcDbEntity
  8
1
100
AcDbLine
 10
258.0860597897899
 20
243.2800576785966
 30
0.0
 11
258.0860597897899
 21
165.2800576785948
 31
0.0
  0
LINE
  5
990
330
1A
100
AcDbEntity
  8
1
100
AcDbLine
 10
243.0860597897899
 20
246.2800576785957
 30
0.0
 11
243.0860597897899
 21
162.2800576785957
 31
0.0
  0
LINE
  5
991
330
1A
100
AcDbEntity
  8
1
100
AcDbLine
 10
249.0860597897899
 20
246.2800576785957
 30
0.0
 11
249.0860597897899
 21
162.2800576785957
 31
0.0
  0
LINE
  5
992
330
1A
100
AcDbEntity
  8
1
100
AcDbLine
 10
255.0860597897899
 20
246.2800576785957
 30
0.0
 11
255.0860597897899
 21
162.2800576785957
 31
0.0
  0
LINE
  5
995
330
1A
100
AcDbEntity
  8
1
100
AcDbLine
 10
301.0860597897917
 20
188.2800576785957
 30
0.0
 11
273.0860597897899
 21
188.2800576785957
 31
0.0
  0
LINE
  5
996
330
1A
100
AcDbEntity
  8
1
100
AcDbLine
 10
266.0860597897899
 20
164.2800576785957
 30
0.0
 11
269.0860597897899
 21
167.2800576785948
 31
0.0
  0
ARC
  5
997
330
1A
100
AcDbEntity
  8
1
100
AcDbCircle
 10
249.0860597897899
 20
162.2800576785957
 30
0.0
 40
2.0
100
AcDbArc
 50
195.2452637187216
 51
344.7547362813287
  0
ARC
  5
998
330
1A
100
AcDbEntity
  8
1
100
AcDbCircle
 10
243.0860597897899
 20
162.2800576785957
 30
0.0
 40
2.0
100
AcDbArc
 50
195.2452637187216
 51
344.7547362812784
  0
LINE
  5
999
330
1A
100
AcDbEntity
  8
1
100
AcDbLine
 10
245.6036552579562
 20
163.9115334089292
 30
0.0
 11
245.0156779171229
 21
161.7541547572627
 31
0.0
  0
LINE
  5
99A
330
1A
100
AcDbEntity
  8
1
100
AcDbLine
 10
247.1564416624569
 20
161.7541547572627
 30
0.0
 11
246.5684643216236
 21
163.9115334089292
 31
0.0
  0
ARC
  5
99B
330
1A
100
AcDbEntity
  8
1
100
AcDbCircle
 10
246.0860597897899
 20
163.7800576785957
 30
0.0
 40
0.5
100
AcDbArc
 50
15.24526371867132
 51
164.7547362813286
  0
ARC
  5
99C
330
1A
100
AcDbEntity
  8
1
100
AcDbCircle
 10
240.0860597897899
 20
163.7800576785957
 30
0.0
 40
0.5
100
AcDbArc
 50
15.24526371872159
 51
90.0
  0
LINE
  5
99D
330
1A
100
AcDbEntity
  8
1
100
AcDbLine
 10
241.1564416624569
 20
161.7541547572627
 30
0.0
 11
240.5684643216236
 21
163.9115334089292
 31
0.0
  0
LINE
  5
99E
330
1A
100
AcDbEntity
  8
1
100
AcDbLine
 10
266.086059789789
 20
164.2800576785957
 30
0.0
 11
258.0860597897899
 21
164.2800576785948
 31
0.0
  0
ARC
  5
99F
330
1A
100
AcDbEntity
  8
1
100
AcDbCircle
 10
252.0860597897899
 20
163.7800576785957
 30
0.0
 40
0.5
100
AcDbArc
 50
15.24526371872159
 51
164.7547362812783
  0
ARC
  5
9A0
330
1A
100
AcDbEntity
  8
1
100
AcDbCircle
 10
255.0860597897899
 20
162.2800576785957
 30
0.0
 40
2.0
100
AcDbArc
 50
195.2452637187216
 51
344.7547362812784
  0
LINE
  5
9A1
330
1A
100
AcDbEntity
  8
1
100
AcDbLine
 10
251.0156779171229
 20
161.7541547572627
 30
0.0
 11
251.6036552579562
 21
163.9115334089292
 31
0.0
  0
LINE
  5
9A2
330
1A
100
AcDbEntity
  8
1
100
AcDbLine
 10
252.5684643216236
 20
163.9115334089292
 30
0.0
 11
253.1564416624569
 21
161.7541547572627
 31
0.0
  0
LINE
  5
9A3
330
1A
100
AcDbEntity
  8
1
100
AcDbLine
 10
257.0156779171229
 20
161.7541547572627
 30
0.0
 11
257.6036552579562
 21
163.9115334089292
 31
0.0
  0
ARC
  5
9A4
330
1A
100
AcDbEntity
  8
1
100
AcDbCircle
 10
258.0860597897899
 20
163.7800576785957
 30
0.0
 40
0.5
100
AcDbArc
 50
90.0
 51
164.7547362813286
  0
CIRCLE
  5
9A5
330
1A
100
AcDbEntity
  8
1
100
AcDbCircle
 10
288.0860597897899
 20
204.2800576785957
 30
0.0
 40
10.5
  0
CIRCLE
  5
9A6
330
1A
100
AcDbEntity
  8
1
100
AcDbCircle
 10
288.0860597897899
 20
204.2800576785957
 30
0.0
 40
5.0
  0
CIRCLE
  5
9A7
330
1A
100
AcDbEntity
  8
1
 62
     9
100
AcDbCircle
 10
288.0860597897899
 20
204.2800576785957
 30
0.0
 40
6.0
  0
LINE
  5
9A8
330
1A
100
AcDbEntity
  8
1
100
AcDbLine
 10
273.0860597897899
 20
190.2800576785957
 30
0.0
 11
273.0860597897899
 21
188.2800576785957
 31
0.0
  0
LINE
  5
9A9
330
1A
100
AcDbEntity
  8
1
100
AcDbLine
 10
270.086059789789
 20
186.2800576785957
 30
0.0
 11
269.0860597897899
 21
186.2800576785957
 31
0.0
  0
LINE
  5
9AA
330
1A
100
AcDbEntity
  8
1
100
AcDbLine
 10
270.086059789789
 20
186.2800576785957
 30
0.0
 11
272.0860597897899
 21
188.2800576785957
 31
0.0
  0
LINE
  5
9AB
330
1A
100
AcDbEntity
  8
1
100
AcDbLine
 10
272.0860597897899
 20
188.2800576785957
 30
0.0
 11
273.0860597897899
 21
188.2800576785957
 31
0.0
  0
LINE
  5
9AD
330
1A
100
AcDbEntity
  8
CENTER
 62
     9
100
AcDbLine
 10
288.0860597897899
 20
190.9951845704345
 30
0.0
 11
288.0860597897899
 21
217.6376255808682
 31
0.0
  0
LINE
  5
9AF
330
1A
100
AcDbEntity
  8
1
100
AcDbLine
 10
301.0860597897917
 20
220.2800576785957
 30
0.0
 11
273.0860597897899
 21
220.2800576785957
 31
0.0
  0
LINE
  5
9B0
330
1A
100
AcDbEntity
  8
1
100
AcDbLine
 10
266.0860597897899
 20
244.2800576785957
 30
0.0
 11
269.0860597897899
 21
241.2800576785966
 31
0.0
  0
ARC
  5
9B1
330
1A
100
AcDbEntity
  8
1
100
AcDbCircle
 10
249.0860597897899
 20
246.2800576785957
 30
0.0
 40
2.0
100
AcDbArc
 50
15.24526371867132
 51
164.7547362812783
  0
ARC
  5
9B2
330
1A
100
AcDbEntity
  8
1
100
AcDbCircle
 10
243.0860597897899
 20
246.2800576785957
 30
0.0
 40
2.0
100
AcDbArc
 50
15.24526371872159
 51
164.7547362812783
  0
LINE
  5
9B3
330
1A
100
AcDbEntity
  8
1
100
AcDbLine
 10
241.1564416624569
 20
246.8059605999287
 30
0.0
 11
240.5684643216236
 21
244.6485819482623
 31
0.0
  0
ARC
  5
9B4
330
1A
100
AcDbEntity
  8
1
100
AcDbCircle
 10
240.0860597897899
 20
244.7800576785957
 30
0.0
 40
0.5
100
AcDbArc
 50
270.0
 51
344.7547362812784
  0
LINE
  5
9B5
330
1A
100
AcDbEntity
  8
1
100
AcDbLine
 10
245.6036552579562
 20
244.6485819482623
 30
0.0
 11
245.0156779171229
 21
246.8059605999287
 31
0.0
  0
LINE
  5
9B6
330
1A
100
AcDbEntity
  8
1
100
AcDbLine
 10
247.1564416624569
 20
246.8059605999287
 30
0.0
 11
246.5684643216236
 21
244.6485819482623
 31
0.0
  0
ARC
  5
9B7
330
1A
100
AcDbEntity
  8
1
100
AcDbCircle
 10
246.0860597897899
 20
244.7800576785957
 30
0.0
 40
0.5
100
AcDbArc
 50
195.2452637186713
 51
344.7547362813287
  0
ARC
  5
9B8
330
1A
100
AcDbEntity
  8
1
100
AcDbCircle
 10
255.0860597897899
 20
246.2800576785957
 30
0.0
 40
2.0
100
AcDbArc
 50
15.24526371872159
 51
164.7547362812783
  0
LINE
  5
9B9
330
1A
100
AcDbEntity
  8
1
100
AcDbLine
 10
251.0156779171229
 20
246.8059605999287
 30
0.0
 11
251.6036552579562
 21
244.6485819482623
 31
0.0
  0
LINE
  5
9BA
330
1A
100
AcDbEntity
  8
1
100
AcDbLine
 10
252.5684643216236
 20
244.6485819482623
 30
0.0
 11
253.1564416624569
 21
246.8059605999287
 31
0.0
  0
LINE
  5
9BB
330
1A
100
AcDbEntity
  8
1
100
AcDbLine
 10
257.0156779171229
 20
246.8059605999287
 30
0.0
 11
257.6036552579562
 21
244.6485819482623
 31
0.0
  0
ARC
  5
9BC
330
1A
100
AcDbEntity
  8
1
100
AcDbCircle
 10
258.0860597897899
 20
244.7800576785957
 30
0.0
 40
0.5
100
AcDbArc
 50
195.2452637186713
 51
270.0
  0
ARC
  5
9BD
330
1A
100
AcDbEntity
  8
1
100
AcDbCircle
 10
252.0860597897899
 20
244.7800576785957
 30
0.0
 40
0.5
100
AcDbArc
 50
195.2452637187216
 51
344.7547362812784
  0
LINE
  5
9BE
330
1A
100
AcDbEntity
  8
1
100
AcDbLine
 10
266.086059789789
 20
244.2800576785957
 30
0.0
 11
258.0860597897899
 21
244.2800576785966
 31
0.0
  0
LINE
  5
9BF
330
1A
100
AcDbEntity
  8
1
100
AcDbLine
 10
273.0860597897899
 20
218.2800576785957
 30
0.0
 11
273.0860597897899
 21
220.2800576785957
 31
0.0
  0
LINE
  5
9C0
330
1A
100
AcDbEntity
  8
1
100
AcDbLine
 10
270.086059789789
 20
222.2800576785957
 30
0.0
 11
272.0860597897899
 21
220.2800576785957
 31
0.0
  0
LINE
  5
9C1
330
1A
100
AcDbEntity
  8
1
100
AcDbLine
 10
272.0860597897899
 20
220.2800576785957
 30
0.0
 11
273.0860597897899
 21
220.2800576785957
 31
0.0
  0
LINE
  5
9C2
330
1A
100
AcDbEntity
  8
1
100
AcDbLine
 10
270.086059789789
 20
222.2800576785957
 30
0.0
 11
269.0860597897899
 21
222.2800576785957
 31
0.0
  0
LINE
  5
B8D
330
1A
100
AcDbEntity
  8
1
100
AcDbLine
 10
396.4644880861551
 20
116.983753741998
 30
0.0
 11
428.4644880861551
 21
116.983753741998
 31
0.0
  0
LINE
  5
B8E
330
1A
100
AcDbEntity
  8
1
100
AcDbLine
 10
396.4644880861542
 20
75.98375374199623
 30
0.0
 11
428.4644880861542
 21
75.98375374199531
 31
0.0
  0
CIRCLE
  5
D17
330
1A
100
AcDbEntity
  8
1
100
AcDbCircle
 10
151.086059789799
 20
79.98375374199714
 30
0.0
 40
3.800000000000181
  0
CIRCLE
  5
D18
330
1A
100
AcDbEntity
  8
1
  6
Continuous
100
AcDbCircle
 10
151.0860410022178
 20
79.98375719027262
 30
0.0
 40
2.980384515458561
  0
CIRCLE
  5
D19
330
1A
100
AcDbEntity
  8
1
  6
Continuous
100
AcDbCircle
 10
151.0860410022178
 20
79.98375719027262
 30
0.0
 40
3.5
  0
LINE
  5
D1A
330
1A
100
AcDbEntity
  8
1
  6
Continuous
100
AcDbLine
 10
151.952066002218
 20
78.48375788964858
 30
0.0
 11
150.2200160022175
 21
78.48375788964858
 31
0.0
  0
LINE
  5
D1B
330
1A
100
AcDbEntity
  8
1
  6
Continuous
100
AcDbLine
 10
150.2200160022175
 20
81.48375649089757
 30
0.0
 11
151.952066002218
 21
81.48375649089757
 31
0.0
  0
LINE
  5
D1C
330
1A
100
AcDbEntity
  8
1
  6
Continuous
100
AcDbLine
 10
151.952066002218
 20
81.48375649089757
 30
0.0
 11
152.8180910022174
 21
79.98375719027262
 31
0.0
  0
LINE
  5
D1D
330
1A
100
AcDbEntity
  8
1
  6
Continuous
100
AcDbLine
 10
152.8180910022174
 20
79.98375719027262
 30
0.0
 11
151.952066002218
 21
78.48375788964858
 31
0.0
  0
LINE
  5
D1E
330
1A
100
AcDbEntity
  8
1
  6
Continuous
100
AcDbLine
 10
149.3539910022173
 20
79.98375719027262
 30
0.0
 11
150.2200160022175
 21
81.48375649089757
 31
0.0
  0
LINE
  5
D1F
330
1A
100
AcDbEntity
  8
1
  6
Continuous
100
AcDbLine
 10
150.2200160022175
 20
78.48375788964858
 30
0.0
 11
149.3539910022173
 21
79.98375719027262
 31
0.0
  0
LINE
  5
D20
330
1A
100
AcDbEntity
  8
CENTER
 62
     9
100
AcDbLine
 10
155.8755001490662
 20
79.98375374199714
 30
0.0
 11
145.9786297844775
 21
79.98375374199714
 31
0.0
  0
LINE
  5
D21
330
1A
100
AcDbEntity
  8
CENTER
 62
     9
100
AcDbLine
 10
151.086059789799
 20
75.08269571305118
 30
0.0
 11
151.086059789799
 21
84.97666115632274
 31
0.0
  0
LINE
  5
D24
330
1A
100
AcDbEntity
  8
1
100
AcDbLine
 10
154.5860513712086
 20
181.780057678593
 30
0.0
 11
147.5860513712086
 21
181.780057678593
 31
0.0
  0
LINE
  5
D25
330
1A
100
AcDbEntity
  8
1
100
AcDbLine
 10
154.5860513712086
 20
178.0800576785932
 30
0.0
 11
154.0664361289382
 21
177.780057678593
 31
0.0
  0
LINE
  5
D26
330
1A
100
AcDbEntity
  8
1
100
AcDbLine
 10
154.5860513712086
 20
178.0800576785932
 30
0.0
 11
153.0860513712086
 21
178.0800576785932
 31
0.0
  0
LINE
  5
D27
330
1A
100
AcDbEntity
  8
1
 48
0.3
100
AcDbLine
 10
154.8860513712088
 20
182.780057678593
 30
0.0
 11
147.2860513712084
 21
182.780057678593
 31
0.0
  0
LINE
  5
D28
330
1A
100
AcDbEntity
  8
1
 48
0.3
100
AcDbLine
 10
154.8860513712088
 20
181.780057678593
 30
0.0
 11
147.2860513712084
 21
181.780057678593
 31
0.0
  0
LINE
  5
D29
330
1A
100
AcDbEntity
  8
1
100
AcDbLine
 10
149.0860513712086
 20
178.0800576785932
 30
0.0
 11
147.5860513712086
 21
178.0800576785932
 31
0.0
  0
LINE
  5
D2A
330
1A
100
AcDbEntity
  8
1
100
AcDbLine
 10
147.5860513712086
 20
178.0800576785932
 30
0.0
 11
148.1056666134791
 21
177.780057678593
 31
0.0
  0
LINE
  5
D2B
330
1A
100
AcDbEntity
  8
1
100
AcDbLine
 10
147.5860513712086
 20
178.0800576785932
 30
0.0
 11
147.5860513712086
 21
181.780057678593
 31
0.0
  0
LINE
  5
D2C
330
1A
100
AcDbEntity
  8
1
100
AcDbLine
 10
154.0664361289382
 20
177.780057678593
 30
0.0
 11
148.1056666134791
 21
177.780057678593
 31
0.0
  0
LINE
  5
D2D
330
1A
100
AcDbEntity
  8
1
 48
0.3
100
AcDbLine
 10
150.7450215389108
 20
181.780057678593
 30
0.0
 11
151.0129707313426
 21
182.780057678593
 31
0.0
  0
LINE
  5
D2E
330
1A
100
AcDbEntity
  8
1
 48
0.3
100
AcDbLine
 10
151.1591320110746
 20
181.780057678593
 30
0.0
 11
151.4270812035065
 21
182.780057678593
 31
0.0
  0
LINE
  5
D2F
330
1A
100
AcDbEntity
  8
1
 48
0.3
100
AcDbLine
 10
147.2860513712084
 20
182.780057678593
 30
0.0
 11
147.2860513712084
 21
181.780057678593
 31
0.0
  0
LINE
  5
D30
330
1A
100
AcDbEntity
  8
1
100
AcDbLine
 10
154.5860513712086
 20
178.0800576785932
 30
0.0
 11
154.5860513712086
 21
181.780057678593
 31
0.0
  0
LINE
  5
D31
330
1A
100
AcDbEntity
  8
1
 48
0.3
100
AcDbLine
 10
154.8860513712088
 20
182.780057678593
 30
0.0
 11
154.8860513712088
 21
181.780057678593
 31
0.0
  0
VIEWPORT
  5
22
330
17
100
AcDbEntity
 67
     1
  8
0
100
AcDbViewport
 10
198.2585373513689
 20
116.7227094816175
 30
0.0
 40
426.3611247701049
 41
331.2262985675635
 68
     1
 69
     1
 12
198.2585373513689
 22
116.7227094816175
 13
0.0
 23
0.0
 14
1.0
 24
1.0
 15
10.0
 25
10.0
 16
0.0
 26
0.0
 36
1.0
 17
0.0
 27
0.0
 37
0.0
 42
50.0
 43
0.0
 44
0.0
 45
331.2262985675635
 50
0.0
 51
0.0
 72
   100
 90
    32768
  1

281
     0
 71
     1
 74
     0
110
0.0
120
0.0
130
0.0
111
1.0
121
0.0
131
0.0
112
0.0
122
1.0
132
0.0
 79
     0
146
0.0
  0
VIEWPORT
  5
2AA
330
17
100
AcDbEntity
 67
     1
  8
DEFPOINTS
100
AcDbViewport
 10
212.5
 20
144.4999999999999
 30
0.0
 40
385.0
 41
264.9999999999999
 68
     2
 69
     2
 12
237.8789021605427
 22
156.8227415365419
 13
0.0
 23
0.0
 14
168.0
 24
168.0
 15
0.0
 25
0.0
 16
0.0
 26
0.0
 36
1.0
 17
0.0
 27
0.0
 37
0.0
 42
50.0
 43
0.0
 44
0.0
 45
304.8624912725267
 50
0.0
 51
0.0
 72
   100
 90
    36864
  1

281
     0
 71
     1
 74
     0
110
0.0
120
0.0
130
0.0
111
1.0
121
0.0
131
0.0
112
0.0
122
1.0
132
0.0
 79
     0
146
0.0
  0
ENDSEC
  0
SECTION
  2
OBJECTS
  0
DICTIONARY
  5
C
330
0
100
AcDbDictionary
281
     1
  3
ACAD_GROUP
350
D
  3
ACAD_LAYOUT
350
2C2
  3
ACAD_MLINESTYLE
350
E
  3
ACAD_PLOTSETTINGS
350
2C3
  3
ACAD_PLOTSTYLENAME
350
2C0
  3
AcadDim
350
BD9
  3
CONTENTDICTIONARY
350
234
  0
DICTIONARY
  5
394
330
2
100
AcDbDictionary
280
     1
281
     1
  3
ACAD_LAYERFILTERS
360
395
  0
DICTIONARY
  5
D
102
{ACAD_REACTORS
330
C
102
}
330
C
100
AcDbDictionary
281
     1
  0
DICTIONARY
  5
2C2
102
{ACAD_REACTORS
330
C
102
}
330
C
100
AcDbDictionary
281
     1
  3
Model
350
2C4
  3
ﾚｲｱｳﾄ1
350
2C5
  0
DICTIONARY
  5
E
102
{ACAD_REACTORS
330
C
102
}
330
C
100
AcDbDictionary
281
     1
  3
STANDARD
350
13
  0
DICTIONARY
  5
2C3
102
{ACAD_REACTORS
330
C
102
}
330
C
100
AcDbDictionary
281
     1
  3
A3formNX710
350
2FA
  0
ACDBDICTIONARYWDFLT
  5
2C0
102
{ACAD_REACTORS
330
C
102
}
330
C
100
AcDbDictionary
281
     1
  3
Normal
350
2C1
100
AcDbDictionaryWithDefault
340
2C1
  0
XRECORD
  5
BD9
102
{ACAD_REACTORS
330
C
102
}
330
C
100
AcDbXrecord
280
     1
 90
   990106
  3

 60
     0
 61
     0
 62
     4
 63
     4
 64
     1
 65
     0
 66
     0
 67
     3
 68
     1
 69
     0
 70
     0
 71
     0
 72
     0
 40
40.0
170
     2
340
BDB
  0
DICTIONARY
  5
234
102
{ACAD_REACTORS
330
C
102
}
330
C
100
AcDbDictionary
281
     1
  0
DICTIONARY
  5
395
102
{ACAD_REACTORS
330
394
102
}
330
394
100
AcDbDictionary
280
     1
281
     1
  3
-100
360
396
  3
-50
360
397
  3
-H
360
398
  3
-T
360
399
  3
$
360
39A
  3
(02)幹線
360
39B
  3
（02）幹線
360
39C
  3
(03)接地
360
39D
  3
（03）接地
360
39E
  3
（04）避雷
360
39F
  3
(05)中央監視
360
3A0
  3
（05）中央監視
360
3A1
  3
(06)非常用ｺﾝｾﾝﾄ
360
3A2
  3
（06）非常用ｺﾝｾﾝﾄ
360
3A3
  3
（07）ﾊﾞｽﾀﾞｸﾄ
360
3A4
  3
（08）ｹｰﾌﾞﾙﾗｯｸ
360
3A5
  3
(09)動力
360
3A6
  3
（09）動力
360
3A7
  3
(10)ｺﾝｾﾝﾄ
360
3A8
  3
（10）ｺﾝｾﾝﾄ
360
3A9
  3
（11）医療接地
360
3AA
  3
(12)電灯
360
3AB
  3
（12）電灯
360
3AC
  3
(13)空調
360
3AD
  3
（13）空調
360
3AE
  3
（14）航空障害灯
360
3AF
  3
(15)非常照明
360
3B0
  3
（15）非常照明
360
3B1
  3
（16）誘導灯
360
3B2
  3
(17)電話
360
3B3
  3
（17）電話
360
3B4
  3
(18)情報
360
3B5
  3
（18）情報
360
3B6
  3
(19)ﾃﾚﾋﾞ
360
3B7
  3
（19）ﾃﾚﾋﾞ
360
3B8
  3
(20)防犯
360
3B9
  3
（20）防犯
360
3BA
  3
（21）ITV
360
3BB
  3
(22)ﾅｰｽｺｰﾙ
360
3BC
  3
（22）ﾅｰｽｺｰﾙ
360
3BD
  3
（23）外来診察
360
3BE
  3
（24）ﾍﾞｯﾄｻｲﾄﾞ
360
3BF
  3
（25）採尿蓄量
360
3C0
  3
(26)非常放送
360
3C1
  3
（26）非常放送
360
3C2
  3
（27）業務放送
360
3C3
  3
(28)火報
360
3C4
  3
（28）火報
360
3C5
  3
(29)厨房
360
3C6
  3
（29）厨房
360
3C7
  3
､@ｯ・U+56F3
360
3C8
  3
･画ｼhｪ愠ﾜ
360
3C9
  3
0
360
3CA
  3
0 画層
360
3CB
  3
00
360
3CC
  3
001
360
3CD
  3
01
360
3CE
  3
05
360
3CF
  3
0系
360
3D0
  3
0系+CONTINUOUS
360
3D1
  3
0床内
360
3D2
  3
0床壁
360
3D3
  3
0詳細図
360
3D4
  3
0総合図off
360
3D5
  3
0総合図枠
360
3D6
  3
0平詳枠
360
3D7
  3
1
360
3D8
  3
1-30
360
3D9
  3
1-交差点処理図（最新1案）
360
3DA
  3
1／100
360
3DB
  3
100
360
3DC
  3
10画層
360
3DD
  3
1111
360
3DE
  3
12
360
3DF
  3
19
360
3E0
  3
1床
360
3E1
  3
1芯
360
3E2
  3
1芯線
360
3E3
  3
2
360
3E4
  3
2-線形図1
360
3E5
  3
200
360
3E6
  3
21
360
3E7
  3
2100
360
3E8
  3
250
360
3E9
  3
2600
360
3EA
  3
2f
360
3EB
  3
2躯体
360
3EC
  3
2断面
360
3ED
  3
2壁
360
3EE
  3
3
360
3EF
  3
3-線形図2
360
3F0
  3
300
360
3F1
  3
32
360
3F2
  3
333
360
3F3
  3
3A
360
3F4
  3
3開口
360
3F5
  3
3見掛り
360
3F6
  3
3天井内
360
3F7
  3
4
360
3F8
  3
41
360
3F9
  3
4仕上げ
360
3FA
  3
4天井
360
3FB
  3
5
360
3FC
  3
50
360
3FD
  3
50off
360
3FE
  3
50詳細図
360
3FF
  3
51-52
360
400
  3
555
360
401
  3
5画層
360
402
  3
5寸法
360
403
  3
5文字
360
404
  3
6
360
405
  3
66-躯体図
360
406
  3
66躯体図
360
407
  3
6画層
360
408
  3
6記号
360
409
  3
6文字
360
40A
  3
6保留
360
40B
  3
7
360
40C
  3
7-専用部北行
360
40D
  3
7a画層
360
40E
  3
7記号
360
40F
  3
8
360
410
  3
8-ONﾗﾝﾌﾟ
360
411
  3
8寸法
360
412
  3
8設備
360
413
  3
9
360
414
  3
9-OFFﾗﾝﾌﾟ
360
415
  3
901101
360
416
  3
9文字
360
417
  3
9目地
360
418
  3
a
360
419
  3
A-
360
41A
  3
a-roof
360
41B
  3
A 画層
360
41C
  3
A3
360
41D
  3
aa
360
41E
  3
aaa
360
41F
  3
AAAA
360
420
  3
AB棟
360
421
  3
ＡＢ棟
360
422
  3
all選択
360
423
  3
AREA
360
424
  3
AREA-SG
360
425
  3
ASDFCA
360
426
  3
aハッチング
360
427
  3
A空調
360
428
  3
Ａ断面
360
429
  3
b
360
42A
  3
B 画層
360
42B
  3
BAL
360
42C
  3
BASE
360
42D
  3
BBB
360
42E
  3
blue
360
42F
  3
BOR
360
430
  3
b階段
360
431
  3
Ｂ断面
360
432
  3
B電気
360
433
  3
B北
360
434
  3
c
360
435
  3
c-block
360
436
  3
c-block-2
360
437
  3
caa001
360
438
  3
CABINETRY
360
439
  3
cap-0
360
43A
  3
CASTellano
360
43B
  3
cc
360
43C
  3
CCC
360
43D
  3
ＣＤ棟
360
43E
  3
ceiling
360
43F
  3
CENTER
360
440
  3
che
360
441
  3
com
360
442
  3
conotur
360
443
  3
CONTI系
360
444
  3
contour
360
445
  3
conveyors
360
446
  3
cyan
360
447
  3
C衛生
360
448
  3
C街区関連
360
449
  3
c雑金物
360
44A
  3
C打計画図
360
44B
  3
Ｃ断面
360
44C
  3
C棟R部
360
44D
  3
DASHED
360
44E
  3
DASHED2
360
44F
  3
DDD
360
450
  3
DEF
360
451
  3
DENKI
360
452
  3
DIM
360
453
  3
DOORS
360
454
  3
drain
360
455
  3
Drow1
360
456
  3
d外構
360
457
  3
E
360
458
  3
E 画層
360
459
  3
EEEE
360
45A
  3
EISEI
360
45B
  3
EL
360
45C
  3
ＥＬ３ｍ
360
45D
  3
ＥＬ8ｍ
360
45E
  3
ele
360
45F
  3
ELECTRICAL
360
460
  3
ERAS1F
360
461
  3
exterior
360
462
  3
E南
360
463
  3
F
360
464
  3
feaze
360
465
  3
FF
360
466
  3
FLOW
360
467
  3
Frame
360
468
  3
freaze
360
469
  3
freeze
360
46A
  3
Frozen
360
46B
  3
Fugou
360
46C
  3
FUKI
360
46D
  3
FUSE_00
360
46E
  3
G
360
46F
  3
GAIKOU
360
470
  3
gasline
360
471
  3
GLAZING
360
472
  3
green
360
473
  3
GRID
360
474
  3
H
360
475
  3
H 画層
360
476
  3
HAISEN
360
477
  3
HARI
360
478
  3
HASIRA
360
479
  3
HAT
360
47A
  3
HIDDEN
360
47B
  3
HM
360
47C
  3
HOJO
360
47D
  3
houki
360
47E
  3
i
360
47F
  3
I2
360
480
  3
i2cl
360
481
  3
i5
360
482
  3
IEL
360
483
  3
INSERT図
360
484
  3
irc
360
485
  3
j
360
486
  3
jiku-0
360
487
  3
jkhg8
360
488
  3
KABE
360
489
  3
KABESHIN
360
48A
  3
KAGU
360
48B
  3
key
360
48C
  3
keyplan
360
48D
  3
KIJUN
360
48E
  3
KSIN
360
48F
  3
kui
360
490
  3
L 画層
360
491
  3
L1
360
492
  3
L2
360
493
  3
layout
360
494
  3
length
360
495
  3
LOCK
360
496
  3
M
360
497
  3
magenta
360
498
  3
MAJIKIRI
360
499
  3
mazenda
360
49A
  3
MB
360
49B
  3
MECHANICAL
360
49C
  3
MEJI
360
49D
  3
men
360
49E
  3
MIE01
360
49F
  3
MOJI
360
4A0
  3
MOJI100
360
4A1
  3
MP
360
4A2
  3
N
360
4A3
  3
new
360
4A4
  3
New Doors
360
4A5
  3
New Walls
360
4A6
  3
nic
360
4A7
  3
NS CTS set
360
4A8
  3
o
360
4A9
  3
OF
360
4AA
  3
Off
360
4AB
  3
off文字
360
4AC
  3
on
360
4AD
  3
p
360
4AE
  3
PARKING
360
4AF
  3
PC
360
4B0
  3
plot
360
4B1
  3
PLUMBING
360
4B2
  3
Q
360
4B3
  3
R
360
4B4
  3
raku
360
4B5
  3
red
360
4B6
  3
RJRUDDH
360
4B7
  3
rock
360
4B8
  3
ROOF
360
4B9
  3
s
360
4BA
  3
saciencewold
360
4BB
  3
SC
360
4BC
  3
sdfdf
360
4BD
  3
SETUBI
360
4BE
  3
SHITU
360
4BF
  3
SHITUMEI
360
4C0
  3
SIAG
360
4C1
  3
SIAG-N
360
4C2
  3
SIAG3
360
4C3
  3
Sinm
360
4C4
  3
SITA
360
4C5
  3
site
360
4C6
  3
SON
360
4C7
  3
SS
360
4C8
  3
STAIRS
360
4C9
  3
standard
360
4CA
  3
SUGA5
360
4CB
  3
SUNP
360
4CC
  3
SUNP100
360
4CD
  3
SYOU
360
4CE
  3
S画層
360
4CF
  3
T
360
4D0
  3
TAKASA
360
4D1
  3
TATE161
360
4D2
  3
TATEGU
360
4D3
  3
TC
360
4D4
  3
TEN
360
4D5
  3
TENJYOU
360
4D6
  3
TENJYOUNAI
360
4D7
  3
test
360
4D8
  3
test1024
360
4D9
  3
test1115
360
4DA
  3
test2
360
4DB
  3
TEXT
360
4DC
  3
Thawed
360
4DD
  3
TITL
360
4DE
  3
tnjyou
360
4DF
  3
TORISHIN
360
4E0
  3
TSIN
360
4E1
  3
TU
360
4E2
  3
unlocked
360
4E3
  3
UNROCK
360
4E4
  3
VMB
360
4E5
  3
VOID
360
4E6
  3
waku
360
4E7
  3
WALLS
360
4E8
  3
ward
360
4E9
  3
X
360
4EA
  3
yaji
360
4EB
  3
yellow
360
4EC
  3
YUKA
360
4ED
  3
yその他
360
4EE
  3
Z
360
4EF
  3
z-CABINETRY
360
4F0
  3
z-WALLS
360
4F1
  3
ZATU
360
4F2
  3
z図枠
360
4F3
  3
ｨｾｨa
360
4F4
  3
ｨﾏ･ﾎ､､
360
4F5
  3
ガラス
360
4F6
  3
キ-プラン
360
4F7
  3
キープラン
360
4F8
  3
きんでん
360
4F9
  3
ｺﾝ
360
4FA
  3
シェルター
360
4FB
  3
すべての画層を非表示
360
4FC
  3
すべて非表示
360
4FD
  3
デッキ
360
4FE
  3
ハッチング
360
4FF
  3
ﾌﾘｰｽﾞ
360
500
  3
フリーズ
360
501
  3
フリーズof
360
502
  3
フリーズ画層
360
503
  3
ﾌﾘｰｽﾞ画層非表示
360
504
  3
ﾌﾘｰｽﾞ画面非表示
360
505
  3
ﾌﾘｰｽﾞ解除
360
506
  3
フリーズ解除
360
507
  3
ペーパー空間
360
508
  3
マーク
360
509
  3
ｭｱｿn
360
50A
  3
ｭｫｭnｼh
360
50B
  3
ランプ
360
50C
  3
ロック以外
360
50D
  3
ロック画層
360
50E
  3
ロック解除
360
50F
  3
ｦLｨ
360
510
  3
一括非表示
360
511
  3
一般
360
512
  3
一般画層
360
513
  3
印刷不可を表示
360
514
  3
荏原 機器
360
515
  3
荏原　機器基礎
360
516
  3
荏原機器
360
517
  3
荏原機器基礎
360
518
  3
衛生設備図
360
519
  3
黄色
360
51A
  3
下地
360
51B
  3
仮設
360
51C
  3
家具
360
51D
  3
開発画層
360
51E
  3
外構
360
51F
  3
外構一般画層
360
520
  3
外構図
360
521
  3
外部-フリーズ解除
360
522
  3
外部参照－建築
360
523
  3
外部参照の非表示画層
360
524
  3
岩級
360
525
  3
基
360
526
  3
基準
360
527
  3
基礎伏図
360
528
  3
既存杭
360
529
  3
機器
360
52A
  3
機器基礎
360
52B
  3
記号
360
52C
  3
旧
360
52D
  3
共通
360
52E
  3
区画
360
52F
  3
躯体
360
530
  3
躯体図
360
531
  3
駆体
360
532
  3
空調設備図
360
533
  3
郡川
360
534
  3
型枠計画図
360
535
  3
形状
360
536
  3
形状以外
360
537
  3
建具
360
538
  3
建築
360
539
  3
建築1
360
53A
  3
建築一般画層
360
53B
  3
建築図
360
53C
  3
建築接地図
360
53D
  3
建物
360
53E
  3
見え
360
53F
  3
見上
360
540
  3
現況
360
541
  3
現況＆境界
360
542
  3
現在以外のすべてを選択
360
543
  3
後付
360
544
  3
公園
360
545
  3
杭頭詳細図
360
546
  3
杭伏図
360
547
  3
高さ
360
548
  3
高圧電気
360
549
  3
座席のみ
360
54A
  3
作業
360
54B
  3
山止根切計画図
360
54C
  3
仕
360
54D
  3
仕上
360
54E
  3
仕上げ
360
54F
  3
仕上図
360
550
  3
支柱取付部
360
551
  3
施工図
360
552
  3
紫
360
553
  3
従属
360
554
  3
出図
360
555
  3
床伏
360
556
  3
床伏図
360
557
  3
昇降機
360
558
  3
詳細
360
559
  3
詳細一般画層
360
55A
  3
詳細図
360
55B
  3
上階躯体図
360
55C
  3
植栽
360
55D
  3
色番号8
360
55E
  3
新
360
55F
  3
新菱
360
560
  3
申請用
360
561
  3
芯
360
562
  3
芯関係
360
563
  3
水
360
564
  3
水色
360
565
  3
寸法
360
566
  3
正面図
360
567
  3
製作
360
568
  3
製作-躯体
360
569
  3
製作-建築
360
56A
  3
製作-昇降機
360
56B
  3
青
360
56C
  3
設備
360
56D
  3
設備１
360
56E
  3
専北
360
56F
  3
専用
360
570
  3
川畑
360
571
  3
線形
360
572
  3
全階平面図
360
573
  3
全帯
360
574
  3
総合仮設図
360
575
  3
総合図
360
576
  3
総合図1
360
577
  3
足場計画図
360
578
  3
耐火
360
579
  3
断面
360
57A
  3
断面図
360
57B
  3
中
360
57C
  3
中野
360
57D
  3
通り芯
360
57E
  3
低圧
360
57F
  3
鉄筋
360
580
  3
鉄骨
360
581
  3
鉄骨建方計画図
360
582
  3
鉄骨梁見下げ
360
583
  3
鉄骨梁見下げ3
360
584
  3
天井
360
585
  3
天井インサート図
360
586
  3
天井総合図
360
587
  3
天井伏
360
588
  3
天井伏図
360
589
  3
天伏
360
58A
  3
展開図
360
58B
  3
電ｺﾝｾﾝﾄ
360
58C
  3
電ﾃﾚﾋﾞ
360
58D
  3
電の画層
360
58E
  3
電の総画層
360
58F
  3
電医療接地
360
590
  3
電気
360
591
  3
電気画層
360
592
  3
電気設計図
360
593
  3
電気設備図
360
594
  3
電電話
360
595
  3
土留板
360
596
  3
土留板取付詳細図
360
597
  3
動力
360
598
  3
道路
360
599
  3
道路関係図
360
59A
  3
読み込み時表示層
360
59B
  3
日比谷
360
59C
  3
日比谷1
360
59D
  3
背面図
360
59E
  3
配管
360
59F
  3
配筋図
360
5A0
  3
配置樹木
360
5A1
  3
配置図
360
5A2
  3
盤
360
5A3
  3
非表示
360
5A4
  3
非表示層のみ表示
360
5A5
  3
表示
360
5A6
  3
表示-ﾊﾟｼｺﾝ作成画層のみ
360
5A7
  3
表示-近代作成画層のみ
360
5A8
  3
表示-東電作成画層のみ
360
5A9
  3
表示-日技作成画層のみ
360
5AA
  3
表示-福山作成画層のみ
360
5AB
  3
表示・非表示
360
5AC
  3
表示2
360
5AD
  3
表示層のみ表示
360
5AE
  3
副道
360
5AF
  3
分割枠
360
5B0
  3
文字
360
5B1
  3
平詳
360
5B2
  3
平詳仕上表1
360
5B3
  3
平面
360
5B4
  3
平面詳細
360
5B5
  3
平面詳細図
360
5B6
  3
平面図
360
5B7
  3
平面図のみ＠1
360
5B8
  3
平面図のみ＠２
360
5B9
  3
平面総合図
360
5BA
  3
保留
360
5BB
  3
補助線
360
5BC
  3
法規チェック－区画
360
5BD
  3
法規チェック－範囲
360
5BE
  3
鳳文字入力
360
5BF
  3
防災
360
5C0
  3
名称
360
5C1
  3
面積
360
5C2
  3
立面図
360
5C3
  3
梁
360
5C4
  3
緑
360
5C5
  0
LAYOUT
  5
2C4
102
{ACAD_REACTORS
330
2C2
102
}
330
2C2
100
AcDbPlotSettings
  1

  2
Laser Wind 2080W
  4

  6

 40
0.0
 41
0.0
 42
0.0
 43
0.0
 44
0.0
 45
0.0
 46
0.0
 47
0.0
 48
0.0
 49
0.0
140
0.0
141
0.0
142
1.0
143
1.0
 70
  1712
 72
     0
 73
     0
 74
     0
  7

 75
     0
147
1.0
148
0.0
149
0.0
100
AcDbLayout
  1
Model
 70
     1
 71
     0
 10
0.0
 20
0.0
 11
12.0
 21
9.0
 12
0.0
 22
0.0
 32
0.0
 14
0.0
 24
0.0
 34
0.0
 15
0.0
 25
0.0
 35
0.0
146
0.0
 13
0.0
 23
0.0
 33
0.0
 16
1.0
 26
0.0
 36
0.0
 17
0.0
 27
1.0
 37
0.0
 76
     0
330
1A
  0
LAYOUT
  5
2C5
102
{ACAD_REACTORS
330
2C2
102
}
330
2C2
100
AcDbPlotSettings
  1
A3formNX710
  2
RICOH IPSiO NX710
  4
A3
  6

 40
5.831416606903076
 41
4.307413101196289
 42
8.244415283203125
 43
5.789093017578125
 44
296.9683227539062
 45
419.9889831542968
 46
0.0
 47
0.0
 48
0.0
 49
0.0
140
0.0
141
0.0
142
1.0
143
0.999993956865126
 70
   688
 72
     1
 73
     1
 74
     2
  7
monochrome.ctb
 75
     0
147
1.000006043171393
148
0.0
149
0.0
100
AcDbLayout
  1
ﾚｲｱｳﾄ1
 70
     1
 71
     1
 10
0.0
 20
0.0
 11
409.8899999999999
 21
282.8899999999999
 12
0.0
 22
0.0
 32
0.0
 14
20.0
 24
12.0
 34
0.0
 15
405.0
 25
276.9999999999999
 35
0.0
146
0.0
 13
0.0
 23
0.0
 33
0.0
 16
1.0
 26
0.0
 36
0.0
 17
0.0
 27
1.0
 37
0.0
 76
     0
330
17
331
22
  0
MLINESTYLE
  5
13
102
{ACAD_REACTORS
330
E
102
}
330
E
100
AcDbMlineStyle
  2
STANDARD
 70
     0
  3

 62
     0
 51
90.0
 52
90.0
 71
     2
 49
0.5
 62
   256
  6
BYLAYER
 49
-0.5
 62
   256
  6
BYLAYER
  0
PLOTSETTINGS
  5
2FA
102
{ACAD_REACTORS
330
2C3
102
}
330
2C3
100
AcDbPlotSettings
  1
A3formNX710
  2
RICOH IPSiO NX710
  4
A3
  6

 40
5.831416606903076
 41
4.307413101196289
 42
8.244415283203125
 43
5.789093017578125
 44
296.9683227539062
 45
419.9889831542968
 46
0.0
 47
0.0
 48
0.0
 49
0.0
140
0.0
141
0.0
142
1.0
143
0.999993956865126
 70
   688
 72
     1
 73
     1
 74
     2
  7
monochrome.ctb
 75
     0
147
1.000006043171393
148
0.0
149
0.0
  0
ACDBPLACEHOLDER
  5
2C1
102
{ACAD_REACTORS
330
2C0
102
}
330
2C0
  0
XRECORD
  5
396
102
{ACAD_REACTORS
330
395
102
}
330
395
100
AcDbXrecord
280
     1
  1
-100
  1
*-100
  1
*
  1
*
 70
     0
  1
*
  1
*
  0
XRECORD
  5
397
102
{ACAD_REACTORS
330
395
102
}
330
395
100
AcDbXrecord
280
     1
  1
-50
  1
*-50
  1
*
  1
*
 70
     0
  1
*
  1
*
  0
XRECORD
  5
398
102
{ACAD_REACTORS
330
395
102
}
330
395
100
AcDbXrecord
280
     1
  1
-H
  1
00*,01*,02*,05*,1*,2*,3*,4*,5*,6*,8*
  1
*
  1
*
 70
     0
  1
*
  1
*
  0
XRECORD
  5
399
102
{ACAD_REACTORS
330
395
102
}
330
395
100
AcDbXrecord
280
     1
  1
-T
  1
00*,01*,03*,05*,1*,20*,21*,22*,23*,24*,25*,26*,27*,29*,2a*,3*,4*,7*,9*
  1
*
  1
*
 70
     0
  1
*
  1
*
  0
XRECORD
  5
39A
102
{ACAD_REACTORS
330
395
102
}
330
395
100
AcDbXrecord
280
     1
  1
$
  1
*$0$*
  1
*
  1
*
 70
     0
  1
*
  1
*
  0
XRECORD
  5
39B
102
{ACAD_REACTORS
330
395
102
}
330
395
100
AcDbXrecord
280
     1
  1
(02)幹線
  1
電-幹線*
  1
*
  1
*
 70
     0
  1
*
  1
*
  0
XRECORD
  5
39C
102
{ACAD_REACTORS
330
395
102
}
330
395
100
AcDbXrecord
280
     1
  1
（02）幹線
  1
電-幹線*
  1
*
  1
*
 70
     0
  1
*
  1
*
  0
XRECORD
  5
39D
102
{ACAD_REACTORS
330
395
102
}
330
395
100
AcDbXrecord
280
     1
  1
(03)接地
  1
電-接地*
  1
*
  1
*
 70
     0
  1
*
  1
*
  0
XRECORD
  5
39E
102
{ACAD_REACTORS
330
395
102
}
330
395
100
AcDbXrecord
280
     1
  1
（03）接地
  1
電-接地*
  1
*
  1
*
 70
     0
  1
*
  1
*
  0
XRECORD
  5
39F
102
{ACAD_REACTORS
330
395
102
}
330
395
100
AcDbXrecord
280
     1
  1
（04）避雷
  1
電-避雷*
  1
*
  1
*
 70
     0
  1
*
  1
*
  0
XRECORD
  5
3A0
102
{ACAD_REACTORS
330
395
102
}
330
395
100
AcDbXrecord
280
     1
  1
(05)中央監視
  1
電-中央監視*
  1
*
  1
*
 70
     0
  1
*
  1
*
  0
XRECORD
  5
3A1
102
{ACAD_REACTORS
330
395
102
}
330
395
100
AcDbXrecord
280
     1
  1
（05）中央監視
  1
電-中央監視*
  1
*
  1
*
 70
     0
  1
*
  1
*
  0
XRECORD
  5
3A2
102
{ACAD_REACTORS
330
395
102
}
330
395
100
AcDbXrecord
280
     1
  1
(06)非常用ｺﾝｾﾝﾄ
  1
電-非常用ｺﾝ*
  1
*
  1
*
 70
     0
  1
*
  1
*
  0
XRECORD
  5
3A3
102
{ACAD_REACTORS
330
395
102
}
330
395
100
AcDbXrecord
280
     1
  1
（06）非常用ｺﾝｾﾝﾄ
  1
電-非常用ｺﾝｾﾝﾄ*
  1
*
  1
*
 70
     0
  1
*
  1
*
  0
XRECORD
  5
3A4
102
{ACAD_REACTORS
330
395
102
}
330
395
100
AcDbXrecord
280
     1
  1
（07）ﾊﾞｽﾀﾞｸﾄ
  1
電-ﾊﾞｽﾀﾞｸﾄ*
  1
*
  1
*
 70
     0
  1
*
  1
*
  0
XRECORD
  5
3A5
102
{ACAD_REACTORS
330
395
102
}
330
395
100
AcDbXrecord
280
     1
  1
（08）ｹｰﾌﾞﾙﾗｯｸ
  1
電-ｹｰﾌﾞﾙﾗｯｸ*
  1
*
  1
*
 70
     0
  1
*
  1
*
  0
XRECORD
  5
3A6
102
{ACAD_REACTORS
330
395
102
}
330
395
100
AcDbXrecord
280
     1
  1
(09)動力
  1
電-動力*
  1
*
  1
*
 70
     0
  1
*
  1
*
  0
XRECORD
  5
3A7
102
{ACAD_REACTORS
330
395
102
}
330
395
100
AcDbXrecord
280
     1
  1
（09）動力
  1
電-動力*
  1
*
  1
*
 70
     0
  1
*
  1
*
  0
XRECORD
  5
3A8
102
{ACAD_REACTORS
330
395
102
}
330
395
100
AcDbXrecord
280
     1
  1
(10)ｺﾝｾﾝﾄ
  1
電-ｺﾝｾﾝﾄ*
  1
*
  1
*
 70
     0
  1
*
  1
*
  0
XRECORD
  5
3A9
102
{ACAD_REACTORS
330
395
102
}
330
395
100
AcDbXrecord
280
     1
  1
（10）ｺﾝｾﾝﾄ
  1
電-ｺﾝｾﾝﾄ*
  1
*
  1
*
 70
     0
  1
*
  1
*
  0
XRECORD
  5
3AA
102
{ACAD_REACTORS
330
395
102
}
330
395
100
AcDbXrecord
280
     1
  1
（11）医療接地
  1
電-医療*
  1
*
  1
*
 70
     0
  1
*
  1
*
  0
XRECORD
  5
3AB
102
{ACAD_REACTORS
330
395
102
}
330
395
100
AcDbXrecord
280
     1
  1
(12)電灯
  1
電-電灯*
  1
*
  1
*
 70
     0
  1
*
  1
*
  0
XRECORD
  5
3AC
102
{ACAD_REACTORS
330
395
102
}
330
395
100
AcDbXrecord
280
     1
  1
（12）電灯
  1
電-電灯*
  1
*
  1
*
 70
     0
  1
*
  1
*
  0
XRECORD
  5
3AD
102
{ACAD_REACTORS
330
395
102
}
330
395
100
AcDbXrecord
280
     1
  1
(13)空調
  1
電-空調*
  1
*
  1
*
 70
     0
  1
*
  1
*
  0
XRECORD
  5
3AE
102
{ACAD_REACTORS
330
395
102
}
330
395
100
AcDbXrecord
280
     1
  1
（13）空調
  1
電-空調*
  1
*
  1
*
 70
     0
  1
*
  1
*
  0
XRECORD
  5
3AF
102
{ACAD_REACTORS
330
395
102
}
330
395
100
AcDbXrecord
280
     1
  1
（14）航空障害灯
  1
電-航空*
  1
*
  1
*
 70
     0
  1
*
  1
*
  0
XRECORD
  5
3B0
102
{ACAD_REACTORS
330
395
102
}
330
395
100
AcDbXrecord
280
     1
  1
(15)非常照明
  1
電-非常照明*
  1
*
  1
*
 70
     0
  1
*
  1
*
  0
XRECORD
  5
3B1
102
{ACAD_REACTORS
330
395
102
}
330
395
100
AcDbXrecord
280
     1
  1
（15）非常照明
  1
電-非常照明*
  1
*
  1
*
 70
     0
  1
*
  1
*
  0
XRECORD
  5
3B2
102
{ACAD_REACTORS
330
395
102
}
330
395
100
AcDbXrecord
280
     1
  1
（16）誘導灯
  1
電-誘導灯*
  1
*
  1
*
 70
     0
  1
*
  1
*
  0
XRECORD
  5
3B3
102
{ACAD_REACTORS
330
395
102
}
330
395
100
AcDbXrecord
280
     1
  1
(17)電話
  1
電-電話*
  1
*
  1
*
 70
     0
  1
*
  1
*
  0
XRECORD
  5
3B4
102
{ACAD_REACTORS
330
395
102
}
330
395
100
AcDbXrecord
280
     1
  1
（17）電話
  1
電-電話*
  1
*
  1
*
 70
     0
  1
*
  1
*
  0
XRECORD
  5
3B5
102
{ACAD_REACTORS
330
395
102
}
330
395
100
AcDbXrecord
280
     1
  1
(18)情報
  1
電-情報*
  1
*
  1
*
 70
     0
  1
*
  1
*
  0
XRECORD
  5
3B6
102
{ACAD_REACTORS
330
395
102
}
330
395
100
AcDbXrecord
280
     1
  1
（18）情報
  1
電-情報*
  1
*
  1
*
 70
     0
  1
*
  1
*
  0
XRECORD
  5
3B7
102
{ACAD_REACTORS
330
395
102
}
330
395
100
AcDbXrecord
280
     1
  1
(19)ﾃﾚﾋﾞ
  1
電-ﾃﾚﾋﾞ*
  1
*
  1
*
 70
     0
  1
*
  1
*
  0
XRECORD
  5
3B8
102
{ACAD_REACTORS
330
395
102
}
330
395
100
AcDbXrecord
280
     1
  1
（19）ﾃﾚﾋﾞ
  1
電-ﾃﾚﾋﾞ*
  1
*
  1
*
 70
     0
  1
*
  1
*
  0
XRECORD
  5
3B9
102
{ACAD_REACTORS
330
395
102
}
330
395
100
AcDbXrecord
280
     1
  1
(20)防犯
  1
電-防*
  1
*
  1
*
 70
     0
  1
*
  1
*
  0
XRECORD
  5
3BA
102
{ACAD_REACTORS
330
395
102
}
330
395
100
AcDbXrecord
280
     1
  1
（20）防犯
  1
電-防犯*
  1
*
  1
*
 70
     0
  1
*
  1
*
  0
XRECORD
  5
3BB
102
{ACAD_REACTORS
330
395
102
}
330
395
100
AcDbXrecord
280
     1
  1
（21）ITV
  1
電-ITV*
  1
*
  1
*
 70
     0
  1
*
  1
*
  0
XRECORD
  5
3BC
102
{ACAD_REACTORS
330
395
102
}
330
395
100
AcDbXrecord
280
     1
  1
(22)ﾅｰｽｺｰﾙ
  1
電-ﾅｰｽｺｰﾙ*
  1
*
  1
*
 70
     0
  1
*
  1
*
  0
XRECORD
  5
3BD
102
{ACAD_REACTORS
330
395
102
}
330
395
100
AcDbXrecord
280
     1
  1
（22）ﾅｰｽｺｰﾙ
  1
電-ﾅｰｽｺｰﾙ*
  1
*
  1
*
 70
     0
  1
*
  1
*
  0
XRECORD
  5
3BE
102
{ACAD_REACTORS
330
395
102
}
330
395
100
AcDbXrecord
280
     1
  1
（23）外来診察
  1
電-外来診察*
  1
*
  1
*
 70
     0
  1
*
  1
*
  0
XRECORD
  5
3BF
102
{ACAD_REACTORS
330
395
102
}
330
395
100
AcDbXrecord
280
     1
  1
（24）ﾍﾞｯﾄｻｲﾄﾞ
  1
電-ﾍﾞｯﾄｻｲﾄﾞ*
  1
*
  1
*
 70
     0
  1
*
  1
*
  0
XRECORD
  5
3C0
102
{ACAD_REACTORS
330
395
102
}
330
395
100
AcDbXrecord
280
     1
  1
（25）採尿蓄量
  1
電-採尿蓄量*
  1
*
  1
*
 70
     0
  1
*
  1
*
  0
XRECORD
  5
3C1
102
{ACAD_REACTORS
330
395
102
}
330
395
100
AcDbXrecord
280
     1
  1
(26)非常放送
  1
電-非常放送*
  1
*
  1
*
 70
     0
  1
*
  1
*
  0
XRECORD
  5
3C2
102
{ACAD_REACTORS
330
395
102
}
330
395
100
AcDbXrecord
280
     1
  1
（26）非常放送
  1
電-非常放送*
  1
*
  1
*
 70
     0
  1
*
  1
*
  0
XRECORD
  5
3C3
102
{ACAD_REACTORS
330
395
102
}
330
395
100
AcDbXrecord
280
     1
  1
（27）業務放送
  1
電-業務放送*
  1
*
  1
*
 70
     0
  1
*
  1
*
  0
XRECORD
  5
3C4
102
{ACAD_REACTORS
330
395
102
}
330
395
100
AcDbXrecord
280
     1
  1
(28)火報
  1
電-火報*
  1
*
  1
*
 70
     0
  1
*
  1
*
  0
XRECORD
  5
3C5
102
{ACAD_REACTORS
330
395
102
}
330
395
100
AcDbXrecord
280
     1
  1
（28）火報
  1
電-火報*
  1
*
  1
*
 70
     0
  1
*
  1
*
  0
XRECORD
  5
3C6
102
{ACAD_REACTORS
330
395
102
}
330
395
100
AcDbXrecord
280
     1
  1
(29)厨房
  1
電-厨房*
  1
*
  1
*
 70
     0
  1
*
  1
*
  0
XRECORD
  5
3C7
102
{ACAD_REACTORS
330
395
102
}
330
395
100
AcDbXrecord
280
     1
  1
（29）厨房
  1
電-厨房*
  1
*
  1
*
 70
     0
  1
*
  1
*
  0
XRECORD
  5
3C8
102
{ACAD_REACTORS
330
395
102
}
330
395
100
AcDbXrecord
280
     1
  1
､@ｯ・U+56F3
  1
hatch
  1
*
  1
*
 70
     7
  1
*
  1
*
  0
XRECORD
  5
3C9
102
{ACAD_REACTORS
330
395
102
}
330
395
100
AcDbXrecord
280
     1
  1
･画ｼhｪ愠ﾜ
  1
*
  1
*
  1
*
 70
     1
  1
*
  1
*
  0
XRECORD
  5
3CA
102
{ACAD_REACTORS
330
395
102
}
330
395
100
AcDbXrecord
280
     1
  1
0
  1
*0*
  1
*
  1
*
 70
     0
  1
*
  1
*
  0
XRECORD
  5
3CB
102
{ACAD_REACTORS
330
395
102
}
330
395
100
AcDbXrecord
280
     1
  1
0 画層
  1
0*,*.
  1
*
  1
*
 70
     0
  1
*
  1
*
  0
XRECORD
  5
3CC
102
{ACAD_REACTORS
330
395
102
}
330
395
100
AcDbXrecord
280
     1
  1
00
  1
*-100
  1
*
  1
*
 70
     0
  1
*
  1
*
  0
XRECORD
  5
3CD
102
{ACAD_REACTORS
330
395
102
}
330
395
100
AcDbXrecord
280
     1
  1
001
  1
*
  1
*
  1
*
 70
     3
  1
*
  1
*
  0
XRECORD
  5
3CE
102
{ACAD_REACTORS
330
395
102
}
330
395
100
AcDbXrecord
280
     1
  1
01
  1
*
  1
*
  1
*
 70
     0
  1
*
  1
*
  0
XRECORD
  5
3CF
102
{ACAD_REACTORS
330
395
102
}
330
395
100
AcDbXrecord
280
     1
  1
05
  1
*05*
  1
*
  1
*
 70
     0
  1
*
  1
*
  0
XRECORD
  5
3D0
102
{ACAD_REACTORS
330
395
102
}
330
395
100
AcDbXrecord
280
     1
  1
0系
  1
0*
  1
*
  1
*
 70
     0
  1
*
  1
*
  0
XRECORD
  5
3D1
102
{ACAD_REACTORS
330
395
102
}
330
395
100
AcDbXrecord
280
     1
  1
0系+CONTINUOUS
  1
0?*
  1
*
  1
CONTINUOUS
 70
     0
  1
*
  1
*
  0
XRECORD
  5
3D2
102
{ACAD_REACTORS
330
395
102
}
330
395
100
AcDbXrecord
280
     1
  1
0床内
  1
FI-*
  1
*
  1
*
 70
     0
  1
*
  1
*
  0
XRECORD
  5
3D3
102
{ACAD_REACTORS
330
395
102
}
330
395
100
AcDbXrecord
280
     1
  1
0床壁
  1
FW*
  1
*
  1
*
 70
     0
  1
*
  1
*
  0
XRECORD
  5
3D4
102
{ACAD_REACTORS
330
395
102
}
330
395
100
AcDbXrecord
280
     1
  1
0詳細図
  1
*-d
  1
*
  1
*
 70
     0
  1
*
  1
*
  0
XRECORD
  5
3D5
102
{ACAD_REACTORS
330
395
102
}
330
395
100
AcDbXrecord
280
     1
  1
0総合図off
  1
*-s
  1
*
  1
*
 70
     0
  1
*
  1
*
  0
XRECORD
  5
3D6
102
{ACAD_REACTORS
330
395
102
}
330
395
100
AcDbXrecord
280
     1
  1
0総合図枠
  1
*-2
  1
*
  1
*
 70
     0
  1
*
  1
*
  0
XRECORD
  5
3D7
102
{ACAD_REACTORS
330
395
102
}
330
395
100
AcDbXrecord
280
     1
  1
0平詳枠
  1
*-1
  1
*
  1
*
 70
     0
  1
*
  1
*
  0
XRECORD
  5
3D8
102
{ACAD_REACTORS
330
395
102
}
330
395
100
AcDbXrecord
280
     1
  1
1
  1
*
  1
9
  1
*
 70
     0
  1
*
  1
*
  0
XRECORD
  5
3D9
102
{ACAD_REACTORS
330
395
102
}
330
395
100
AcDbXrecord
280
     1
  1
1-30
  1
30*
  1
*
  1
*
 70
     0
  1
*
  1
*
  0
XRECORD
  5
3DA
102
{ACAD_REACTORS
330
395
102
}
330
395
100
AcDbXrecord
280
     1
  1
1-交差点処理図（最新1案）
  1
*交差点処理図（最新1案）*
  1
*
  1
*
 70
     0
  1
*
  1
*
  0
XRECORD
  5
3DB
102
{ACAD_REACTORS
330
395
102
}
330
395
100
AcDbXrecord
280
     1
  1
1／100
  1
*1／100*
  1
*
  1
*
 70
     0
  1
*
  1
*
  0
XRECORD
  5
3DC
102
{ACAD_REACTORS
330
395
102
}
330
395
100
AcDbXrecord
280
     1
  1
100
  1
*100*
  1
*
  1
*
 70
     0
  1
*
  1
*
  0
XRECORD
  5
3DD
102
{ACAD_REACTORS
330
395
102
}
330
395
100
AcDbXrecord
280
     1
  1
10画層
  1
*-10
  1
*
  1
*
 70
     0
  1
*
  1
*
  0
XRECORD
  5
3DE
102
{ACAD_REACTORS
330
395
102
}
330
395
100
AcDbXrecord
280
     1
  1
1111
  1
*-50
  1
*
  1
*
 70
     0
  1
*
  1
*
  0
XRECORD
  5
3DF
102
{ACAD_REACTORS
330
395
102
}
330
395
100
AcDbXrecord
280
     1
  1
12
  1
*
  1
*12
  1
*
 70
     0
  1
*
  1
*
  0
XRECORD
  5
3E0
102
{ACAD_REACTORS
330
395
102
}
330
395
100
AcDbXrecord
280
     1
  1
19
  1
*19*
  1
*
  1
*
 70
     0
  1
*
  1
*
  0
XRECORD
  5
3E1
102
{ACAD_REACTORS
330
395
102
}
330
395
100
AcDbXrecord
280
     1
  1
1床
  1
F-*
  1
*
  1
*
 70
     0
  1
*
  1
*
  0
XRECORD
  5
3E2
102
{ACAD_REACTORS
330
395
102
}
330
395
100
AcDbXrecord
280
     1
  1
1芯
  1
1*
  1
*
  1
*
 70
     0
  1
*
  1
*
  0
XRECORD
  5
3E3
102
{ACAD_REACTORS
330
395
102
}
330
395
100
AcDbXrecord
280
     1
  1
1芯線
  1
1*
  1
*
  1
*
 70
     0
  1
*
  1
*
  0
XRECORD
  5
3E4
102
{ACAD_REACTORS
330
395
102
}
330
395
100
AcDbXrecord
280
     1
  1
2
  1
*2
  1
*
  1
*
 70
     0
  1
*
  1
*
  0
XRECORD
  5
3E5
102
{ACAD_REACTORS
330
395
102
}
330
395
100
AcDbXrecord
280
     1
  1
2-線形図1
  1
*線形図1*
  1
*
  1
*
 70
     0
  1
*
  1
*
  0
XRECORD
  5
3E6
102
{ACAD_REACTORS
330
395
102
}
330
395
100
AcDbXrecord
280
     1
  1
200
  1
*
  1
*
  1
*
 70
     0
  1
*
  1
*
  0
XRECORD
  5
3E7
102
{ACAD_REACTORS
330
395
102
}
330
395
100
AcDbXrecord
280
     1
  1
21
  1
*
  1
21
  1
*
 70
     0
  1
*
  1
*
  0
XRECORD
  5
3E8
102
{ACAD_REACTORS
330
395
102
}
330
395
100
AcDbXrecord
280
     1
  1
2100
  1
*2100*
  1
*
  1
*
 70
     0
  1
*
  1
*
  0
XRECORD
  5
3E9
102
{ACAD_REACTORS
330
395
102
}
330
395
100
AcDbXrecord
280
     1
  1
250
  1
*250*
  1
*
  1
*
 70
     0
  1
*
  1
*
  0
XRECORD
  5
3EA
102
{ACAD_REACTORS
330
395
102
}
330
395
100
AcDbXrecord
280
     1
  1
2600
  1
*2600*
  1
*
  1
*
 70
     0
  1
*
  1
*
  0
XRECORD
  5
3EB
102
{ACAD_REACTORS
330
395
102
}
330
395
100
AcDbXrecord
280
     1
  1
2f
  1
a*
  1
*
  1
*
 70
     0
  1
*
  1
*
  0
XRECORD
  5
3EC
102
{ACAD_REACTORS
330
395
102
}
330
395
100
AcDbXrecord
280
     1
  1
2躯体
  1
2*
  1
*
  1
*
 70
     0
  1
*
  1
*
  0
XRECORD
  5
3ED
102
{ACAD_REACTORS
330
395
102
}
330
395
100
AcDbXrecord
280
     1
  1
2断面
  1
2*
  1
*
  1
*
 70
     0
  1
*
  1
*
  0
XRECORD
  5
3EE
102
{ACAD_REACTORS
330
395
102
}
330
395
100
AcDbXrecord
280
     1
  1
2壁
  1
W-*
  1
*
  1
*
 70
     0
  1
*
  1
*
  0
XRECORD
  5
3EF
102
{ACAD_REACTORS
330
395
102
}
330
395
100
AcDbXrecord
280
     1
  1
3
  1
*
  1
3
  1
*
 70
     0
  1
*
  1
*
  0
XRECORD
  5
3F0
102
{ACAD_REACTORS
330
395
102
}
330
395
100
AcDbXrecord
280
     1
  1
3-線形図2
  1
*線形図2*
  1
*
  1
*
 70
     0
  1
*
  1
*
  0
XRECORD
  5
3F1
102
{ACAD_REACTORS
330
395
102
}
330
395
100
AcDbXrecord
280
     1
  1
300
  1
*-3
  1
*
  1
*
 70
     0
  1
*
  1
*
  0
XRECORD
  5
3F2
102
{ACAD_REACTORS
330
395
102
}
330
395
100
AcDbXrecord
280
     1
  1
32
  1
*
  1
32
  1
*
 70
     0
  1
*
  1
*
  0
XRECORD
  5
3F3
102
{ACAD_REACTORS
330
395
102
}
330
395
100
AcDbXrecord
280
     1
  1
333
  1
*
  1
*
  1
*
 70
    12
  1
*
  1
*
  0
XRECORD
  5
3F4
102
{ACAD_REACTORS
330
395
102
}
330
395
100
AcDbXrecord
280
     1
  1
3A
  1
*-3A
  1
*
  1
*
 70
     0
  1
*
  1
*
  0
XRECORD
  5
3F5
102
{ACAD_REACTORS
330
395
102
}
330
395
100
AcDbXrecord
280
     1
  1
3開口
  1
3*
  1
*
  1
*
 70
     0
  1
*
  1
*
  0
XRECORD
  5
3F6
102
{ACAD_REACTORS
330
395
102
}
330
395
100
AcDbXrecord
280
     1
  1
3見掛り
  1
3*
  1
*
  1
*
 70
     0
  1
*
  1
*
  0
XRECORD
  5
3F7
102
{ACAD_REACTORS
330
395
102
}
330
395
100
AcDbXrecord
280
     1
  1
3天井内
  1
CI-*
  1
*
  1
*
 70
     0
  1
*
  1
*
  0
XRECORD
  5
3F8
102
{ACAD_REACTORS
330
395
102
}
330
395
100
AcDbXrecord
280
     1
  1
4
  1
*
  1
4
  1
*
 70
     0
  1
*
  1
*
  0
XRECORD
  5
3F9
102
{ACAD_REACTORS
330
395
102
}
330
395
100
AcDbXrecord
280
     1
  1
41
  1
41
  1
*
  1
*
 70
     1
  1
*
  1
*
  0
XRECORD
  5
3FA
102
{ACAD_REACTORS
330
395
102
}
330
395
100
AcDbXrecord
280
     1
  1
4仕上げ
  1
4*
  1
*
  1
*
 70
     0
  1
*
  1
*
  0
XRECORD
  5
3FB
102
{ACAD_REACTORS
330
395
102
}
330
395
100
AcDbXrecord
280
     1
  1
4天井
  1
C-*
  1
*
  1
*
 70
     0
  1
*
  1
*
  0
XRECORD
  5
3FC
102
{ACAD_REACTORS
330
395
102
}
330
395
100
AcDbXrecord
280
     1
  1
5
  1
*5
  1
*
  1
*
 70
     1
  1
*
  1
*
  0
XRECORD
  5
3FD
102
{ACAD_REACTORS
330
395
102
}
330
395
100
AcDbXrecord
280
     1
  1
50
  1
*-50
  1
*
  1
*
 70
     0
  1
*
  1
*
  0
XRECORD
  5
3FE
102
{ACAD_REACTORS
330
395
102
}
330
395
100
AcDbXrecord
280
     1
  1
50off
  1
50*
  1
*
  1
*
 70
     0
  1
*
  1
*
  0
XRECORD
  5
3FF
102
{ACAD_REACTORS
330
395
102
}
330
395
100
AcDbXrecord
280
     1
  1
50詳細図
  1
*
  1
*
  1
*
 70
     0
  1
*
  1
*
  0
XRECORD
  5
400
102
{ACAD_REACTORS
330
395
102
}
330
395
100
AcDbXrecord
280
     1
  1
51-52
  1
5*
  1
*
  1
*
 70
     0
  1
*
  1
*
  0
XRECORD
  5
401
102
{ACAD_REACTORS
330
395
102
}
330
395
100
AcDbXrecord
280
     1
  1
555
  1
*
  1
*
  1
*
 70
     1
  1
*
  1
*
  0
XRECORD
  5
402
102
{ACAD_REACTORS
330
395
102
}
330
395
100
AcDbXrecord
280
     1
  1
5画層
  1
*-5
  1
*
  1
*
 70
     0
  1
*
  1
*
  0
XRECORD
  5
403
102
{ACAD_REACTORS
330
395
102
}
330
395
100
AcDbXrecord
280
     1
  1
5寸法
  1
5*
  1
*
  1
*
 70
     0
  1
*
  1
*
  0
XRECORD
  5
404
102
{ACAD_REACTORS
330
395
102
}
330
395
100
AcDbXrecord
280
     1
  1
5文字
  1
*TXT*
  1
*
  1
*
 70
     0
  1
*
  1
*
  0
XRECORD
  5
405
102
{ACAD_REACTORS
330
395
102
}
330
395
100
AcDbXrecord
280
     1
  1
6
  1
*
  1
6
  1
*
 70
     0
  1
*
  1
*
  0
XRECORD
  5
406
102
{ACAD_REACTORS
330
395
102
}
330
395
100
AcDbXrecord
280
     1
  1
66-躯体図
  1
0,Defpoints,HOJO,雲マーク,000*,010*,020*,1*,400*,470*,520*,570*,08*
  1
*
  1
*
 70
     0
  1
*
  1
*
  0
XRECORD
  5
407
102
{ACAD_REACTORS
330
395
102
}
330
395
100
AcDbXrecord
280
     1
  1
66躯体図
  1
0,Defpoints,HOJO,雲マーク,000*,010*,020*,1*,400*,470*,520*,570*,08*,6*
  1
*
  1
*
 70
     0
  1
*
  1
*
  0
XRECORD
  5
408
102
{ACAD_REACTORS
330
395
102
}
330
395
100
AcDbXrecord
280
     1
  1
6画層
  1
*-6
  1
*
  1
*
 70
     0
  1
*
  1
*
  0
XRECORD
  5
409
102
{ACAD_REACTORS
330
395
102
}
330
395
100
AcDbXrecord
280
     1
  1
6記号
  1
6*
  1
*
  1
*
 70
     0
  1
*
  1
*
  0
XRECORD
  5
40A
102
{ACAD_REACTORS
330
395
102
}
330
395
100
AcDbXrecord
280
     1
  1
6文字
  1
6*
  1
*
  1
*
 70
     0
  1
*
  1
*
  0
XRECORD
  5
40B
102
{ACAD_REACTORS
330
395
102
}
330
395
100
AcDbXrecord
280
     1
  1
6保留
  1
*_a
  1
*
  1
*
 70
     0
  1
*
  1
*
  0
XRECORD
  5
40C
102
{ACAD_REACTORS
330
395
102
}
330
395
100
AcDbXrecord
280
     1
  1
7
  1
*
  1
7
  1
*
 70
     0
  1
*
  1
*
  0
XRECORD
  5
40D
102
{ACAD_REACTORS
330
395
102
}
330
395
100
AcDbXrecord
280
     1
  1
7-専用部北行
  1
80*,90*,A0*,B0*,
  1
*
  1
*
 70
     0
  1
*
  1
*
  0
XRECORD
  5
40E
102
{ACAD_REACTORS
330
395
102
}
330
395
100
AcDbXrecord
280
     1
  1
7a画層
  1
*-7a
  1
*
  1
*
 70
     0
  1
*
  1
*
  0
XRECORD
  5
40F
102
{ACAD_REACTORS
330
395
102
}
330
395
100
AcDbXrecord
280
     1
  1
7記号
  1
7*
  1
*
  1
*
 70
     0
  1
*
  1
*
  0
XRECORD
  5
410
102
{ACAD_REACTORS
330
395
102
}
330
395
100
AcDbXrecord
280
     1
  1
8
  1
*
  1
8
  1
*
 70
     0
  1
*
  1
*
  0
XRECORD
  5
411
102
{ACAD_REACTORS
330
395
102
}
330
395
100
AcDbXrecord
280
     1
  1
8-ONﾗﾝﾌﾟ
  1
70*,90*,A0*,B0*,
  1
*
  1
*
 70
     0
  1
*
  1
*
  0
XRECORD
  5
412
102
{ACAD_REACTORS
330
395
102
}
330
395
100
AcDbXrecord
280
     1
  1
8寸法
  1
8*
  1
*
  1
*
 70
     0
  1
*
  1
*
  0
XRECORD
  5
413
102
{ACAD_REACTORS
330
395
102
}
330
395
100
AcDbXrecord
280
     1
  1
8設備
  1
8*
  1
*
  1
*
 70
     0
  1
*
  1
*
  0
XRECORD
  5
414
102
{ACAD_REACTORS
330
395
102
}
330
395
100
AcDbXrecord
280
     1
  1
9
  1
*
  1
9
  1
*
 70
     0
  1
*
  1
*
  0
XRECORD
  5
415
102
{ACAD_REACTORS
330
395
102
}
330
395
100
AcDbXrecord
280
     1
  1
9-OFFﾗﾝﾌﾟ
  1
70*,80*,A0*B0*,
  1
*
  1
*
 70
     0
  1
*
  1
*
  0
XRECORD
  5
416
102
{ACAD_REACTORS
330
395
102
}
330
395
100
AcDbXrecord
280
     1
  1
901101
  1
*
  1
*
  1
*
 70
     0
  1
*
  1
*
  0
XRECORD
  5
417
102
{ACAD_REACTORS
330
395
102
}
330
395
100
AcDbXrecord
280
     1
  1
9文字
  1
9*
  1
*
  1
*
 70
     0
  1
*
  1
*
  0
XRECORD
  5
418
102
{ACAD_REACTORS
330
395
102
}
330
395
100
AcDbXrecord
280
     1
  1
9目地
  1
9*
  1
*
  1
*
 70
     0
  1
*
  1
*
  0
XRECORD
  5
419
102
{ACAD_REACTORS
330
395
102
}
330
395
100
AcDbXrecord
280
     1
  1
a
  1
*81,*82,*80,7212*,7213*,7211*
  1
*
  1
*
 70
     0
  1
*
  1
*
  0
XRECORD
  5
41A
102
{ACAD_REACTORS
330
395
102
}
330
395
100
AcDbXrecord
280
     1
  1
A-
  1
A-*
  1
*
  1
*
 70
     0
  1
*
  1
*
  0
XRECORD
  5
41B
102
{ACAD_REACTORS
330
395
102
}
330
395
100
AcDbXrecord
280
     1
  1
a-roof
  1
a-roof*
  1
*
  1
*
 70
     0
  1
*
  1
*
  0
XRECORD
  5
41C
102
{ACAD_REACTORS
330
395
102
}
330
395
100
AcDbXrecord
280
     1
  1
A 画層
  1
A*,*.
  1
*
  1
*
 70
     0
  1
*
  1
*
  0
XRECORD
  5
41D
102
{ACAD_REACTORS
330
395
102
}
330
395
100
AcDbXrecord
280
     1
  1
A3
  1
*A3
  1
*
  1
*
 70
     0
  1
*
  1
*
  0
XRECORD
  5
41E
102
{ACAD_REACTORS
330
395
102
}
330
395
100
AcDbXrecord
280
     1
  1
aa
  1
4262*
  1
*
  1
*
 70
     0
  1
*
  1
*
  0
XRECORD
  5
41F
102
{ACAD_REACTORS
330
395
102
}
330
395
100
AcDbXrecord
280
     1
  1
aaa
  1
*
  1
?
  1
*
 70
     0
  1
*
  1
*
  0
XRECORD
  5
420
102
{ACAD_REACTORS
330
395
102
}
330
395
100
AcDbXrecord
280
     1
  1
AAAA
  1
*KEL,*FIN,HASIRA
  1
*
  1
*
 70
     0
  1
*
  1
*
  0
XRECORD
  5
421
102
{ACAD_REACTORS
330
395
102
}
330
395
100
AcDbXrecord
280
     1
  1
AB棟
  1
ＡＢ棟*
  1
*
  1
*
 70
     0
  1
*
  1
*
  0
XRECORD
  5
422
102
{ACAD_REACTORS
330
395
102
}
330
395
100
AcDbXrecord
280
     1
  1
ＡＢ棟
  1
ＡＢ棟*
  1
*
  1
*
 70
     0
  1
*
  1
*
  0
XRECORD
  5
423
102
{ACAD_REACTORS
330
395
102
}
330
395
100
AcDbXrecord
280
     1
  1
all選択
  1
*
  1
*
  1
*
 70
     0
  1
*
  1
*
  0
XRECORD
  5
424
102
{ACAD_REACTORS
330
395
102
}
330
395
100
AcDbXrecord
280
     1
  1
AREA
  1
*AREA*
  1
*
  1
*
 70
     0
  1
*
  1
*
  0
XRECORD
  5
425
102
{ACAD_REACTORS
330
395
102
}
330
395
100
AcDbXrecord
280
     1
  1
AREA-SG
  1
*6AREA-SG
  1
6
  1
*
 70
     0
  1
*
  1
*
  0
XRECORD
  5
426
102
{ACAD_REACTORS
330
395
102
}
330
395
100
AcDbXrecord
280
     1
  1
ASDFCA
  1
846304*
  1
*
  1
*
 70
     0
  1
*
  1
*
  0
XRECORD
  5
427
102
{ACAD_REACTORS
330
395
102
}
330
395
100
AcDbXrecord
280
     1
  1
aハッチング
  1
a*
  1
*
  1
*
 70
     0
  1
*
  1
*
  0
XRECORD
  5
428
102
{ACAD_REACTORS
330
395
102
}
330
395
100
AcDbXrecord
280
     1
  1
A空調
  1
*
  1
*
  1
*
 70
     0
  1
*
  1
KUCYOU
  0
XRECORD
  5
429
102
{ACAD_REACTORS
330
395
102
}
330
395
100
AcDbXrecord
280
     1
  1
Ａ断面
  1
DSTD_SECT-A*
  1
*
  1
*
 70
     0
  1
*
  1
*
  0
XRECORD
  5
42A
102
{ACAD_REACTORS
330
395
102
}
330
395
100
AcDbXrecord
280
     1
  1
b
  1
15法規
  1
120
  1
*
 70
     3
  1
*
  1
*
  0
XRECORD
  5
42B
102
{ACAD_REACTORS
330
395
102
}
330
395
100
AcDbXrecord
280
     1
  1
B 画層
  1
B*,*.
  1
*
  1
*
 70
     0
  1
*
  1
*
  0
XRECORD
  5
42C
102
{ACAD_REACTORS
330
395
102
}
330
395
100
AcDbXrecord
280
     1
  1
BAL
  1
*BAL
  1
*
  1
*
 70
     0
  1
*
  1
*
  0
XRECORD
  5
42D
102
{ACAD_REACTORS
330
395
102
}
330
395
100
AcDbXrecord
280
     1
  1
BASE
  1
*I4BASE
  1
*
  1
*
 70
     0
  1
*
  1
*
  0
XRECORD
  5
42E
102
{ACAD_REACTORS
330
395
102
}
330
395
100
AcDbXrecord
280
     1
  1
BBB
  1
*HUTA
  1
*
  1
*
 70
     0
  1
*
  1
*
  0
XRECORD
  5
42F
102
{ACAD_REACTORS
330
395
102
}
330
395
100
AcDbXrecord
280
     1
  1
blue
  1
*
  1
blue
  1
*
 70
     0
  1
*
  1
*
  0
XRECORD
  5
430
102
{ACAD_REACTORS
330
395
102
}
330
395
100
AcDbXrecord
280
     1
  1
BOR
  1
*
  1
*
  1
*
 70
     0
  1
*
  1
*
  0
XRECORD
  5
431
102
{ACAD_REACTORS
330
395
102
}
330
395
100
AcDbXrecord
280
     1
  1
b階段
  1
b*
  1
*
  1
*
 70
     0
  1
*
  1
*
  0
XRECORD
  5
432
102
{ACAD_REACTORS
330
395
102
}
330
395
100
AcDbXrecord
280
     1
  1
Ｂ断面
  1
DSTD_SECT-B*
  1
*
  1
*
 70
     0
  1
*
  1
*
  0
XRECORD
  5
433
102
{ACAD_REACTORS
330
395
102
}
330
395
100
AcDbXrecord
280
     1
  1
B電気
  1
*
  1
*
  1
*
 70
     0
  1
*
  1
DENKI
  0
XRECORD
  5
434
102
{ACAD_REACTORS
330
395
102
}
330
395
100
AcDbXrecord
280
     1
  1
B北
  1
*B北*
  1
*
  1
*
 70
     0
  1
*
  1
*
  0
XRECORD
  5
435
102
{ACAD_REACTORS
330
395
102
}
330
395
100
AcDbXrecord
280
     1
  1
c
  1
c*
  1
*
  1
*
 70
    61
  1
*
  1
*
  0
XRECORD
  5
436
102
{ACAD_REACTORS
330
395
102
}
330
395
100
AcDbXrecord
280
     1
  1
c-block
  1
c-*
  1
*
  1
*
 70
     0
  1
*
  1
*
  0
XRECORD
  5
437
102
{ACAD_REACTORS
330
395
102
}
330
395
100
AcDbXrecord
280
     1
  1
c-block-2
  1
c-*
  1
*
  1
*
 70
  1024
  1
*
  1
*
  0
XRECORD
  5
438
102
{ACAD_REACTORS
330
395
102
}
330
395
100
AcDbXrecord
280
     1
  1
caa001
  1
*
  1
*
  1
*
 70
     0
  1
*
  1
*
  0
XRECORD
  5
439
102
{ACAD_REACTORS
330
395
102
}
330
395
100
AcDbXrecord
280
     1
  1
CABINETRY
  1
*CAB*
  1
*
  1
*
 70
     0
  1
*
  1
*
  0
XRECORD
  5
43A
102
{ACAD_REACTORS
330
395
102
}
330
395
100
AcDbXrecord
280
     1
  1
cap-0
  1
*
  1
*
  1
*
 70
     0
  1
*
  1
*
  0
XRECORD
  5
43B
102
{ACAD_REACTORS
330
395
102
}
330
395
100
AcDbXrecord
280
     1
  1
CASTellano
  1
A-*
  1
*
  1
*
 70
     0
  1
*
  1
*
  0
XRECORD
  5
43C
102
{ACAD_REACTORS
330
395
102
}
330
395
100
AcDbXrecord
280
     1
  1
cc
  1
*
  1
*
  1
*
 70
     0
  1
*
  1
*
  0
XRECORD
  5
43D
102
{ACAD_REACTORS
330
395
102
}
330
395
100
AcDbXrecord
280
     1
  1
CCC
  1
*45
  1
*
  1
*
 70
     0
  1
*
  1
*
  0
XRECORD
  5
43E
102
{ACAD_REACTORS
330
395
102
}
330
395
100
AcDbXrecord
280
     1
  1
ＣＤ棟
  1
T15-*
  1
*
  1
*
 70
     0
  1
*
  1
*
  0
XRECORD
  5
43F
102
{ACAD_REACTORS
330
395
102
}
330
395
100
AcDbXrecord
280
     1
  1
ceiling
  1
*-c
  1
*
  1
*
 70
     0
  1
*
  1
*
  0
XRECORD
  5
440
102
{ACAD_REACTORS
330
395
102
}
330
395
100
AcDbXrecord
280
     1
  1
CENTER
  1
*
  1
*
  1
*
 70
     0
  1
*
  1
*
  0
XRECORD
  5
441
102
{ACAD_REACTORS
330
395
102
}
330
395
100
AcDbXrecord
280
     1
  1
che
  1
che*
  1
*
  1
*
 70
     0
  1
*
  1
*
  0
XRECORD
  5
442
102
{ACAD_REACTORS
330
395
102
}
330
395
100
AcDbXrecord
280
     1
  1
com
  1
com*
  1
*
  1
*
 70
     0
  1
*
  1
*
  0
XRECORD
  5
443
102
{ACAD_REACTORS
330
395
102
}
330
395
100
AcDbXrecord
280
     1
  1
conotur
  1
*_*
  1
*
  1
*
 70
     0
  1
*
  1
*
  0
XRECORD
  5
444
102
{ACAD_REACTORS
330
395
102
}
330
395
100
AcDbXrecord
280
     1
  1
CONTI系
  1
*
  1
*
  1
CONTINUOUS
 70
     0
  1
*
  1
*
  0
XRECORD
  5
445
102
{ACAD_REACTORS
330
395
102
}
330
395
100
AcDbXrecord
280
     1
  1
contour
  1
*_*
  1
*
  1
*
 70
     0
  1
*
  1
*
  0
XRECORD
  5
446
102
{ACAD_REACTORS
330
395
102
}
330
395
100
AcDbXrecord
280
     1
  1
conveyors
  1
*conv*
  1
*
  1
*
 70
     0
  1
*
  1
*
  0
XRECORD
  5
447
102
{ACAD_REACTORS
330
395
102
}
330
395
100
AcDbXrecord
280
     1
  1
cyan
  1
*
  1
cyan
  1
*
 70
     0
  1
*
  1
*
  0
XRECORD
  5
448
102
{ACAD_REACTORS
330
395
102
}
330
395
100
AcDbXrecord
280
     1
  1
C衛生
  1
*
  1
*
  1
*
 70
     0
  1
*
  1
EISEI
  0
XRECORD
  5
449
102
{ACAD_REACTORS
330
395
102
}
330
395
100
AcDbXrecord
280
     1
  1
C街区関連
  1
*
  1
*
  1
*
 70
  1024
  1
*
  1
*
  0
XRECORD
  5
44A
102
{ACAD_REACTORS
330
395
102
}
330
395
100
AcDbXrecord
280
     1
  1
c雑金物
  1
c*
  1
*
  1
*
 70
     0
  1
*
  1
*
  0
XRECORD
  5
44B
102
{ACAD_REACTORS
330
395
102
}
330
395
100
AcDbXrecord
280
     1
  1
C打計画図
  1
001*,002*,003*,004*,005*,007*,012*,015*,016*,017*,018*,019*,020*,021*,049*,050*,051*,052*,053*,054*,055*,056*,057*,058*,059*,060*,061*,062*,063*,064*,065*,066*,067*,068*,069*,070*,071*,072*,073*,074*,075*
  1
*
  1
*
 70
     0
  1
*
  1
*
  0
XRECORD
  5
44C
102
{ACAD_REACTORS
330
395
102
}
330
395
100
AcDbXrecord
280
     1
  1
Ｃ断面
  1
DSTD_SECT-C*
  1
*
  1
*
 70
     0
  1
*
  1
*
  0
XRECORD
  5
44D
102
{ACAD_REACTORS
330
395
102
}
330
395
100
AcDbXrecord
280
     1
  1
C棟R部
  1
cr*
  1
*
  1
*
 70
     0
  1
*
  1
*
  0
XRECORD
  5
44E
102
{ACAD_REACTORS
330
395
102
}
330
395
100
AcDbXrecord
280
     1
  1
DASHED
  1
*
  1
*
  1
DASHED
 70
     0
  1
*
  1
*
  0
XRECORD
  5
44F
102
{ACAD_REACTORS
330
395
102
}
330
395
100
AcDbXrecord
280
     1
  1
DASHED2
  1
*
  1
*
  1
DASHED
 70
     0
  1
*
  1
*
  0
XRECORD
  5
450
102
{ACAD_REACTORS
330
395
102
}
330
395
100
AcDbXrecord
280
     1
  1
DDD
  1
*LIN-M
  1
*
  1
*
 70
     0
  1
*
  1
*
  0
XRECORD
  5
451
102
{ACAD_REACTORS
330
395
102
}
330
395
100
AcDbXrecord
280
     1
  1
DEF
  1
DE*
  1
*
  1
*
 70
     0
  1
*
  1
*
  0
XRECORD
  5
452
102
{ACAD_REACTORS
330
395
102
}
330
395
100
AcDbXrecord
280
     1
  1
DENKI
  1
*
  1
*
  1
*
 70
     0
  1
*
  1
*
  0
XRECORD
  5
453
102
{ACAD_REACTORS
330
395
102
}
330
395
100
AcDbXrecord
280
     1
  1
DIM
  1
*DIM*
  1
*
  1
*
 70
     0
  1
*
  1
*
  0
XRECORD
  5
454
102
{ACAD_REACTORS
330
395
102
}
330
395
100
AcDbXrecord
280
     1
  1
DOORS
  1
*ADO*
  1
*
  1
*
 70
     0
  1
*
  1
*
  0
XRECORD
  5
455
102
{ACAD_REACTORS
330
395
102
}
330
395
100
AcDbXrecord
280
     1
  1
drain
  1
ar-dr*
  1
*
  1
*
 70
     0
  1
*
  1
*
  0
XRECORD
  5
456
102
{ACAD_REACTORS
330
395
102
}
330
395
100
AcDbXrecord
280
     1
  1
Drow1
  1
*
  1
*
  1
*
 70
     0
  1
*
  1
*
  0
XRECORD
  5
457
102
{ACAD_REACTORS
330
395
102
}
330
395
100
AcDbXrecord
280
     1
  1
d外構
  1
d*
  1
*
  1
*
 70
     0
  1
*
  1
*
  0
XRECORD
  5
458
102
{ACAD_REACTORS
330
395
102
}
330
395
100
AcDbXrecord
280
     1
  1
E
  1
*
  1
*
  1
*
 70
     0
  1
*
  1
*
  0
XRECORD
  5
459
102
{ACAD_REACTORS
330
395
102
}
330
395
100
AcDbXrecord
280
     1
  1
E 画層
  1
E*,*.
  1
*
  1
*
 70
     0
  1
*
  1
*
  0
XRECORD
  5
45A
102
{ACAD_REACTORS
330
395
102
}
330
395
100
AcDbXrecord
280
     1
  1
EEEE
  1
*
  1
*
  1
*
 70
  1804
  1
*
  1
*
  0
XRECORD
  5
45B
102
{ACAD_REACTORS
330
395
102
}
330
395
100
AcDbXrecord
280
     1
  1
EISEI
  1
*4EISEI
  1
4
  1
*
 70
     0
  1
*
  1
*
  0
XRECORD
  5
45C
102
{ACAD_REACTORS
330
395
102
}
330
395
100
AcDbXrecord
280
     1
  1
EL
  1
ＥＬ??8m
  1
*
  1
*
 70
     0
  1
*
  1
*
  0
XRECORD
  5
45D
102
{ACAD_REACTORS
330
395
102
}
330
395
100
AcDbXrecord
280
     1
  1
ＥＬ３ｍ
  1
ＥＬ*3m
  1
*
  1
*
 70
     0
  1
*
  1
*
  0
XRECORD
  5
45E
102
{ACAD_REACTORS
330
395
102
}
330
395
100
AcDbXrecord
280
     1
  1
ＥＬ8ｍ
  1
ＥＬ*8m
  1
*
  1
*
 70
     0
  1
*
  1
*
  0
XRECORD
  5
45F
102
{ACAD_REACTORS
330
395
102
}
330
395
100
AcDbXrecord
280
     1
  1
ele
  1
ele*
  1
*
  1
*
 70
     0
  1
*
  1
*
  0
XRECORD
  5
460
102
{ACAD_REACTORS
330
395
102
}
330
395
100
AcDbXrecord
280
     1
  1
ELECTRICAL
  1
E*
  1
*
  1
*
 70
     0
  1
*
  1
*
  0
XRECORD
  5
461
102
{ACAD_REACTORS
330
395
102
}
330
395
100
AcDbXrecord
280
     1
  1
ERAS1F
  1
*2ERAS1F
  1
*
  1
*
 70
     0
  1
*
  1
*
  0
XRECORD
  5
462
102
{ACAD_REACTORS
330
395
102
}
330
395
100
AcDbXrecord
280
     1
  1
exterior
  1
*-x
  1
*
  1
*
 70
     0
  1
*
  1
*
  0
XRECORD
  5
463
102
{ACAD_REACTORS
330
395
102
}
330
395
100
AcDbXrecord
280
     1
  1
E南
  1
*E*南*
  1
*
  1
*
 70
     0
  1
*
  1
*
  0
XRECORD
  5
464
102
{ACAD_REACTORS
330
395
102
}
330
395
100
AcDbXrecord
280
     1
  1
F
  1
*
  1
*
  1
*
 70
     4
  1
*
  1
*
  0
XRECORD
  5
465
102
{ACAD_REACTORS
330
395
102
}
330
395
100
AcDbXrecord
280
     1
  1
feaze
  1
*
  1
*
  1
*
 70
     5
  1
*
  1
*
  0
XRECORD
  5
466
102
{ACAD_REACTORS
330
395
102
}
330
395
100
AcDbXrecord
280
     1
  1
FF
  1
*
  1
*
  1
*
 70
     4
  1
*
  1
*
  0
XRECORD
  5
467
102
{ACAD_REACTORS
330
395
102
}
330
395
100
AcDbXrecord
280
     1
  1
FLOW
  1
FLOW*
  1
*
  1
*
 70
     0
  1
*
  1
*
  0
XRECORD
  5
468
102
{ACAD_REACTORS
330
395
102
}
330
395
100
AcDbXrecord
280
     1
  1
Frame
  1
F*
  1
*
  1
*
 70
     0
  1
*
  1
*
  0
XRECORD
  5
469
102
{ACAD_REACTORS
330
395
102
}
330
395
100
AcDbXrecord
280
     1
  1
freaze
  1
*
  1
*
  1
*
 70
     4
  1
*
  1
*
  0
XRECORD
  5
46A
102
{ACAD_REACTORS
330
395
102
}
330
395
100
AcDbXrecord
280
     1
  1
freeze
  1
*
  1
*
  1
*
 70
    12
  1
*
  1
*
  0
XRECORD
  5
46B
102
{ACAD_REACTORS
330
395
102
}
330
395
100
AcDbXrecord
280
     1
  1
Frozen
  1
*
  1
*
  1
*
 70
     4
  1
*
  1
*
  0
XRECORD
  5
46C
102
{ACAD_REACTORS
330
395
102
}
330
395
100
AcDbXrecord
280
     1
  1
Fugou
  1
*-Fugou*
  1
*
  1
*
 70
     0
  1
*
  1
*
  0
XRECORD
  5
46D
102
{ACAD_REACTORS
330
395
102
}
330
395
100
AcDbXrecord
280
     1
  1
FUKI
  1
*FUKI
  1
*
  1
*
 70
     0
  1
*
  1
*
  0
XRECORD
  5
46E
102
{ACAD_REACTORS
330
395
102
}
330
395
100
AcDbXrecord
280
     1
  1
FUSE_00
  1
*
  1
*
  1
*
 70
     0
  1
*
  1
*
  0
XRECORD
  5
46F
102
{ACAD_REACTORS
330
395
102
}
330
395
100
AcDbXrecord
280
     1
  1
G
  1
*-G*
  1
*
  1
*
 70
     0
  1
*
  1
*
  0
XRECORD
  5
470
102
{ACAD_REACTORS
330
395
102
}
330
395
100
AcDbXrecord
280
     1
  1
GAIKOU
  1
*-L
  1
*
  1
*
 70
     0
  1
*
  1
*
  0
XRECORD
  5
471
102
{ACAD_REACTORS
330
395
102
}
330
395
100
AcDbXrecord
280
     1
  1
gasline
  1
*
  1
*
  1
*
 70
     0
  1
*
  1
*
  0
XRECORD
  5
472
102
{ACAD_REACTORS
330
395
102
}
330
395
100
AcDbXrecord
280
     1
  1
GLAZING
  1
*GL*
  1
*
  1
*
 70
     0
  1
*
  1
*
  0
XRECORD
  5
473
102
{ACAD_REACTORS
330
395
102
}
330
395
100
AcDbXrecord
280
     1
  1
green
  1
*
  1
green
  1
*
 70
     0
  1
*
  1
*
  0
XRECORD
  5
474
102
{ACAD_REACTORS
330
395
102
}
330
395
100
AcDbXrecord
280
     1
  1
GRID
  1
G*
  1
*
  1
*
 70
     0
  1
*
  1
*
  0
XRECORD
  5
475
102
{ACAD_REACTORS
330
395
102
}
330
395
100
AcDbXrecord
280
     1
  1
H
  1
00*,01*,02*,03*,05*,06*,1*,2*,3*,4*,5*,6*,8*,
  1
*
  1
*
 70
     0
  1
*
  1
*
  0
XRECORD
  5
476
102
{ACAD_REACTORS
330
395
102
}
330
395
100
AcDbXrecord
280
     1
  1
H 画層
  1
H*,*.
  1
*
  1
*
 70
     0
  1
*
  1
*
  0
XRECORD
  5
477
102
{ACAD_REACTORS
330
395
102
}
330
395
100
AcDbXrecord
280
     1
  1
HAISEN
  1
*1,HAISEN
  1
*
  1
*
 70
     0
  1
*
  1
*
  0
XRECORD
  5
478
102
{ACAD_REACTORS
330
395
102
}
330
395
100
AcDbXrecord
280
     1
  1
HARI
  1
*HARI
  1
*
  1
*
 70
     0
  1
*
  1
*
  0
XRECORD
  5
479
102
{ACAD_REACTORS
330
395
102
}
330
395
100
AcDbXrecord
280
     1
  1
HASIRA
  1
*HASIRA
  1
*
  1
*
 70
     0
  1
*
  1
*
  0
XRECORD
  5
47A
102
{ACAD_REACTORS
330
395
102
}
330
395
100
AcDbXrecord
280
     1
  1
HAT
  1
*HAT*
  1
*
  1
*
 70
     0
  1
*
  1
*
  0
XRECORD
  5
47B
102
{ACAD_REACTORS
330
395
102
}
330
395
100
AcDbXrecord
280
     1
  1
HIDDEN
  1
*
  1
*
  1
HIDDEN
 70
     0
  1
*
  1
*
  0
XRECORD
  5
47C
102
{ACAD_REACTORS
330
395
102
}
330
395
100
AcDbXrecord
280
     1
  1
HM
  1
-*
  1
*
  1
*
 70
     0
  1
*
  1
*
  0
XRECORD
  5
47D
102
{ACAD_REACTORS
330
395
102
}
330
395
100
AcDbXrecord
280
     1
  1
HOJO
  1
*HOJO
  1
*
  1
*
 70
     0
  1
*
  1
*
  0
XRECORD
  5
47E
102
{ACAD_REACTORS
330
395
102
}
330
395
100
AcDbXrecord
280
     1
  1
houki
  1
h*
  1
*
  1
*
 70
     0
  1
*
  1
*
  0
XRECORD
  5
47F
102
{ACAD_REACTORS
330
395
102
}
330
395
100
AcDbXrecord
280
     1
  1
i
  1
*
  1
*
  1
*
 70
     0
  1
*
  1
*
  0
XRECORD
  5
480
102
{ACAD_REACTORS
330
395
102
}
330
395
100
AcDbXrecord
280
     1
  1
I2
  1
*I2CL*
  1
*
  1
*
 70
     0
  1
*
  1
*
  0
XRECORD
  5
481
102
{ACAD_REACTORS
330
395
102
}
330
395
100
AcDbXrecord
280
     1
  1
i2cl
  1
*i2c?*
  1
*
  1
*
 70
     0
  1
*
  1
*
  0
XRECORD
  5
482
102
{ACAD_REACTORS
330
395
102
}
330
395
100
AcDbXrecord
280
     1
  1
i5
  1
*i5*
  1
*
  1
*
 70
     0
  1
*
  1
*
  0
XRECORD
  5
483
102
{ACAD_REACTORS
330
395
102
}
330
395
100
AcDbXrecord
280
     1
  1
IEL
  1
IE*
  1
*
  1
*
 70
     0
  1
*
  1
*
  0
XRECORD
  5
484
102
{ACAD_REACTORS
330
395
102
}
330
395
100
AcDbXrecord
280
     1
  1
INSERT図
  1
*
  1
*
  1
*
 70
    12
  1
*
  1
*
  0
XRECORD
  5
485
102
{ACAD_REACTORS
330
395
102
}
330
395
100
AcDbXrecord
280
     1
  1
irc
  1
irc*
  1
*
  1
*
 70
     0
  1
*
  1
*
  0
XRECORD
  5
486
102
{ACAD_REACTORS
330
395
102
}
330
395
100
AcDbXrecord
280
     1
  1
j
  1
j*
  1
*
  1
*
 70
     0
  1
*
  1
*
  0
XRECORD
  5
487
102
{ACAD_REACTORS
330
395
102
}
330
395
100
AcDbXrecord
280
     1
  1
jiku-0
  1
*
  1
*
  1
*
 70
     0
  1
*
  1
*
  0
XRECORD
  5
488
102
{ACAD_REACTORS
330
395
102
}
330
395
100
AcDbXrecord
280
     1
  1
jkhg8
  1
814706*
  1
*
  1
*
 70
     0
  1
*
  1
*
  0
XRECORD
  5
489
102
{ACAD_REACTORS
330
395
102
}
330
395
100
AcDbXrecord
280
     1
  1
KABE
  1
W-*
  1
*
  1
*
 70
     0
  1
*
  1
*
  0
XRECORD
  5
48A
102
{ACAD_REACTORS
330
395
102
}
330
395
100
AcDbXrecord
280
     1
  1
KABESHIN
  1
*A12
  1
*
  1
*
 70
     0
  1
*
  1
*
  0
XRECORD
  5
48B
102
{ACAD_REACTORS
330
395
102
}
330
395
100
AcDbXrecord
280
     1
  1
KAGU
  1
*7KAGU
  1
9
  1
*
 70
     0
  1
*
  1
*
  0
XRECORD
  5
48C
102
{ACAD_REACTORS
330
395
102
}
330
395
100
AcDbXrecord
280
     1
  1
key
  1
keyplan
  1
*
  1
*
 70
     0
  1
*
  1
*
  0
XRECORD
  5
48D
102
{ACAD_REACTORS
330
395
102
}
330
395
100
AcDbXrecord
280
     1
  1
keyplan
  1
*-k
  1
*
  1
*
 70
     0
  1
*
  1
*
  0
XRECORD
  5
48E
102
{ACAD_REACTORS
330
395
102
}
330
395
100
AcDbXrecord
280
     1
  1
KIJUN
  1
*KIJUN
  1
*
  1
*
 70
     0
  1
*
  1
*
  0
XRECORD
  5
48F
102
{ACAD_REACTORS
330
395
102
}
330
395
100
AcDbXrecord
280
     1
  1
KSIN
  1
*2KSIN
  1
21
  1
*
 70
     0
  1
*
  1
*
  0
XRECORD
  5
490
102
{ACAD_REACTORS
330
395
102
}
330
395
100
AcDbXrecord
280
     1
  1
kui
  1
*
  1
*
  1
*
 70
     4
  1
*
  1
*
  0
XRECORD
  5
491
102
{ACAD_REACTORS
330
395
102
}
330
395
100
AcDbXrecord
280
     1
  1
L 画層
  1
L*,*.
  1
*
  1
*
 70
     0
  1
*
  1
*
  0
XRECORD
  5
492
102
{ACAD_REACTORS
330
395
102
}
330
395
100
AcDbXrecord
280
     1
  1
L1
  1
*
  1
*
  1
*
 70
     0
  1
*
  1
*
  0
XRECORD
  5
493
102
{ACAD_REACTORS
330
395
102
}
330
395
100
AcDbXrecord
280
     1
  1
L2
  1
*
  1
*
  1
*
 70
     0
  1
*
  1
*
  0
XRECORD
  5
494
102
{ACAD_REACTORS
330
395
102
}
330
395
100
AcDbXrecord
280
     1
  1
layout
  1
*
  1
*
  1
*
 70
     0
  1
*
  1
*
  0
XRECORD
  5
495
102
{ACAD_REACTORS
330
395
102
}
330
395
100
AcDbXrecord
280
     1
  1
length
  1
*length*
  1
*
  1
*
 70
     0
  1
*
  1
*
  0
XRECORD
  5
496
102
{ACAD_REACTORS
330
395
102
}
330
395
100
AcDbXrecord
280
     1
  1
LOCK
  1
*
  1
*
  1
*
 70
   256
  1
*
  1
*
  0
XRECORD
  5
497
102
{ACAD_REACTORS
330
395
102
}
330
395
100
AcDbXrecord
280
     1
  1
M
  1
*M-*
  1
*
  1
*
 70
     0
  1
*
  1
*
  0
XRECORD
  5
498
102
{ACAD_REACTORS
330
395
102
}
330
395
100
AcDbXrecord
280
     1
  1
magenta
  1
*
  1
magenta
  1
*
 70
     0
  1
*
  1
*
  0
XRECORD
  5
499
102
{ACAD_REACTORS
330
395
102
}
330
395
100
AcDbXrecord
280
     1
  1
MAJIKIRI
  1
*MAJIKIRI
  1
*
  1
*
 70
     0
  1
*
  1
*
  0
XRECORD
  5
49A
102
{ACAD_REACTORS
330
395
102
}
330
395
100
AcDbXrecord
280
     1
  1
mazenda
  1
*
  1
6
  1
*
 70
     0
  1
*
  1
*
  0
XRECORD
  5
49B
102
{ACAD_REACTORS
330
395
102
}
330
395
100
AcDbXrecord
280
     1
  1
MB
  1
*MB
  1
*
  1
*
 70
     0
  1
*
  1
*
  0
XRECORD
  5
49C
102
{ACAD_REACTORS
330
395
102
}
330
395
100
AcDbXrecord
280
     1
  1
MECHANICAL
  1
M*
  1
*
  1
*
 70
     0
  1
*
  1
*
  0
XRECORD
  5
49D
102
{ACAD_REACTORS
330
395
102
}
330
395
100
AcDbXrecord
280
     1
  1
MEJI
  1
*7MEJI
  1
243
  1
*
 70
     0
  1
*
  1
*
  0
XRECORD
  5
49E
102
{ACAD_REACTORS
330
395
102
}
330
395
100
AcDbXrecord
280
     1
  1
men
  1
*tm*
  1
*
  1
*
 70
     0
  1
*
  1
*
  0
XRECORD
  5
49F
102
{ACAD_REACTORS
330
395
102
}
330
395
100
AcDbXrecord
280
     1
  1
MIE01
  1
MIE01
  1
*
  1
*
 70
     0
  1
*
  1
*
  0
XRECORD
  5
4A0
102
{ACAD_REACTORS
330
395
102
}
330
395
100
AcDbXrecord
280
     1
  1
MOJI
  1
*MOJI
  1
*
  1
*
 70
     0
  1
*
  1
*
  0
XRECORD
  5
4A1
102
{ACAD_REACTORS
330
395
102
}
330
395
100
AcDbXrecord
280
     1
  1
MOJI100
  1
*5MOJI100
  1
3
  1
*
 70
     0
  1
*
  1
*
  0
XRECORD
  5
4A2
102
{ACAD_REACTORS
330
395
102
}
330
395
100
AcDbXrecord
280
     1
  1
MP
  1
MP_*
  1
*
  1
*
 70
     0
  1
*
  1
*
  0
XRECORD
  5
4A3
102
{ACAD_REACTORS
330
395
102
}
330
395
100
AcDbXrecord
280
     1
  1
N
  1
*N
  1
*
  1
*
 70
     0
  1
*
  1
*
  0
XRECORD
  5
4A4
102
{ACAD_REACTORS
330
395
102
}
330
395
100
AcDbXrecord
280
     1
  1
new
  1
new*
  1
*
  1
*
 70
     0
  1
*
  1
*
  0
XRECORD
  5
4A5
102
{ACAD_REACTORS
330
395
102
}
330
395
100
AcDbXrecord
280
     1
  1
New Doors
  1
*ADO*
  1
*
  1
*
 70
     0
  1
*
  1
*
  0
XRECORD
  5
4A6
102
{ACAD_REACTORS
330
395
102
}
330
395
100
AcDbXrecord
280
     1
  1
New Walls
  1
A*,2
  1
*
  1
*
 70
     0
  1
*
  1
*
  0
XRECORD
  5
4A7
102
{ACAD_REACTORS
330
395
102
}
330
395
100
AcDbXrecord
280
     1
  1
nic
  1
*
  1
*
  1
*
 70
     0
  1
253
  1
*
  0
XRECORD
  5
4A8
102
{ACAD_REACTORS
330
395
102
}
330
395
100
AcDbXrecord
280
     1
  1
NS CTS set
  1
*
  1
*
  1
*
 70
     0
  1
*
  1
*
  0
XRECORD
  5
4A9
102
{ACAD_REACTORS
330
395
102
}
330
395
100
AcDbXrecord
280
     1
  1
o
  1
*
  1
*
  1
*
 70
     3
  1
*
  1
*
  0
XRECORD
  5
4AA
102
{ACAD_REACTORS
330
395
102
}
330
395
100
AcDbXrecord
280
     1
  1
OF
  1
*
  1
*
  1
*
 70
     3
  1
*
  1
*
  0
XRECORD
  5
4AB
102
{ACAD_REACTORS
330
395
102
}
330
395
100
AcDbXrecord
280
     1
  1
Off
  1
*
  1
*
  1
*
 70
     3
  1
*
  1
*
  0
XRECORD
  5
4AC
102
{ACAD_REACTORS
330
395
102
}
330
395
100
AcDbXrecord
280
     1
  1
off文字
  1
*TXT*
  1
*
  1
*
 70
     0
  1
*
  1
*
  0
XRECORD
  5
4AD
102
{ACAD_REACTORS
330
395
102
}
330
395
100
AcDbXrecord
280
     1
  1
on
  1
*
  1
*
  1
*
 70
    13
  1
*
  1
*
  0
XRECORD
  5
4AE
102
{ACAD_REACTORS
330
395
102
}
330
395
100
AcDbXrecord
280
     1
  1
p
  1
*
  1
*
  1
*
 70
     0
  1
*
  1
*
  0
XRECORD
  5
4AF
102
{ACAD_REACTORS
330
395
102
}
330
395
100
AcDbXrecord
280
     1
  1
PARKING
  1
P-*
  1
*
  1
*
 70
     0
  1
*
  1
*
  0
XRECORD
  5
4B0
102
{ACAD_REACTORS
330
395
102
}
330
395
100
AcDbXrecord
280
     1
  1
PC
  1
0,11*,12*,13*,14*,15*,18*,23*,25*,30*,31*,32*,51*,52*,54*,59*,60*,66*,67*,69*,76*
  1
*
  1
*
 70
     0
  1
*
  1
*
  0
XRECORD
  5
4B1
102
{ACAD_REACTORS
330
395
102
}
330
395
100
AcDbXrecord
280
     1
  1
plot
  1
*
  1
*
  1
*
 70
     1
  1
*
  1
*
  0
XRECORD
  5
4B2
102
{ACAD_REACTORS
330
395
102
}
330
395
100
AcDbXrecord
280
     1
  1
PLUMBING
  1
P*
  1
*
  1
*
 70
     0
  1
*
  1
*
  0
XRECORD
  5
4B3
102
{ACAD_REACTORS
330
395
102
}
330
395
100
AcDbXrecord
280
     1
  1
Q
  1
*
  1
*
  1
PHANTOM
 70
     0
  1
*
  1
*
  0
XRECORD
  5
4B4
102
{ACAD_REACTORS
330
395
102
}
330
395
100
AcDbXrecord
280
     1
  1
R
  1
*-R
  1
*
  1
*
 70
     0
  1
*
  1
*
  0
XRECORD
  5
4B5
102
{ACAD_REACTORS
330
395
102
}
330
395
100
AcDbXrecord
280
     1
  1
raku
  1
000落書き
  1
*
  1
*
 70
     0
  1
*
  1
*
  0
XRECORD
  5
4B6
102
{ACAD_REACTORS
330
395
102
}
330
395
100
AcDbXrecord
280
     1
  1
red
  1
*
  1
10
  1
*
 70
     0
  1
*
  1
*
  0
XRECORD
  5
4B7
102
{ACAD_REACTORS
330
395
102
}
330
395
100
AcDbXrecord
280
     1
  1
RJRUDDH
  1
*
  1
*
  1
*
 70
     0
  1
*
  1
*
  0
XRECORD
  5
4B8
102
{ACAD_REACTORS
330
395
102
}
330
395
100
AcDbXrecord
280
     1
  1
rock
  1
*
  1
*
  1
*
 70
   768
  1
*
  1
*
  0
XRECORD
  5
4B9
102
{ACAD_REACTORS
330
395
102
}
330
395
100
AcDbXrecord
280
     1
  1
ROOF
  1
*-R
  1
*
  1
*
 70
     0
  1
*
  1
*
  0
XRECORD
  5
4BA
102
{ACAD_REACTORS
330
395
102
}
330
395
100
AcDbXrecord
280
     1
  1
s
  1
s*
  1
*
  1
*
 70
     0
  1
*
  1
*
  0
XRECORD
  5
4BB
102
{ACAD_REACTORS
330
395
102
}
330
395
100
AcDbXrecord
280
     1
  1
saciencewold
  1
*
  1
*
  1
*
 70
     0
  1
*
  1
*
  0
XRECORD
  5
4BC
102
{ACAD_REACTORS
330
395
102
}
330
395
100
AcDbXrecord
280
     1
  1
SC
  1
SC
  1
*
  1
*
 70
     0
  1
*
  1
*
  0
XRECORD
  5
4BD
102
{ACAD_REACTORS
330
395
102
}
330
395
100
AcDbXrecord
280
     1
  1
sdfdf
  1
8141*****
  1
*
  1
*
 70
     0
  1
*
  1
*
  0
XRECORD
  5
4BE
102
{ACAD_REACTORS
330
395
102
}
330
395
100
AcDbXrecord
280
     1
  1
SETUBI
  1
*SETUBI
  1
*
  1
*
 70
     0
  1
*
  1
*
  0
XRECORD
  5
4BF
102
{ACAD_REACTORS
330
395
102
}
330
395
100
AcDbXrecord
280
     1
  1
SHITU
  1
*SHITUMEI*
  1
*
  1
*
 70
     0
  1
*
  1
*
  0
XRECORD
  5
4C0
102
{ACAD_REACTORS
330
395
102
}
330
395
100
AcDbXrecord
280
     1
  1
SHITUMEI
  1
*SHITUMEI2
  1
*
  1
*
 70
     0
  1
*
  1
*
  0
XRECORD
  5
4C1
102
{ACAD_REACTORS
330
395
102
}
330
395
100
AcDbXrecord
280
     1
  1
SIAG
  1
*3SIAG
  1
*
  1
*
 70
     0
  1
*
  1
*
  0
XRECORD
  5
4C2
102
{ACAD_REACTORS
330
395
102
}
330
395
100
AcDbXrecord
280
     1
  1
SIAG-N
  1
*3SIAG-N
  1
7
  1
*
 70
     0
  1
*
  1
*
  0
XRECORD
  5
4C3
102
{ACAD_REACTORS
330
395
102
}
330
395
100
AcDbXrecord
280
     1
  1
SIAG3
  1
*3SIAG3
  1
3
  1
*
 70
     0
  1
*
  1
*
  0
XRECORD
  5
4C4
102
{ACAD_REACTORS
330
395
102
}
330
395
100
AcDbXrecord
280
     1
  1
Sinm
  1
*-Sinm*
  1
*
  1
*
 70
     0
  1
*
  1
*
  0
XRECORD
  5
4C5
102
{ACAD_REACTORS
330
395
102
}
330
395
100
AcDbXrecord
280
     1
  1
SITA
  1
*3SITA
  1
*
  1
*
 70
     0
  1
*
  1
*
  0
XRECORD
  5
4C6
102
{ACAD_REACTORS
330
395
102
}
330
395
100
AcDbXrecord
280
     1
  1
site
  1
site*
  1
*
  1
*
 70
     0
  1
*
  1
*
  0
XRECORD
  5
4C7
102
{ACAD_REACTORS
330
395
102
}
330
395
100
AcDbXrecord
280
     1
  1
SON
  1
1*,9*,*KEL,HASIRA,*N-M,*RID,*DIM,*UBL,00*
  1
*
  1
*
 70
     0
  1
*
  1
*
  0
XRECORD
  5
4C8
102
{ACAD_REACTORS
330
395
102
}
330
395
100
AcDbXrecord
280
     1
  1
SS
  1
*SS*
  1
*
  1
*
 70
     0
  1
*
  1
*
  0
XRECORD
  5
4C9
102
{ACAD_REACTORS
330
395
102
}
330
395
100
AcDbXrecord
280
     1
  1
STAIRS
  1
*ST*
  1
*
  1
*
 70
     0
  1
*
  1
*
  0
XRECORD
  5
4CA
102
{ACAD_REACTORS
330
395
102
}
330
395
100
AcDbXrecord
280
     1
  1
standard
  1
*
  1
*
  1
*
 70
     0
  1
*
  1
*
  0
XRECORD
  5
4CB
102
{ACAD_REACTORS
330
395
102
}
330
395
100
AcDbXrecord
280
     1
  1
SUGA5
  1
*4SUGA5
  1
5
  1
*
 70
     0
  1
*
  1
*
  0
XRECORD
  5
4CC
102
{ACAD_REACTORS
330
395
102
}
330
395
100
AcDbXrecord
280
     1
  1
SUNP
  1
*5SUNP100
  1
1
  1
*
 70
     0
  1
*
  1
*
  0
XRECORD
  5
4CD
102
{ACAD_REACTORS
330
395
102
}
330
395
100
AcDbXrecord
280
     1
  1
SUNP100
  1
*5SUNP100
  1
*
  1
*
 70
     0
  1
*
  1
*
  0
XRECORD
  5
4CE
102
{ACAD_REACTORS
330
395
102
}
330
395
100
AcDbXrecord
280
     1
  1
SYOU
  1
*
  1
*
  1
*
 70
     0
  1
*
  1
SYOU
  0
XRECORD
  5
4CF
102
{ACAD_REACTORS
330
395
102
}
330
395
100
AcDbXrecord
280
     1
  1
S画層
  1
S*
  1
*
  1
*
 70
     0
  1
*
  1
*
  0
XRECORD
  5
4D0
102
{ACAD_REACTORS
330
395
102
}
330
395
100
AcDbXrecord
280
     1
  1
T
  1
00*,01*,02*,04*,05*,06*,1*,2*,3*,4*,7*,9*,
  1
*
  1
*
 70
     0
  1
*
  1
*
  0
XRECORD
  5
4D1
102
{ACAD_REACTORS
330
395
102
}
330
395
100
AcDbXrecord
280
     1
  1
TAKASA
  1
*
  1
2
  1
*
 70
     0
  1
*
  1
*
  0
XRECORD
  5
4D2
102
{ACAD_REACTORS
330
395
102
}
330
395
100
AcDbXrecord
280
     1
  1
TATE161
  1
*4TATE161
  1
161
  1
*
 70
     0
  1
*
  1
*
  0
XRECORD
  5
4D3
102
{ACAD_REACTORS
330
395
102
}
330
395
100
AcDbXrecord
280
     1
  1
TATEGU
  1
*TATEGU
  1
*
  1
*
 70
     0
  1
*
  1
*
  0
XRECORD
  5
4D4
102
{ACAD_REACTORS
330
395
102
}
330
395
100
AcDbXrecord
280
     1
  1
TC
  1
TC_*,0N
  1
*
  1
*
 70
     0
  1
*
  1
*
  0
XRECORD
  5
4D5
102
{ACAD_REACTORS
330
395
102
}
330
395
100
AcDbXrecord
280
     1
  1
TEN
  1
*
  1
*
  1
*
 70
     1
  1
*
  1
*
  0
XRECORD
  5
4D6
102
{ACAD_REACTORS
330
395
102
}
330
395
100
AcDbXrecord
280
     1
  1
TENJYOU
  1
C-*
  1
*
  1
*
 70
     0
  1
*
  1
*
  0
XRECORD
  5
4D7
102
{ACAD_REACTORS
330
395
102
}
330
395
100
AcDbXrecord
280
     1
  1
TENJYOUNAI
  1
CI-*
  1
*
  1
*
 70
     0
  1
*
  1
*
  0
XRECORD
  5
4D8
102
{ACAD_REACTORS
330
395
102
}
330
395
100
AcDbXrecord
280
     1
  1
test
  1
keyplan
  1
*
  1
*
 70
     0
  1
*
  1
*
  0
XRECORD
  5
4D9
102
{ACAD_REACTORS
330
395
102
}
330
395
100
AcDbXrecord
280
     1
  1
test1024
  1
*
  1
*
  1
*
 70
   769
  1
*
  1
*
  0
XRECORD
  5
4DA
102
{ACAD_REACTORS
330
395
102
}
330
395
100
AcDbXrecord
280
     1
  1
test1115
  1
2* 0
  1
*
  1
*
 70
     0
  1
*
  1
*
  0
XRECORD
  5
4DB
102
{ACAD_REACTORS
330
395
102
}
330
395
100
AcDbXrecord
280
     1
  1
test2
  1
*
  1
*
  1
*
 70
    12
  1
*
  1
*
  0
XRECORD
  5
4DC
102
{ACAD_REACTORS
330
395
102
}
330
395
100
AcDbXrecord
280
     1
  1
TEXT
  1
*TEXT*
  1
*
  1
*
 70
     0
  1
*
  1
*
  0
XRECORD
  5
4DD
102
{ACAD_REACTORS
330
395
102
}
330
395
100
AcDbXrecord
280
     1
  1
Thawed
  1
*
  1
*
  1
*
 70
    12
  1
*
  1
*
  0
XRECORD
  5
4DE
102
{ACAD_REACTORS
330
395
102
}
330
395
100
AcDbXrecord
280
     1
  1
TITL
  1
*8TITL
  1
4
  1
*
 70
     0
  1
*
  1
*
  0
XRECORD
  5
4DF
102
{ACAD_REACTORS
330
395
102
}
330
395
100
AcDbXrecord
280
     1
  1
tnjyou
  1
c-*
  1
*
  1
*
 70
     0
  1
*
  1
*
  0
XRECORD
  5
4E0
102
{ACAD_REACTORS
330
395
102
}
330
395
100
AcDbXrecord
280
     1
  1
TORISHIN
  1
*A11
  1
*
  1
*
 70
     0
  1
*
  1
*
  0
XRECORD
  5
4E1
102
{ACAD_REACTORS
330
395
102
}
330
395
100
AcDbXrecord
280
     1
  1
TSIN
  1
*2TSIN
  1
*
  1
*
 70
     0
  1
*
  1
*
  0
XRECORD
  5
4E2
102
{ACAD_REACTORS
330
395
102
}
330
395
100
AcDbXrecord
280
     1
  1
TU
  1
*TU*
  1
*
  1
*
 70
     0
  1
*
  1
*
  0
XRECORD
  5
4E3
102
{ACAD_REACTORS
330
395
102
}
330
395
100
AcDbXrecord
280
     1
  1
unlocked
  1
*
  1
*
  1
*
 70
   768
  1
*
  1
*
  0
XRECORD
  5
4E4
102
{ACAD_REACTORS
330
395
102
}
330
395
100
AcDbXrecord
280
     1
  1
UNROCK
  1
*
  1
*
  1
*
 70
   768
  1
*
  1
*
  0
XRECORD
  5
4E5
102
{ACAD_REACTORS
330
395
102
}
330
395
100
AcDbXrecord
280
     1
  1
VMB
  1
*
  1
*
  1
*
 70
     0
  1
*
  1
*
  0
XRECORD
  5
4E6
102
{ACAD_REACTORS
330
395
102
}
330
395
100
AcDbXrecord
280
     1
  1
VOID
  1
*void*
  1
*
  1
*
 70
     0
  1
*
  1
*
  0
XRECORD
  5
4E7
102
{ACAD_REACTORS
330
395
102
}
330
395
100
AcDbXrecord
280
     1
  1
waku
  1
waku
  1
*
  1
*
 70
     0
  1
*
  1
*
  0
XRECORD
  5
4E8
102
{ACAD_REACTORS
330
395
102
}
330
395
100
AcDbXrecord
280
     1
  1
WALLS
  1
*AWA*
  1
*
  1
*
 70
     0
  1
*
  1
*
  0
XRECORD
  5
4E9
102
{ACAD_REACTORS
330
395
102
}
330
395
100
AcDbXrecord
280
     1
  1
ward
  1
*
  1
*
  1
*
 70
     0
  1
*
  1
*
  0
XRECORD
  5
4EA
102
{ACAD_REACTORS
330
395
102
}
330
395
100
AcDbXrecord
280
     1
  1
X
  1
*$*$*
  1
*
  1
*
 70
     0
  1
*
  1
*
  0
XRECORD
  5
4EB
102
{ACAD_REACTORS
330
395
102
}
330
395
100
AcDbXrecord
280
     1
  1
yaji
  1
*
  1
*
  1
*
 70
     0
  1
*
  1
*
  0
XRECORD
  5
4EC
102
{ACAD_REACTORS
330
395
102
}
330
395
100
AcDbXrecord
280
     1
  1
yellow
  1
*
  1
yellow
  1
*
 70
     0
  1
*
  1
*
  0
XRECORD
  5
4ED
102
{ACAD_REACTORS
330
395
102
}
330
395
100
AcDbXrecord
280
     1
  1
YUKA
  1
F-*
  1
*
  1
*
 70
     0
  1
*
  1
*
  0
XRECORD
  5
4EE
102
{ACAD_REACTORS
330
395
102
}
330
395
100
AcDbXrecord
280
     1
  1
yその他
  1
y*
  1
*
  1
*
 70
     0
  1
*
  1
*
  0
XRECORD
  5
4EF
102
{ACAD_REACTORS
330
395
102
}
330
395
100
AcDbXrecord
280
     1
  1
Z
  1
*Z*
  1
*
  1
*
 70
     0
  1
*
  1
*
  0
XRECORD
  5
4F0
102
{ACAD_REACTORS
330
395
102
}
330
395
100
AcDbXrecord
280
     1
  1
z-CABINETRY
  1
*CAB*
  1
*
  1
*
 70
     0
  1
*
  1
*
  0
XRECORD
  5
4F1
102
{ACAD_REACTORS
330
395
102
}
330
395
100
AcDbXrecord
280
     1
  1
z-WALLS
  1
*AWA*
  1
*
  1
*
 70
     0
  1
*
  1
*
  0
XRECORD
  5
4F2
102
{ACAD_REACTORS
330
395
102
}
330
395
100
AcDbXrecord
280
     1
  1
ZATU
  1
*ZATU
  1
*
  1
*
 70
     0
  1
*
  1
*
  0
XRECORD
  5
4F3
102
{ACAD_REACTORS
330
395
102
}
330
395
100
AcDbXrecord
280
     1
  1
z図枠
  1
z*
  1
*
  1
*
 70
     0
  1
*
  1
*
  0
XRECORD
  5
4F4
102
{ACAD_REACTORS
330
395
102
}
330
395
100
AcDbXrecord
280
     1
  1
ｨｾｨa
  1
B*
  1
*
  1
*
 70
   768
  1
*
  1
*
  0
XRECORD
  5
4F5
102
{ACAD_REACTORS
330
395
102
}
330
395
100
AcDbXrecord
280
     1
  1
ｨﾏ･ﾎ､､
  1
ｨﾏ･ﾎ､､
  1
*
  1
*
 70
     1
  1
*
  1
*
  0
XRECORD
  5
4F6
102
{ACAD_REACTORS
330
395
102
}
330
395
100
AcDbXrecord
280
     1
  1
ガラス
  1
*HMOJI
  1
*
  1
*
 70
     0
  1
*
  1
*
  0
XRECORD
  5
4F7
102
{ACAD_REACTORS
330
395
102
}
330
395
100
AcDbXrecord
280
     1
  1
キ-プラン
  1
*HMOJI,*HOJO2,*HOJO4,*SINSEI
  1
*
  1
*
 70
     0
  1
*
  1
*
  0
XRECORD
  5
4F8
102
{ACAD_REACTORS
330
395
102
}
330
395
100
AcDbXrecord
280
     1
  1
キープラン
  1
キープラン*
  1
*
  1
*
 70
     0
  1
*
  1
*
  0
XRECORD
  5
4F9
102
{ACAD_REACTORS
330
395
102
}
330
395
100
AcDbXrecord
280
     1
  1
きんでん
  1
き-*
  1
*
  1
*
 70
     0
  1
*
  1
*
  0
XRECORD
  5
4FA
102
{ACAD_REACTORS
330
395
102
}
330
395
100
AcDbXrecord
280
     1
  1
ｺﾝ
  1
D*
  1
*
  1
*
 70
     0
  1
*
  1
*
  0
XRECORD
  5
4FB
102
{ACAD_REACTORS
330
395
102
}
330
395
100
AcDbXrecord
280
     1
  1
シェルター
  1
シェルター*
  1
*
  1
*
 70
     0
  1
*
  1
*
  0
XRECORD
  5
4FC
102
{ACAD_REACTORS
330
395
102
}
330
395
100
AcDbXrecord
280
     1
  1
すべての画層を非表示
  1
*
  1
*
  1
*
 70
     3
  1
*
  1
*
  0
XRECORD
  5
4FD
102
{ACAD_REACTORS
330
395
102
}
330
395
100
AcDbXrecord
280
     1
  1
すべて非表示
  1
*
  1
*
  1
*
 70
     3
  1
*
  1
*
  0
XRECORD
  5
4FE
102
{ACAD_REACTORS
330
395
102
}
330
395
100
AcDbXrecord
280
     1
  1
デッキ
  1
SS*
  1
*
  1
*
 70
     0
  1
*
  1
*
  0
XRECORD
  5
4FF
102
{ACAD_REACTORS
330
395
102
}
330
395
100
AcDbXrecord
280
     1
  1
ハッチング
  1
*HAT*
  1
*
  1
*
 70
     0
  1
*
  1
*
  0
XRECORD
  5
500
102
{ACAD_REACTORS
330
395
102
}
330
395
100
AcDbXrecord
280
     1
  1
ﾌﾘｰｽﾞ
  1
*
  1
*
  1
*
 70
    12
  1
*
  1
*
  0
XRECORD
  5
501
102
{ACAD_REACTORS
330
395
102
}
330
395
100
AcDbXrecord
280
     1
  1
フリーズ
  1
*
  1
*
  1
*
 70
    12
  1
*
  1
*
  0
XRECORD
  5
502
102
{ACAD_REACTORS
330
395
102
}
330
395
100
AcDbXrecord
280
     1
  1
フリーズof
  1
*
  1
*
  1
*
 70
    12
  1
*
  1
*
  0
XRECORD
  5
503
102
{ACAD_REACTORS
330
395
102
}
330
395
100
AcDbXrecord
280
     1
  1
フリーズ画層
  1
*
  1
*
  1
*
 70
     4
  1
*
  1
*
  0
XRECORD
  5
504
102
{ACAD_REACTORS
330
395
102
}
330
395
100
AcDbXrecord
280
     1
  1
ﾌﾘｰｽﾞ画層非表示
  1
*
  1
*
  1
*
 70
    12
  1
*
  1
*
  0
XRECORD
  5
505
102
{ACAD_REACTORS
330
395
102
}
330
395
100
AcDbXrecord
280
     1
  1
ﾌﾘｰｽﾞ画面非表示
  1
*
  1
*
  1
*
 70
    12
  1
*
  1
*
  0
XRECORD
  5
506
102
{ACAD_REACTORS
330
395
102
}
330
395
100
AcDbXrecord
280
     1
  1
ﾌﾘｰｽﾞ解除
  1
*
  1
*
  1
*
 70
    12
  1
*
  1
*
  0
XRECORD
  5
507
102
{ACAD_REACTORS
330
395
102
}
330
395
100
AcDbXrecord
280
     1
  1
フリーズ解除
  1
*
  1
*
  1
*
 70
    12
  1
*
  1
*
  0
XRECORD
  5
508
102
{ACAD_REACTORS
330
395
102
}
330
395
100
AcDbXrecord
280
     1
  1
ペーパー空間
  1
DSTD_FRAME*
  1
*
  1
*
 70
     0
  1
*
  1
*
  0
XRECORD
  5
509
102
{ACAD_REACTORS
330
395
102
}
330
395
100
AcDbXrecord
280
     1
  1
マーク
  1
*マーク
  1
*
  1
*
 70
     0
  1
*
  1
*
  0
XRECORD
  5
50A
102
{ACAD_REACTORS
330
395
102
}
330
395
100
AcDbXrecord
280
     1
  1
ｭｱｿn
  1
*
  1
*
  1
*
 70
     3
  1
*
  1
*
  0
XRECORD
  5
50B
102
{ACAD_REACTORS
330
395
102
}
330
395
100
AcDbXrecord
280
     1
  1
ｭｫｭnｼh
  1
8154*010
  1
*
  1
*
 70
     0
  1
*
  1
*
  0
XRECORD
  5
50C
102
{ACAD_REACTORS
330
395
102
}
330
395
100
AcDbXrecord
280
     1
  1
ランプ
  1
*ランプ*
  1
*
  1
*
 70
     0
  1
*
  1
*
  0
XRECORD
  5
50D
102
{ACAD_REACTORS
330
395
102
}
330
395
100
AcDbXrecord
280
     1
  1
ロック以外
  1
*
  1
*
  1
*
 70
   768
  1
*
  1
*
  0
XRECORD
  5
50E
102
{ACAD_REACTORS
330
395
102
}
330
395
100
AcDbXrecord
280
     1
  1
ロック画層
  1
*
  1
*
  1
*
 70
   256
  1
*
  1
*
  0
XRECORD
  5
50F
102
{ACAD_REACTORS
330
395
102
}
330
395
100
AcDbXrecord
280
     1
  1
ロック解除
  1
*
  1
*
  1
*
 70
   768
  1
*
  1
*
  0
XRECORD
  5
510
102
{ACAD_REACTORS
330
395
102
}
330
395
100
AcDbXrecord
280
     1
  1
ｦLｨ
  1
*
  1
*
  1
*
 70
    13
  1
*
  1
*
  0
XRECORD
  5
511
102
{ACAD_REACTORS
330
395
102
}
330
395
100
AcDbXrecord
280
     1
  1
一括非表示
  1
*
  1
*
  1
*
 70
     3
  1
*
  1
*
  0
XRECORD
  5
512
102
{ACAD_REACTORS
330
395
102
}
330
395
100
AcDbXrecord
280
     1
  1
一般
  1
*般*
  1
*
  1
*
 70
     0
  1
*
  1
*
  0
XRECORD
  5
513
102
{ACAD_REACTORS
330
395
102
}
330
395
100
AcDbXrecord
280
     1
  1
一般画層
  1
.*
  1
*
  1
*
 70
     0
  1
*
  1
*
  0
XRECORD
  5
514
102
{ACAD_REACTORS
330
395
102
}
330
395
100
AcDbXrecord
280
     1
  1
印刷不可を表示
  1
*
  1
*
  1
*
 70
  3072
  1
*
  1
*
  0
XRECORD
  5
515
102
{ACAD_REACTORS
330
395
102
}
330
395
100
AcDbXrecord
280
     1
  1
荏原 機器
  1
kiki*
  1
*
  1
*
 70
     0
  1
*
  1
*
  0
XRECORD
  5
516
102
{ACAD_REACTORS
330
395
102
}
330
395
100
AcDbXrecord
280
     1
  1
荏原　機器基礎
  1
a3*,KIKI*,text*,stage,矢視記号,WAKU*
  1
*
  1
*
 70
     0
  1
*
  1
*
  0
XRECORD
  5
517
102
{ACAD_REACTORS
330
395
102
}
330
395
100
AcDbXrecord
280
     1
  1
荏原機器
  1
KIKI*
  1
*
  1
*
 70
     0
  1
*
  1
*
  0
XRECORD
  5
518
102
{ACAD_REACTORS
330
395
102
}
330
395
100
AcDbXrecord
280
     1
  1
荏原機器基礎
  1
a3*,KIKI*,text*,stage,矢視記号
  1
*
  1
*
 70
     0
  1
*
  1
*
  0
XRECORD
  5
519
102
{ACAD_REACTORS
330
395
102
}
330
395
100
AcDbXrecord
280
     1
  1
衛生設備図
  1
001*,002*,004*,005*,007*,010*,039*,040*,041*,042*,043*
  1
*
  1
*
 70
     0
  1
*
  1
*
  0
XRECORD
  5
51A
102
{ACAD_REACTORS
330
395
102
}
330
395
100
AcDbXrecord
280
     1
  1
黄色
  1
*
  1
YELLOW
  1
*
 70
     0
  1
*
  1
*
  0
XRECORD
  5
51B
102
{ACAD_REACTORS
330
395
102
}
330
395
100
AcDbXrecord
280
     1
  1
下地
  1
*下地*
  1
*
  1
*
 70
     0
  1
*
  1
*
  0
XRECORD
  5
51C
102
{ACAD_REACTORS
330
395
102
}
330
395
100
AcDbXrecord
280
     1
  1
仮設
  1
仮設*
  1
*
  1
*
 70
     0
  1
*
  1
*
  0
XRECORD
  5
51D
102
{ACAD_REACTORS
330
395
102
}
330
395
100
AcDbXrecord
280
     1
  1
家具
  1
*FUN*
  1
*
  1
*
 70
     0
  1
*
  1
*
  0
XRECORD
  5
51E
102
{ACAD_REACTORS
330
395
102
}
330
395
100
AcDbXrecord
280
     1
  1
開発画層
  1
L*,B*
  1
*
  1
*
 70
     0
  1
*
  1
*
  0
XRECORD
  5
51F
102
{ACAD_REACTORS
330
395
102
}
330
395
100
AcDbXrecord
280
     1
  1
外構
  1
外構*
  1
*
  1
*
 70
     0
  1
*
  1
*
  0
XRECORD
  5
520
102
{ACAD_REACTORS
330
395
102
}
330
395
100
AcDbXrecord
280
     1
  1
外構一般画層
  1
L*,B*
  1
*
  1
*
 70
     0
  1
*
  1
*
  0
XRECORD
  5
521
102
{ACAD_REACTORS
330
395
102
}
330
395
100
AcDbXrecord
280
     1
  1
外構図
  1
*
  1
*
  1
*
 70
     7
  1
*
  1
*
  0
XRECORD
  5
522
102
{ACAD_REACTORS
330
395
102
}
330
395
100
AcDbXrecord
280
     1
  1
外部-フリーズ解除
  1
*|*
  1
*
  1
*
 70
    12
  1
*
  1
*
  0
XRECORD
  5
523
102
{ACAD_REACTORS
330
395
102
}
330
395
100
AcDbXrecord
280
     1
  1
外部参照－建築
  1
A*
  1
9
  1
*
 70
     0
  1
*
  1
*
  0
XRECORD
  5
524
102
{ACAD_REACTORS
330
395
102
}
330
395
100
AcDbXrecord
280
     1
  1
外部参照の非表示画層
  1
*
  1
*
  1
*
 70
     0
  1
*
  1
*
  0
XRECORD
  5
525
102
{ACAD_REACTORS
330
395
102
}
330
395
100
AcDbXrecord
280
     1
  1
岩級
  1
*岩級
  1
*
  1
*
 70
     0
  1
*
  1
*
  0
XRECORD
  5
526
102
{ACAD_REACTORS
330
395
102
}
330
395
100
AcDbXrecord
280
     1
  1
基
  1
*_基
  1
*
  1
*
 70
     0
  1
*
  1
*
  0
XRECORD
  5
527
102
{ACAD_REACTORS
330
395
102
}
330
395
100
AcDbXrecord
280
     1
  1
基準
  1
基*
  1
*
  1
*
 70
     0
  1
*
  1
*
  0
XRECORD
  5
528
102
{ACAD_REACTORS
330
395
102
}
330
395
100
AcDbXrecord
280
     1
  1
基礎伏図
  1
SIZE,HOJO,ZATU,HATCH,GL-HARI,GL-HASIRA,KISO,KUI,MOJI-K1,GL-FUGO,SUNPO-K1,SUNPO,SUNPO2,SUNPO1,KIJUN3,KIJUN,SIZE
  1
*
  1
*
 70
     0
  1
*
  1
*
  0
XRECORD
  5
529
102
{ACAD_REACTORS
330
395
102
}
330
395
100
AcDbXrecord
280
     1
  1
既存杭
  1
既存杭*
  1
*
  1
*
 70
     0
  1
*
  1
*
  0
XRECORD
  5
52A
102
{ACAD_REACTORS
330
395
102
}
330
395
100
AcDbXrecord
280
     1
  1
機器
  1
KIKI*
  1
*
  1
*
 70
     0
  1
*
  1
*
  0
XRECORD
  5
52B
102
{ACAD_REACTORS
330
395
102
}
330
395
100
AcDbXrecord
280
     1
  1
機器基礎
  1
a3*,KIKI*,text*,stage,矢視記号
  1
*
  1
*
 70
     0
  1
*
  1
*
  0
XRECORD
  5
52C
102
{ACAD_REACTORS
330
395
102
}
330
395
100
AcDbXrecord
280
     1
  1
記号
  1
*記号
  1
*
  1
*
 70
     0
  1
*
  1
*
  0
XRECORD
  5
52D
102
{ACAD_REACTORS
330
395
102
}
330
395
100
AcDbXrecord
280
     1
  1
旧
  1
*旧*
  1
*
  1
*
 70
     0
  1
*
  1
*
  0
XRECORD
  5
52E
102
{ACAD_REACTORS
330
395
102
}
330
395
100
AcDbXrecord
280
     1
  1
共通
  1
*共*
  1
*
  1
*
 70
     0
  1
*
  1
*
  0
XRECORD
  5
52F
102
{ACAD_REACTORS
330
395
102
}
330
395
100
AcDbXrecord
280
     1
  1
区画
  1
区画*
  1
*
  1
*
 70
     0
  1
*
  1
*
  0
XRECORD
  5
530
102
{ACAD_REACTORS
330
395
102
}
330
395
100
AcDbXrecord
280
     1
  1
躯体
  1
*躯*
  1
*
  1
*
 70
     0
  1
*
  1
*
  0
XRECORD
  5
531
102
{ACAD_REACTORS
330
395
102
}
330
395
100
AcDbXrecord
280
     1
  1
躯体図
  1
001*,002*,003*,004*,005*,006*,007*,008*,009*,010*,011*,012*,027*
  1
*
  1
*
 70
     0
  1
*
  1
*
  0
XRECORD
  5
532
102
{ACAD_REACTORS
330
395
102
}
330
395
100
AcDbXrecord
280
     1
  1
駆体
  1
*A09*
  1
*
  1
*
 70
     0
  1
*
  1
*
  0
XRECORD
  5
533
102
{ACAD_REACTORS
330
395
102
}
330
395
100
AcDbXrecord
280
     1
  1
空調設備図
  1
001*,002*,004*,005*,007*,010*,033*,034*,035*,036*,037*,038*
  1
*
  1
*
 70
     0
  1
*
  1
*
  0
XRECORD
  5
534
102
{ACAD_REACTORS
330
395
102
}
330
395
100
AcDbXrecord
280
     1
  1
郡川
  1
kijun,kabe,sunpo
  1
*
  1
*
 70
     3
  1
*
  1
*
  0
XRECORD
  5
535
102
{ACAD_REACTORS
330
395
102
}
330
395
100
AcDbXrecord
280
     1
  1
型枠計画図
  1
001*,002*,003*,004*,005*,006*,007*,010*,012*,050*,051*,055*,056*,057*,058*,059*,060*,061*,062*,063*,064*,065*,066*,067*,068*,069*,070*,071*,072*,073*,074*,075*
  1
*
  1
*
 70
     0
  1
*
  1
*
  0
XRECORD
  5
536
102
{ACAD_REACTORS
330
395
102
}
330
395
100
AcDbXrecord
280
     1
  1
形状
  1
pen1,pen3,pen4,up,dia,low
  1
*
  1
*
 70
     0
  1
*
  1
*
  0
XRECORD
  5
537
102
{ACAD_REACTORS
330
395
102
}
330
395
100
AcDbXrecord
280
     1
  1
形状以外
  1
dim,cen,text,sakuzu1,sakuzu2,siten,defpoints,0
  1
*
  1
*
 70
     0
  1
*
  1
*
  0
XRECORD
  5
538
102
{ACAD_REACTORS
330
395
102
}
330
395
100
AcDbXrecord
280
     1
  1
建具
  1
*TAT*
  1
*
  1
*
 70
     0
  1
*
  1
*
  0
XRECORD
  5
539
102
{ACAD_REACTORS
330
395
102
}
330
395
100
AcDbXrecord
280
     1
  1
建築
  1
*
  1
*
  1
*
 70
     0
  1
*
  1
*
  0
XRECORD
  5
53A
102
{ACAD_REACTORS
330
395
102
}
330
395
100
AcDbXrecord
280
     1
  1
建築1
  1
K*
  1
*
  1
*
 70
     3
  1
*
  1
*
  0
XRECORD
  5
53B
102
{ACAD_REACTORS
330
395
102
}
330
395
100
AcDbXrecord
280
     1
  1
建築一般画層
  1
B*,A*
  1
*
  1
*
 70
     0
  1
*
  1
*
  0
XRECORD
  5
53C
102
{ACAD_REACTORS
330
395
102
}
330
395
100
AcDbXrecord
280
     1
  1
建築図
  1
*
  1
9
  1
*
 70
     0
  1
*
  1
*
  0
XRECORD
  5
53D
102
{ACAD_REACTORS
330
395
102
}
330
395
100
AcDbXrecord
280
     1
  1
建築接地図
  1
A01*
  1
*
  1
*
 70
     0
  1
*
  1
*
  0
XRECORD
  5
53E
102
{ACAD_REACTORS
330
395
102
}
330
395
100
AcDbXrecord
280
     1
  1
建物
  1
T-*
  1
*
  1
*
 70
     0
  1
*
  1
*
  0
XRECORD
  5
53F
102
{ACAD_REACTORS
330
395
102
}
330
395
100
AcDbXrecord
280
     1
  1
見え
  1
*KEN*
  1
*
  1
*
 70
     0
  1
*
  1
*
  0
XRECORD
  5
540
102
{ACAD_REACTORS
330
395
102
}
330
395
100
AcDbXrecord
280
     1
  1
見上
  1
*上*
  1
*
  1
*
 70
     0
  1
*
  1
*
  0
XRECORD
  5
541
102
{ACAD_REACTORS
330
395
102
}
330
395
100
AcDbXrecord
280
     1
  1
現況
  1
00wrk*
  1
*
  1
*
 70
     0
  1
*
  1
*
  0
XRECORD
  5
542
102
{ACAD_REACTORS
330
395
102
}
330
395
100
AcDbXrecord
280
     1
  1
現況＆境界
  1
*wrk*
  1
*
  1
*
 70
     0
  1
*
  1
*
  0
XRECORD
  5
543
102
{ACAD_REACTORS
330
395
102
}
330
395
100
AcDbXrecord
280
     1
  1
現在以外のすべてを選択
  1
*
  1
*
  1
*
 70
     0
  1
*
  1
*
  0
XRECORD
  5
544
102
{ACAD_REACTORS
330
395
102
}
330
395
100
AcDbXrecord
280
     1
  1
後付
  1
*後付*
  1
*
  1
*
 70
     0
  1
*
  1
*
  0
XRECORD
  5
545
102
{ACAD_REACTORS
330
395
102
}
330
395
100
AcDbXrecord
280
     1
  1
公園
  1
K*
  1
*
  1
*
 70
     0
  1
*
  1
*
  0
XRECORD
  5
546
102
{ACAD_REACTORS
330
395
102
}
330
395
100
AcDbXrecord
280
     1
  1
杭頭詳細図
  1
DSTD_PILE*
  1
*
  1
*
 70
     0
  1
*
  1
*
  0
XRECORD
  5
547
102
{ACAD_REACTORS
330
395
102
}
330
395
100
AcDbXrecord
280
     1
  1
杭伏図
  1
SIZE,HOJO,KUI,SUNPO,KIJUN,KUI-SUNPO,KUI-MOJI
  1
*
  1
*
 70
     0
  1
*
  1
*
  0
XRECORD
  5
548
102
{ACAD_REACTORS
330
395
102
}
330
395
100
AcDbXrecord
280
     1
  1
高さ
  1
204-TEXT,東西道路*
  1
*
  1
*
 70
     0
  1
*
  1
*
  0
XRECORD
  5
549
102
{ACAD_REACTORS
330
395
102
}
330
395
100
AcDbXrecord
280
     1
  1
高圧電気
  1
高*
  1
*
  1
*
 70
     0
  1
*
  1
*
  0
XRECORD
  5
54A
102
{ACAD_REACTORS
330
395
102
}
330
395
100
AcDbXrecord
280
     1
  1
座席のみ
  1
*
  1
*
  1
*
 70
     0
  1
*
  1
*
  0
XRECORD
  5
54B
102
{ACAD_REACTORS
330
395
102
}
330
395
100
AcDbXrecord
280
     1
  1
作業
  1
100-*,地区*,
  1
*
  1
*
 70
     1
  1
*
  1
*
  0
XRECORD
  5
54C
102
{ACAD_REACTORS
330
395
102
}
330
395
100
AcDbXrecord
280
     1
  1
山止根切計画図
  1
001*,002*,003*,004*,005*,007*,012*,049*,050*,051*,052*,053*,054*,055*,056*,057*,058*,059*,060*,061*,062*,064*,065*,066*,067*,068*,069*,070*,071*,072*,073*,074*,075*
  1
*
  1
*
 70
     0
  1
*
  1
*
  0
XRECORD
  5
54D
102
{ACAD_REACTORS
330
395
102
}
330
395
100
AcDbXrecord
280
     1
  1
仕
  1
*_仕
  1
*
  1
*
 70
     0
  1
*
  1
*
  0
XRECORD
  5
54E
102
{ACAD_REACTORS
330
395
102
}
330
395
100
AcDbXrecord
280
     1
  1
仕上
  1
D*
  1
*
  1
*
 70
     0
  1
*
  1
*
  0
XRECORD
  5
54F
102
{ACAD_REACTORS
330
395
102
}
330
395
100
AcDbXrecord
280
     1
  1
仕上げ
  1
*FIN*
  1
*
  1
*
 70
     0
  1
*
  1
*
  0
XRECORD
  5
550
102
{ACAD_REACTORS
330
395
102
}
330
395
100
AcDbXrecord
280
     1
  1
仕上図
  1
C*
  1
*
  1
*
 70
     0
  1
*
  1
*
  0
XRECORD
  5
551
102
{ACAD_REACTORS
330
395
102
}
330
395
100
AcDbXrecord
280
     1
  1
支柱取付部
  1
DSTD_COLMN-DET*
  1
*
  1
*
 70
     0
  1
*
  1
*
  0
XRECORD
  5
552
102
{ACAD_REACTORS
330
395
102
}
330
395
100
AcDbXrecord
280
     1
  1
施工図
  1
*
  1
*
  1
*
 70
     0
  1
*
  1
*
  0
XRECORD
  5
553
102
{ACAD_REACTORS
330
395
102
}
330
395
100
AcDbXrecord
280
     1
  1
紫
  1
*
  1
Magenta
  1
*
 70
     0
  1
*
  1
*
  0
XRECORD
  5
554
102
{ACAD_REACTORS
330
395
102
}
330
395
100
AcDbXrecord
280
     1
  1
従属
  1
*|*
  1
*
  1
*
 70
     0
  1
*
  1
*
  0
XRECORD
  5
555
102
{ACAD_REACTORS
330
395
102
}
330
395
100
AcDbXrecord
280
     1
  1
出図
  1
*
  1
*
  1
*
 70
     1
  1
*
  1
*
  0
XRECORD
  5
556
102
{ACAD_REACTORS
330
395
102
}
330
395
100
AcDbXrecord
280
     1
  1
床伏
  1
*床*
  1
*
  1
*
 70
     0
  1
*
  1
*
  0
XRECORD
  5
557
102
{ACAD_REACTORS
330
395
102
}
330
395
100
AcDbXrecord
280
     1
  1
床伏図
  1
*U*,20,Z20,Z22,Z23
  1
*
  1
*
 70
     0
  1
*
  1
*
  0
XRECORD
  5
558
102
{ACAD_REACTORS
330
395
102
}
330
395
100
AcDbXrecord
280
     1
  1
昇降機
  1
T*
  1
*
  1
*
 70
     0
  1
*
  1
*
  0
XRECORD
  5
559
102
{ACAD_REACTORS
330
395
102
}
330
395
100
AcDbXrecord
280
     1
  1
詳細
  1
詳細*
  1
*
  1
*
 70
     0
  1
*
  1
*
  0
XRECORD
  5
55A
102
{ACAD_REACTORS
330
395
102
}
330
395
100
AcDbXrecord
280
     1
  1
詳細一般画層
  1
B*,A*,D*
  1
*
  1
*
 70
     0
  1
*
  1
*
  0
XRECORD
  5
55B
102
{ACAD_REACTORS
330
395
102
}
330
395
100
AcDbXrecord
280
     1
  1
詳細図
  1
9*
  1
*
  1
*
 70
    12
  1
*
  1
*
  0
XRECORD
  5
55C
102
{ACAD_REACTORS
330
395
102
}
330
395
100
AcDbXrecord
280
     1
  1
上階躯体図
  1
KUTAI-Z,SIZE,HOJO,ZATU,HATCH,BR-S,KABE2,KABE,MAJIKIRI,KOBARI-S,KOBARI-R,HARI-S,HARI-R,HASIRA-S,HASIRA-R,MOJI-K2,FL-FUGO,FUGO-W,SUNPO-K2,SUNPO,SUNPO2,SUNPO1,KIJUN2,KIJUN1,KIJUN,
  1
*
  1
*
 70
     0
  1
*
  1
*
  0
XRECORD
  5
55D
102
{ACAD_REACTORS
330
395
102
}
330
395
100
AcDbXrecord
280
     1
  1
植栽
  1
T*
  1
*
  1
*
 70
     0
  1
*
  1
*
  0
XRECORD
  5
55E
102
{ACAD_REACTORS
330
395
102
}
330
395
100
AcDbXrecord
280
     1
  1
色番号8
  1
*
  1
8
  1
*
 70
     0
  1
*
  1
*
  0
XRECORD
  5
55F
102
{ACAD_REACTORS
330
395
102
}
330
395
100
AcDbXrecord
280
     1
  1
新
  1
*新*
  1
*
  1
*
 70
     0
  1
*
  1
*
  0
XRECORD
  5
560
102
{ACAD_REACTORS
330
395
102
}
330
395
100
AcDbXrecord
280
     1
  1
新菱
  1
新菱*
  1
*
  1
*
 70
     0
  1
*
  1
*
  0
XRECORD
  5
561
102
{ACAD_REACTORS
330
395
102
}
330
395
100
AcDbXrecord
280
     1
  1
申請用
  1
*あ*,*き*,*グ*,*み*,*オ*,*ピ*,*92*
  1
*
  1
*
 70
     0
  1
*
  1
*
  0
XRECORD
  5
562
102
{ACAD_REACTORS
330
395
102
}
330
395
100
AcDbXrecord
280
     1
  1
芯
  1
*芯*
  1
*
  1
*
 70
     0
  1
*
  1
*
  0
XRECORD
  5
563
102
{ACAD_REACTORS
330
395
102
}
330
395
100
AcDbXrecord
280
     1
  1
芯関係
  1
001*,002*,032*
  1
*
  1
*
 70
     0
  1
*
  1
*
  0
XRECORD
  5
564
102
{ACAD_REACTORS
330
395
102
}
330
395
100
AcDbXrecord
280
     1
  1
水
  1
*
  1
cyan
  1
*
 70
     0
  1
*
  1
*
  0
XRECORD
  5
565
102
{ACAD_REACTORS
330
395
102
}
330
395
100
AcDbXrecord
280
     1
  1
水色
  1
*
  1
Cyan
  1
*
 70
     0
  1
*
  1
*
  0
XRECORD
  5
566
102
{ACAD_REACTORS
330
395
102
}
330
395
100
AcDbXrecord
280
     1
  1
寸法
  1
*寸法
  1
*
  1
*
 70
     0
  1
*
  1
*
  0
XRECORD
  5
567
102
{ACAD_REACTORS
330
395
102
}
330
395
100
AcDbXrecord
280
     1
  1
正面図
  1
DSTD_FRONT*
  1
*
  1
*
 70
     0
  1
*
  1
*
  0
XRECORD
  5
568
102
{ACAD_REACTORS
330
395
102
}
330
395
100
AcDbXrecord
280
     1
  1
製作
  1
B*
  1
*
  1
*
 70
     0
  1
*
  1
*
  0
XRECORD
  5
569
102
{ACAD_REACTORS
330
395
102
}
330
395
100
AcDbXrecord
280
     1
  1
製作-躯体
  1
BS*
  1
*
  1
*
 70
     0
  1
*
  1
*
  0
XRECORD
  5
56A
102
{ACAD_REACTORS
330
395
102
}
330
395
100
AcDbXrecord
280
     1
  1
製作-建築
  1
BD*
  1
*
  1
*
 70
     0
  1
*
  1
*
  0
XRECORD
  5
56B
102
{ACAD_REACTORS
330
395
102
}
330
395
100
AcDbXrecord
280
     1
  1
製作-昇降機
  1
BT*
  1
*
  1
*
 70
     0
  1
*
  1
*
  0
XRECORD
  5
56C
102
{ACAD_REACTORS
330
395
102
}
330
395
100
AcDbXrecord
280
     1
  1
青
  1
*
  1
blue
  1
*
 70
     0
  1
*
  1
*
  0
XRECORD
  5
56D
102
{ACAD_REACTORS
330
395
102
}
330
395
100
AcDbXrecord
280
     1
  1
設備
  1
*SET*
  1
*
  1
*
 70
     0
  1
*
  1
*
  0
XRECORD
  5
56E
102
{ACAD_REACTORS
330
395
102
}
330
395
100
AcDbXrecord
280
     1
  1
設備１
  1
*
  1
*
  1
*
 70
     0
  1
*
  1
*
  0
XRECORD
  5
56F
102
{ACAD_REACTORS
330
395
102
}
330
395
100
AcDbXrecord
280
     1
  1
専北
  1
*専北*
  1
*
  1
*
 70
     0
  1
*
  1
*
  0
XRECORD
  5
570
102
{ACAD_REACTORS
330
395
102
}
330
395
100
AcDbXrecord
280
     1
  1
専用
  1
*専*
  1
*
  1
*
 70
     0
  1
*
  1
*
  0
XRECORD
  5
571
102
{ACAD_REACTORS
330
395
102
}
330
395
100
AcDbXrecord
280
     1
  1
川畑
  1
*川畑
  1
*
  1
*
 70
     0
  1
*
  1
*
  0
XRECORD
  5
572
102
{ACAD_REACTORS
330
395
102
}
330
395
100
AcDbXrecord
280
     1
  1
線形
  1
*線形*
  1
*
  1
*
 70
     0
  1
*
  1
*
  0
XRECORD
  5
573
102
{ACAD_REACTORS
330
395
102
}
330
395
100
AcDbXrecord
280
     1
  1
全階平面図
  1
*
  1
*
  1
*
 70
     0
  1
*
  1
*
  0
XRECORD
  5
574
102
{ACAD_REACTORS
330
395
102
}
330
395
100
AcDbXrecord
280
     1
  1
全帯
  1
*帯*
  1
*
  1
*
 70
     0
  1
*
  1
*
  0
XRECORD
  5
575
102
{ACAD_REACTORS
330
395
102
}
330
395
100
AcDbXrecord
280
     1
  1
総合仮設図
  1
001*,002*,003*,004*,005*,007*,012*,015*,016*,017*,018*,019*,020*,021*,049*,050*,051*,052*,053*,054*,055*,056*,057*,058*,059*,060*,061*,062*,063*,064*,065*,066*,067*,068*,069*,070*,071*,072*,073*,074*,075*
  1
*
  1
*
 70
     0
  1
*
  1
*
  0
XRECORD
  5
576
102
{ACAD_REACTORS
330
395
102
}
330
395
100
AcDbXrecord
280
     1
  1
総合図
  1
*
  1
*
  1
*
 70
     0
  1
*
  1
*
  0
XRECORD
  5
577
102
{ACAD_REACTORS
330
395
102
}
330
395
100
AcDbXrecord
280
     1
  1
総合図1
  1
*
  1
*
  1
*
 70
    13
  1
*
  1
*
  0
XRECORD
  5
578
102
{ACAD_REACTORS
330
395
102
}
330
395
100
AcDbXrecord
280
     1
  1
足場計画図
  1
001*,002*,003*,004*,005*,007*,012*,015*,049*,050*,051*,055*,056*,057*,058*,059*,060*,061*,062*,064*,065*,066*,067*,068*,069*,070*,071*,072*,073*,074*,075*
  1
*
  1
*
 70
     0
  1
*
  1
*
  0
XRECORD
  5
579
102
{ACAD_REACTORS
330
395
102
}
330
395
100
AcDbXrecord
280
     1
  1
耐火
  1
耐火*
  1
*
  1
*
 70
     0
  1
*
  1
*
  0
XRECORD
  5
57A
102
{ACAD_REACTORS
330
395
102
}
330
395
100
AcDbXrecord
280
     1
  1
断面
  1
*断面*
  1
*
  1
*
 70
     0
  1
*
  1
*
  0
XRECORD
  5
57B
102
{ACAD_REACTORS
330
395
102
}
330
395
100
AcDbXrecord
280
     1
  1
断面図
  1
DSTD_SECT*
  1
*
  1
*
 70
     0
  1
*
  1
*
  0
XRECORD
  5
57C
102
{ACAD_REACTORS
330
395
102
}
330
395
100
AcDbXrecord
280
     1
  1
中
  1
*中*
  1
*
  1
*
 70
     0
  1
*
  1
*
  0
XRECORD
  5
57D
102
{ACAD_REACTORS
330
395
102
}
330
395
100
AcDbXrecord
280
     1
  1
中野
  1
中野*
  1
*
  1
*
 70
     0
  1
*
  1
*
  0
XRECORD
  5
57E
102
{ACAD_REACTORS
330
395
102
}
330
395
100
AcDbXrecord
280
     1
  1
通り芯
  1
sin*
  1
*
  1
*
 70
     0
  1
*
  1
*
  0
XRECORD
  5
57F
102
{ACAD_REACTORS
330
395
102
}
330
395
100
AcDbXrecord
280
     1
  1
低圧
  1
低*
  1
*
  1
*
 70
     0
  1
*
  1
*
  0
XRECORD
  5
580
102
{ACAD_REACTORS
330
395
102
}
330
395
100
AcDbXrecord
280
     1
  1
鉄筋
  1
TEA*,TEB*,TEC*
  1
*
  1
*
 70
     0
  1
*
  1
*
  0
XRECORD
  5
581
102
{ACAD_REACTORS
330
395
102
}
330
395
100
AcDbXrecord
280
     1
  1
鉄骨
  1
*鉄骨*
  1
*
  1
*
 70
     0
  1
*
  1
*
  0
XRECORD
  5
582
102
{ACAD_REACTORS
330
395
102
}
330
395
100
AcDbXrecord
280
     1
  1
鉄骨建方計画図
  1
001*,002*,003*,004*,005*,007*,012*,013*,049*,050*,051*,052*,053*,054*,055*,056*,057*,058*,059*,060*,061*,062*,063*,064*,065*,066*,067*,068*,069*,070*,071*,072*,073*,074*,075*
  1
*
  1
*
 70
     0
  1
*
  1
*
  0
XRECORD
  5
583
102
{ACAD_REACTORS
330
395
102
}
330
395
100
AcDbXrecord
280
     1
  1
鉄骨梁見下げ
  1
000*,110*,141*
  1
*
  1
*
 70
     0
  1
*
  1
*
  0
XRECORD
  5
584
102
{ACAD_REACTORS
330
395
102
}
330
395
100
AcDbXrecord
280
     1
  1
鉄骨梁見下げ3
  1
20*
  1
*
  1
*
 70
     0
  1
*
  1
*
  0
XRECORD
  5
585
102
{ACAD_REACTORS
330
395
102
}
330
395
100
AcDbXrecord
280
     1
  1
天井
  1
C*
  1
*
  1
*
 70
     0
  1
*
  1
*
  0
XRECORD
  5
586
102
{ACAD_REACTORS
330
395
102
}
330
395
100
AcDbXrecord
280
     1
  1
天井インサート図
  1
001*,002*,004*,010*,022*,023*,024*,025*,026*,027*,028*,029*,037*,042*
  1
*
  1
*
 70
     0
  1
*
  1
*
  0
XRECORD
  5
587
102
{ACAD_REACTORS
330
395
102
}
330
395
100
AcDbXrecord
280
     1
  1
天井総合図
  1
001*,002*,004*,005*,007*,010*,022*,023*,024*,025*,026*,027*,028*,029*,030*,031*,033*,035*,036*,037*,039*,041*,042*,044*,046*,047*
  1
*
  1
*
 70
     0
  1
*
  1
*
  0
XRECORD
  5
588
102
{ACAD_REACTORS
330
395
102
}
330
395
100
AcDbXrecord
280
     1
  1
天井伏
  1
0,03*,1a*,160*,17*,28*,29*,2a*,41*,42*,43*,5*,6*,SUNPO
  1
*
  1
*
 70
     0
  1
*
  1
*
  0
XRECORD
  5
589
102
{ACAD_REACTORS
330
395
102
}
330
395
100
AcDbXrecord
280
     1
  1
天井伏図
  1
001*,002*,004*,010*,022*,023*,024*,025*,026*,027*,028*,029*,033*,039*,044*
  1
*
  1
*
 70
     0
  1
*
  1
*
  0
XRECORD
  5
58A
102
{ACAD_REACTORS
330
395
102
}
330
395
100
AcDbXrecord
280
     1
  1
天伏
  1
****-H
  1
*
  1
*
 70
     0
  1
*
  1
*
  0
XRECORD
  5
58B
102
{ACAD_REACTORS
330
395
102
}
330
395
100
AcDbXrecord
280
     1
  1
展開図
  1
4*,9*,0*
  1
*
  1
*
 70
     0
  1
*
  1
*
  0
XRECORD
  5
58C
102
{ACAD_REACTORS
330
395
102
}
330
395
100
AcDbXrecord
280
     1
  1
電ｺﾝｾﾝﾄ
  1
電-ｺﾝｾﾝﾄ*
  1
*
  1
*
 70
     0
  1
*
  1
*
  0
XRECORD
  5
58D
102
{ACAD_REACTORS
330
395
102
}
330
395
100
AcDbXrecord
280
     1
  1
電ﾃﾚﾋﾞ
  1
電-ﾃﾚﾋﾞ*
  1
*
  1
*
 70
     0
  1
*
  1
*
  0
XRECORD
  5
58E
102
{ACAD_REACTORS
330
395
102
}
330
395
100
AcDbXrecord
280
     1
  1
電の画層
  1
電-*
  1
*
  1
*
 70
     0
  1
*
  1
*
  0
XRECORD
  5
58F
102
{ACAD_REACTORS
330
395
102
}
330
395
100
AcDbXrecord
280
     1
  1
電の総画層
  1
電-*
  1
*
  1
*
 70
     0
  1
*
  1
*
  0
XRECORD
  5
590
102
{ACAD_REACTORS
330
395
102
}
330
395
100
AcDbXrecord
280
     1
  1
電医療接地
  1
電-医療*
  1
*
  1
*
 70
     0
  1
*
  1
*
  0
XRECORD
  5
591
102
{ACAD_REACTORS
330
395
102
}
330
395
100
AcDbXrecord
280
     1
  1
電気
  1
電*
  1
*
  1
*
 70
     0
  1
*
  1
*
  0
XRECORD
  5
592
102
{ACAD_REACTORS
330
395
102
}
330
395
100
AcDbXrecord
280
     1
  1
電気画層
  1
電-*
  1
*
  1
*
 70
     0
  1
*
  1
*
  0
XRECORD
  5
593
102
{ACAD_REACTORS
330
395
102
}
330
395
100
AcDbXrecord
280
     1
  1
電気設計図
  1
電-S*
  1
*
  1
*
 70
     0
  1
*
  1
*
  0
XRECORD
  5
594
102
{ACAD_REACTORS
330
395
102
}
330
395
100
AcDbXrecord
280
     1
  1
電気設備図
  1
001*,002*,004*,005*,007*,010*,030*,031*,044*,045*,046*,047*,048*
  1
*
  1
*
 70
     0
  1
*
  1
*
  0
XRECORD
  5
595
102
{ACAD_REACTORS
330
395
102
}
330
395
100
AcDbXrecord
280
     1
  1
電電話
  1
電-電話*
  1
*
  1
*
 70
     0
  1
*
  1
*
  0
XRECORD
  5
596
102
{ACAD_REACTORS
330
395
102
}
330
395
100
AcDbXrecord
280
     1
  1
土留板
  1
*_CONC
  1
*
  1
*
 70
     0
  1
*
  1
*
  0
XRECORD
  5
597
102
{ACAD_REACTORS
330
395
102
}
330
395
100
AcDbXrecord
280
     1
  1
土留板取付詳細図
  1
DSTD_CONC*
  1
*
  1
*
 70
     0
  1
*
  1
*
  0
XRECORD
  5
598
102
{ACAD_REACTORS
330
395
102
}
330
395
100
AcDbXrecord
280
     1
  1
動力
  1
D*
  1
*
  1
*
 70
    12
  1
*
  1
*
  0
XRECORD
  5
599
102
{ACAD_REACTORS
330
395
102
}
330
395
100
AcDbXrecord
280
     1
  1
道路
  1
D-*
  1
*
  1
*
 70
     0
  1
*
  1
*
  0
XRECORD
  5
59A
102
{ACAD_REACTORS
330
395
102
}
330
395
100
AcDbXrecord
280
     1
  1
道路関係図
  1
001*,002*,003*,004*,007*,012*,015*,016*,017*,018*,019*,020*,021*,049*,050*,051*,052*,053*,054*,055*,056*,057*,058*,059*,060*,061*,062*,063*,064*,065*,066*,067*,068*,069*,070*,071*,072*,073*,074*,075*
  1
*
  1
*
 70
     0
  1
*
  1
*
  0
XRECORD
  5
59B
102
{ACAD_REACTORS
330
395
102
}
330
395
100
AcDbXrecord
280
     1
  1
読み込み時表示層
  1
*
  1
*
  1
*
 70
     0
  1
*
  1
*
  0
XRECORD
  5
59C
102
{ACAD_REACTORS
330
395
102
}
330
395
100
AcDbXrecord
280
     1
  1
日比谷
  1
日比谷*
  1
*
  1
*
 70
     0
  1
*
  1
*
  0
XRECORD
  5
59D
102
{ACAD_REACTORS
330
395
102
}
330
395
100
AcDbXrecord
280
     1
  1
日比谷1
  1
日*管
  1
*
  1
*
 70
     0
  1
*
  1
*
  0
XRECORD
  5
59E
102
{ACAD_REACTORS
330
395
102
}
330
395
100
AcDbXrecord
280
     1
  1
背面図
  1
DSTD_BACK*
  1
*
  1
*
 70
     0
  1
*
  1
*
  0
XRECORD
  5
59F
102
{ACAD_REACTORS
330
395
102
}
330
395
100
AcDbXrecord
280
     1
  1
配管
  1
PIPE*
  1
*
  1
*
 70
     0
  1
*
  1
*
  0
XRECORD
  5
5A0
102
{ACAD_REACTORS
330
395
102
}
330
395
100
AcDbXrecord
280
     1
  1
配筋図
  1
DSTD_STEEL*
  1
*
  1
*
 70
     0
  1
*
  1
*
  0
XRECORD
  5
5A1
102
{ACAD_REACTORS
330
395
102
}
330
395
100
AcDbXrecord
280
     1
  1
配置樹木
  1
*
  1
*
  1
*
 70
     0
  1
*
  1
*
  0
XRECORD
  5
5A2
102
{ACAD_REACTORS
330
395
102
}
330
395
100
AcDbXrecord
280
     1
  1
配置図
  1
*
  1
*
  1
*
 70
  1024
  1
*
  1
*
  0
XRECORD
  5
5A3
102
{ACAD_REACTORS
330
395
102
}
330
395
100
AcDbXrecord
280
     1
  1
盤
  1
盤*
  1
*
  1
*
 70
     0
  1
*
  1
*
  0
XRECORD
  5
5A4
102
{ACAD_REACTORS
330
395
102
}
330
395
100
AcDbXrecord
280
     1
  1
非表示
  1
z*
  1
*
  1
*
 70
     0
  1
*
  1
*
  0
XRECORD
  5
5A5
102
{ACAD_REACTORS
330
395
102
}
330
395
100
AcDbXrecord
280
     1
  1
非表示層のみ表示
  1
*
  1
*
  1
*
 70
     7
  1
*
  1
*
  0
XRECORD
  5
5A6
102
{ACAD_REACTORS
330
395
102
}
330
395
100
AcDbXrecord
280
     1
  1
表示
  1
*
  1
*
  1
*
 70
     1
  1
*
  1
*
  0
XRECORD
  5
5A7
102
{ACAD_REACTORS
330
395
102
}
330
395
100
AcDbXrecord
280
     1
  1
表示-ﾊﾟｼｺﾝ作成画層のみ
  1
ﾊﾟｼｺﾝ*
  1
*
  1
*
 70
     0
  1
*
  1
*
  0
XRECORD
  5
5A8
102
{ACAD_REACTORS
330
395
102
}
330
395
100
AcDbXrecord
280
     1
  1
表示-近代作成画層のみ
  1
近*
  1
*
  1
*
 70
     0
  1
*
  1
*
  0
XRECORD
  5
5A9
102
{ACAD_REACTORS
330
395
102
}
330
395
100
AcDbXrecord
280
     1
  1
表示-東電作成画層のみ
  1
東*
  1
*
  1
*
 70
     0
  1
*
  1
*
  0
XRECORD
  5
5AA
102
{ACAD_REACTORS
330
395
102
}
330
395
100
AcDbXrecord
280
     1
  1
表示-日技作成画層のみ
  1
日*
  1
*
  1
*
 70
     0
  1
*
  1
*
  0
XRECORD
  5
5AB
102
{ACAD_REACTORS
330
395
102
}
330
395
100
AcDbXrecord
280
     1
  1
表示-福山作成画層のみ
  1
福*
  1
*
  1
*
 70
     0
  1
*
  1
*
  0
XRECORD
  5
5AC
102
{ACAD_REACTORS
330
395
102
}
330
395
100
AcDbXrecord
280
     1
  1
表示・非表示
  1
*
  1
*
  1
*
 70
     1
  1
*
  1
*
  0
XRECORD
  5
5AD
102
{ACAD_REACTORS
330
395
102
}
330
395
100
AcDbXrecord
280
     1
  1
表示2
  1
*
  1
*
  1
*
 70
   257
  1
*
  1
*
  0
XRECORD
  5
5AE
102
{ACAD_REACTORS
330
395
102
}
330
395
100
AcDbXrecord
280
     1
  1
表示層のみ表示
  1
*
  1
*
  1
*
 70
    13
  1
*
  1
*
  0
XRECORD
  5
5AF
102
{ACAD_REACTORS
330
395
102
}
330
395
100
AcDbXrecord
280
     1
  1
副道
  1
*副*
  1
*
  1
*
 70
     0
  1
*
  1
*
  0
XRECORD
  5
5B0
102
{ACAD_REACTORS
330
395
102
}
330
395
100
AcDbXrecord
280
     1
  1
分割枠
  1
枠*
  1
*
  1
*
 70
     0
  1
*
  1
*
  0
XRECORD
  5
5B1
102
{ACAD_REACTORS
330
395
102
}
330
395
100
AcDbXrecord
280
     1
  1
文字
  1
*NAM*
  1
*
  1
*
 70
     0
  1
*
  1
*
  0
XRECORD
  5
5B2
102
{ACAD_REACTORS
330
395
102
}
330
395
100
AcDbXrecord
280
     1
  1
平詳
  1
****-T
  1
*
  1
*
 70
     0
  1
*
  1
*
  0
XRECORD
  5
5B3
102
{ACAD_REACTORS
330
395
102
}
330
395
100
AcDbXrecord
280
     1
  1
平詳仕上表1
  1
1_h*3,1_t*2,2_s*2
  1
*
  1
*
 70
     0
  1
*
  1
*
  0
XRECORD
  5
5B4
102
{ACAD_REACTORS
330
395
102
}
330
395
100
AcDbXrecord
280
     1
  1
平面
  1
*-T
  1
*
  1
*
 70
     0
  1
*
  1
*
  0
XRECORD
  5
5B5
102
{ACAD_REACTORS
330
395
102
}
330
395
100
AcDbXrecord
280
     1
  1
平面詳細
  1
04*,7*,9*,hojo
  1
*
  1
*
 70
     0
  1
*
  1
*
  0
XRECORD
  5
5B6
102
{ACAD_REACTORS
330
395
102
}
330
395
100
AcDbXrecord
280
     1
  1
平面詳細図
  1
SUNPO-S,SIZE,HOJO,ZATU,HATCH,HWAKU,HMOJI,WARITUKE-T,WARITUKE-Y,WARITUKE-K,TATEGU1,TATEGU,BR-S,MAJIKIRI,KABE2,SIAGE,KABE1,KABE,KOBARI-S,KOBARI-R,HARI-S,HARI-R,HASIRA-S,HASIRA-R,MOJI,SHITUMEI,LABEL,FL-FUGO,FUGO-W,SUNPO,SUNPO2,SUNPO1,KIJUN2,KIJUN1,KIJUN
  1
*
  1
*
 70
     0
  1
*
  1
*
  0
XRECORD
  5
5B7
102
{ACAD_REACTORS
330
395
102
}
330
395
100
AcDbXrecord
280
     1
  1
平面図
  1
DSTD_PLN*
  1
*
  1
*
 70
     0
  1
*
  1
*
  0
XRECORD
  5
5B8
102
{ACAD_REACTORS
330
395
102
}
330
395
100
AcDbXrecord
280
     1
  1
平面図のみ＠1
  1
*
  1
*
  1
*
 70
     1
  1
*
  1
*
  0
XRECORD
  5
5B9
102
{ACAD_REACTORS
330
395
102
}
330
395
100
AcDbXrecord
280
     1
  1
平面図のみ＠２
  1
*
  1
*
  1
*
 70
     1
  1
*
  1
*
  0
XRECORD
  5
5BA
102
{ACAD_REACTORS
330
395
102
}
330
395
100
AcDbXrecord
280
     1
  1
平面総合図
  1
001*,002*,004*,010*,013*,014*,015*,016*,017*,018*,019*,020*,021*,030*,031*,034*,040*,045*
  1
*
  1
*
 70
     0
  1
*
  1
*
  0
XRECORD
  5
5BB
102
{ACAD_REACTORS
330
395
102
}
330
395
100
AcDbXrecord
280
     1
  1
保留
  1
保留*
  1
*
  1
*
 70
     0
  1
*
  1
*
  0
XRECORD
  5
5BC
102
{ACAD_REACTORS
330
395
102
}
330
395
100
AcDbXrecord
280
     1
  1
補助線
  1
*0
  1
*
  1
*
 70
     0
  1
*
  1
*
  0
XRECORD
  5
5BD
102
{ACAD_REACTORS
330
395
102
}
330
395
100
AcDbXrecord
280
     1
  1
法規チェック－区画
  1
*92
  1
*
  1
*
 70
     0
  1
*
  1
*
  0
XRECORD
  5
5BE
102
{ACAD_REACTORS
330
395
102
}
330
395
100
AcDbXrecord
280
     1
  1
法規チェック－範囲
  1
*0
  1
*
  1
*
 70
     0
  1
*
  1
*
  0
XRECORD
  5
5BF
102
{ACAD_REACTORS
330
395
102
}
330
395
100
AcDbXrecord
280
     1
  1
鳳文字入力
  1
*
  1
*
  1
*
 70
     0
  1
*
  1
*
  0
XRECORD
  5
5C0
102
{ACAD_REACTORS
330
395
102
}
330
395
100
AcDbXrecord
280
     1
  1
防災
  1
B*
  1
*
  1
*
 70
   768
  1
*
  1
*
  0
XRECORD
  5
5C1
102
{ACAD_REACTORS
330
395
102
}
330
395
100
AcDbXrecord
280
     1
  1
名称
  1
*名称
  1
*
  1
*
 70
     0
  1
*
  1
*
  0
XRECORD
  5
5C2
102
{ACAD_REACTORS
330
395
102
}
330
395
100
AcDbXrecord
280
     1
  1
面積
  1
*面積
  1
*
  1
*
 70
     0
  1
*
  1
*
  0
XRECORD
  5
5C3
102
{ACAD_REACTORS
330
395
102
}
330
395
100
AcDbXrecord
280
     1
  1
立面図
  1
*HOJO2
  1
*
  1
*
 70
     0
  1
*
  1
*
  0
XRECORD
  5
5C4
102
{ACAD_REACTORS
330
395
102
}
330
395
100
AcDbXrecord
280
     1
  1
梁
  1
0,08*,17*,梁*
  1
*
  1
*
 70
     0
  1
*
  1
*
  0
XRECORD
  5
5C5
102
{ACAD_REACTORS
330
395
102
}
330
395
100
AcDbXrecord
280
     1
  1
緑
  1
*
  1
Green
  1
*
 70
     0
  1
*
  1
*
  0
ENDSEC
  0
EOF
