  0
SECTION
  2
HEADER
  9
$ACADVER
  1
AC1009
  9
$INSBASE
 10
0.0
 20
0.0
 30
0.0
  9
$EXTMIN
 10
58.102950858539309
 20
41.615910668546803
 30
-0.00000001
  9
$EXTMAX
 10
225.11402268337241
 20
149.9846773887179
 30
0.00000001
  9
$LIMMIN
 10
0.0
 20
0.0
  9
$LIMMAX
 10
10000.0
 20
10000.0
  9
$ORTHOMODE
 70
     1
  9
$REGENMODE
 70
     1
  9
$FILLMODE
 70
     1
  9
$QTEXTMODE
 70
     0
  9
$MIRRTEXT
 70
     1
  9
$DRAGMODE
 70
     2
  9
$LTSCALE
 40
1.0
  9
$OSMODE
 70
    32
  9
$ATTMODE
 70
     1
  9
$TEXTSIZE
 40
2.0
  9
$TRACEWID
 40
1.0
  9
$TEXTSTYLE
  7
AD-STANDARD
  9
$CLAYER
  8
0
  9
$CELTYPE
  6
BYLAYER
  9
$CECOLOR
 62
   256
  9
$DIMSCALE
 40
1.0
  9
$DIMASZ
 40
2.5
  9
$DIMEXO
 40
1.0
  9
$DIMDLI
 40
0.38
  9
$DIMRND
 40
0.0
  9
$DIMDLE
 40
0.0
  9
$DIMEXE
 40
2.0
  9
$DIMTP
 40
0.0
  9
$DIMTM
 40
0.0
  9
$DIMTXT
 40
3.5
  9
$DIMCEN
 40
-2.0
  9
$DIMTSZ
 40
0.0
  9
$DIMTOL
 70
     0
  9
$DIMLIM
 70
     0
  9
$DIMTIH
 70
     0
  9
$DIMTOH
 70
     0
  9
$DIMSE1
 70
     0
  9
$DIMSE2
 70
     0
  9
$DIMTAD
 70
     1
  9
$DIMZIN
 70
     8
  9
$DIMBLK
  1

  9
$DIMASO
 70
     1
  9
$DIMSHO
 70
     1
  9
$DIMPOST
  1

  9
$DIMAPOST
  1

  9
$DIMALT
 70
     0
  9
$DIMALTD
 70
     2
  9
$DIMALTF
 40
25.399999999999999
  9
$DIMLFAC
 40
1.0
  9
$DIMTOFL
 70
     1
  9
$DIMTVP
 40
0.0
  9
$DIMTIX
 70
     0
  9
$DIMSOXD
 70
     0
  9
$DIMSAH
 70
     0
  9
$DIMBLK1
  1

  9
$DIMBLK2
  1

  9
$DIMSTYLE
  2
AD-STANDARD
  9
$DIMCLRD
 70
     9
  9
$DIMCLRE
 70
     9
  9
$DIMCLRT
 70
     2
  9
$DIMTFAC
 40
1.0
  9
$DIMGAP
 40
0.5
  9
$LUNITS
 70
     2
  9
$LUPREC
 70
     4
  9
$SKETCHINC
 40
1.0
  9
$FILLETRAD
 40
0.5
  9
$AUNITS
 70
     0
  9
$AUPREC
 70
     0
  9
$MENU
  1
.
  9
$ELEVATION
 40
0.0
  9
$PELEVATION
 40
0.0
  9
$THICKNESS
 40
0.0
  9
$LIMCHECK
 70
     0
  9
$BLIPMODE
 70
     0
  9
$CHAMFERA
 40
0.0
  9
$CHAMFERB
 40
0.0
  9
$SKPOLY
 70
     0
  9
$TDCREATE
 40
2451428.3861848381
  9
$TDUPDATE
 40
2453973.8355142712
  9
$TDINDWG
 40
2.5109106480999999
  9
$TDUSRTIMER
 40
2.5109106480999999
  9
$USRTIMER
 70
     1
  9
$ANGBASE
 50
0.0
  9
$ANGDIR
 70
     0
  9
$PDMODE
 70
     0
  9
$PDSIZE
 40
0.0
  9
$PLINEWID
 40
0.0
  9
$COORDS
 70
     1
  9
$SPLFRAME
 70
     0
  9
$SPLINETYPE
 70
     6
  9
$SPLINESEGS
 70
     8
  9
$ATTDIA
 70
     0
  9
$ATTREQ
 70
     1
  9
$HANDLING
 70
 10241
  9
$HANDSEED
  5
7A8D
  9
$SURFTAB1
 70
     6
  9
$SURFTAB2
 70
     6
  9
$SURFTYPE
 70
     6
  9
$SURFU
 70
     6
  9
$SURFV
 70
     6
  9
$UCSNAME
  2

  9
$UCSORG
 10
0.0
 20
0.0
 30
0.0
  9
$UCSXDIR
 10
1.0
 20
0.0
 30
0.0
  9
$UCSYDIR
 10
0.0
 20
1.0
 30
0.0
  9
$PUCSNAME
  2

  9
$PUCSORG
 10
0.0
 20
0.0
 30
0.0
  9
$PUCSXDIR
 10
1.0
 20
0.0
 30
0.0
  9
$PUCSYDIR
 10
0.0
 20
1.0
 30
0.0
  9
$USERI1
 70
     0
  9
$USERI2
 70
     0
  9
$USERI3
 70
     0
  9
$USERI4
 70
     0
  9
$USERI5
 70
     0
  9
$USERR1
 40
0.0
  9
$USERR2
 40
0.0
  9
$USERR3
 40
0.0
  9
$USERR4
 40
0.0
  9
$USERR5
 40
0.0
  9
$WORLDVIEW
 70
     1
  9
$SHADEDGE
 70
     3
  9
$SHADEDIF
 70
    70
  9
$TILEMODE
 70
     1
  9
$MAXACTVP
 70
    16
  9
$PLIMCHECK
 70
     0
  9
$PEXTMIN
 10
20.000000000000028
 20
16.99999999999994
 30
0.0
  9
$PEXTMAX
 10
404.99999999999977
 20
281.99999999999989
 30
0.0
  9
$PLIMMIN
 10
-5.789093017578125
 20
-5.8314166069030762
  9
$PLIMMAX
 10
414.19989013671869
 20
291.13690614700312
  9
$UNITMODE
 70
     0
  9
$VISRETAIN
 70
     0
  9
$PLINEGEN
 70
     0
  9
$PSLTSCALE
 70
     0
  0
ENDSEC
  0
SECTION
  2
TABLES
  0
TABLE
  2
VPORT
 70
     6
  0
VPORT
  2
*ACTIVE
 70
     0
 10
0.0
 20
0.0
 11
1.0
 21
1.0
 12
152.14802697695259
 22
103.4660320770427
 13
0.0
 23
0.0
 14
168.0
 24
168.0
 15
0.0
 25
0.0
 16
0.0
 26
0.0
 36
1.0
 17
0.0
 27
0.0
 37
0.0
 40
280.77256790842341
 41
1.6020806241872561
 42
50.0
 43
0.0
 44
0.0
 50
0.0
 51
0.0
 71
     0
 72
   100
 73
     1
 74
     0
 75
     0
 76
     0
 77
     0
 78
     1
  0
ENDTAB
  0
TABLE
  2
LTYPE
 70
     3
  0
LTYPE
  2
CONTINUOUS
 70
     0
  3
Solid line
 72
    65
 73
     0
 40
0.0
  0
LTYPE
  2
HIDDEN
 70
     0
  3
__ __ __ __ __ __ __ __ __ __ __ __ __ __ __ __
 72
    65
 73
     2
 40
0.375
 49
0.25
 49
-0.125
  0
ENDTAB
  0
TABLE
  2
LAYER
 70
     7
  0
LAYER
  2
0
 70
     0
 62
     7
  6
CONTINUOUS
  0
LAYER
  2
DEFPOINTS
 70
     0
 62
     7
  6
CONTINUOUS
  0
LAYER
  2
1
 70
     0
 62
     7
  6
CONTINUOUS
  0
ENDTAB
  0
TABLE
  2
STYLE
 70
     5
  0
STYLE
  2
STANDARD
 70
     0
 40
0.0
 41
0.8
 50
0.0
 71
     0
 42
84.175084175084166
  3
TXT
  4
bigfont.shx
  0
STYLE
  2
AD-STANDARD
 70
     0
 40
0.0
 41
0.8
 50
0.0
 71
     0
 42
2.0
  3
C:\Program Files\AutoCAD LT\romans.shx
  4
bigfont.shx
  0
ENDTAB
  0
TABLE
  2
VIEW
 70
     0
  0
ENDTAB
  0
TABLE
  2
UCS
 70
     0
  0
ENDTAB
  0
TABLE
  2
APPID
 70
     5
  0
APPID
  2
ACAD
 70
     0
  0
APPID
  2
CONTENTTABDATA
 70
     0
  0
APPID
  2
CONTENTCURRENTTAB
 70
     0
  0
APPID
  2
CONTENTBLOCKDESCRIPTION
 70
     0
  0
APPID
  2
CONTENTBLOCKICON
 70
     0
  0
ENDTAB
  0
TABLE
  2
DIMSTYLE
 70
     2
  0
DIMSTYLE
  2
STANDARD
 70
     0
  3

  4

  5

  6

  7

 40
1.0
 41
0.18
 42
0.0625
 43
0.38
 44
0.18
 45
0.0
 46
0.0
 47
0.0
 48
0.0
140
0.18
141
0.09
142
0.0
143
25.399999999999999
144
1.0
145
0.0
146
1.0
147
0.09
 71
     0
 72
     0
 73
     1
 74
     1
 75
     0
 76
     0
 77
     0
 78
     0
170
     0
171
     2
172
     0
173
     0
174
     0
175
     0
176
     0
177
     0
178
     0
  0
DIMSTYLE
  2
AD-STANDARD
 70
     0
  3

  4

  5

  6

  7

 40
1.0
 41
2.5
 42
1.0
 43
0.38
 44
2.0
 45
0.0
 46
0.0
 47
0.0
 48
0.0
140
3.5
141
-2.0
142
0.0
143
25.399999999999999
144
1.0
145
0.0
146
1.0
147
0.5
 71
     0
 72
     0
 73
     0
 74
     0
 75
     0
 76
     0
 77
     1
 78
     8
170
     0
171
     2
172
     1
173
     0
174
     0
175
     0
176
     9
177
     9
178
     2
  0
ENDTAB
  0
ENDSEC
  0
SECTION
  2
BLOCKS
  0
BLOCK
  8
0
  2
$MODEL_SPACE
 70
     0
 10
0.0
 20
0.0
 30
0.0
  3
$MODEL_SPACE
  1

  0
ENDBLK
  5
1C
  8
0
  0
BLOCK
 67
     1
  8
0
  2
$PAPER_SPACE
 70
     0
 10
0.0
 20
0.0
 30
0.0
  3
$PAPER_SPACE
  1

  0
ENDBLK
  5
19
 67
     1
  8
0
  0
BLOCK
  8
0
  2
*U28
 70
     1
 10
0.0
 20
0.0
 30
0.0
  3
*U28
  1

  0
LINE
  5
7950
  8
0
 10
72.5
 20
17.0
 30
0.0
 11
105.7
 21
17.0
 31
0.0
  0
TEXT
  5
7951
  8
0
 10
72.5
 20
17.5
 30
0.0
 40
2.5
  1
 次の寸法は適用範囲外とする｡
 41
0.8
  7
AD-STANDARD
  0
LINE
  5
7952
  8
0
 10
72.5
 20
12.83333333333333
 30
0.0
 11
92.157142857142858
 21
12.83333333333333
 31
0.0
  0
TEXT
  5
7953
  8
0
 10
72.5
 20
13.33333333333333
 30
0.0
 40
2.5
  1
  1.突起部の寸法
 41
0.8
  7
AD-STANDARD
  0
LINE
  5
7954
  8
0
 10
72.5
 20
8.6666666666666679
 30
0.0
 11
106.55714285714279
 21
8.6666666666666679
 31
0.0
  0
TEXT
  5
7955
  8
0
 10
72.5
 20
9.1666666666666679
 30
0.0
 40
2.5
  1
  2.塗装等の表面処理面の寸法
 41
0.8
  7
AD-STANDARD
  0
LINE
  5
7956
  8
0
 10
72.5
 20
4.5
 30
0.0
 11
99.357142857142861
 21
4.5
 31
0.0
  0
TEXT
  5
7957
  8
0
 10
72.5
 20
5.0
 30
0.0
 40
2.5
  1
  3.組立て部の合計寸法
 41
0.8
  7
AD-STANDARD
  0
LINE
  5
7958
  8
0
 10
72.5
 20
0.3333333333333357
 30
0.0
 11
96.957142857142856
 21
0.3333333333333357
 31
0.0
  0
TEXT
  5
7959
  8
0
 10
72.5
 20
0.8333333333333357
 30
0.0
 40
2.5
  1
  4.面取り部分の寸法
 41
0.8
  7
AD-STANDARD
  0
ENDBLK
  5
795B
  8
0
  0
BLOCK
  8
0
  2
*U29
 70
     1
 10
0.0
 20
0.0
 30
0.0
  3
*U29
  1

  0
TEXT
  5
7985
  8
0
 10
158.6398652644728
 20
160.0542895045275
 30
0.0
 40
3.5
  1
Direction of Load
 41
0.8
  7
AD-STANDARD
  0
TEXT
  5
7986
  8
0
 10
158.6398652644728
 20
153.5542895045275
 30
0.0
 40
3.5
  1
(Positive output)
 41
0.8
  7
AD-STANDARD
  0
ENDBLK
  5
7988
  8
0
  0
ENDSEC
  0
SECTION
  2
ENTITIES
  0
POLYLINE
  5
6DD2
  8
1
 10
157.41399872184184
 20
73.415898437783312
 30
0.0
 66
     1
 70
     8
  0
VERTEX
  8
1
  5
7989
 10
157.414
 20
73.4159
 30
0.000000
  70
    32
  0
VERTEX
  8
1
  5
798A
 10
157.415
 20
73.4380
 30
0.000000
  70
    32
  0
VERTEX
  8
1
  5
798B
 10
157.418
 20
73.4601
 30
0.000000
  70
    32
  0
VERTEX
  8
1
  5
798C
 10
157.423
 20
73.4821
 30
0.000000
  70
    32
  0
VERTEX
  8
1
  5
798D
 10
157.429
 20
73.5041
 30
0.000000
  70
    32
  0
VERTEX
  8
1
  5
798E
 10
157.438
 20
73.5261
 30
0.000000
  70
    32
  0
VERTEX
  8
1
  5
798F
 10
157.449
 20
73.5480
 30
0.000000
  70
    32
  0
VERTEX
  8
1
  5
7990
 10
157.461
 20
73.5698
 30
0.000000
  70
    32
  0
VERTEX
  8
1
  5
7991
 10
157.475
 20
73.5915
 30
0.000000
  70
    32
  0
VERTEX
  8
1
  5
7992
 10
157.492
 20
73.6131
 30
0.000000
  70
    32
  0
VERTEX
  8
1
  5
7993
 10
157.510
 20
73.6346
 30
0.000000
  70
    32
  0
VERTEX
  8
1
  5
7994
 10
157.530
 20
73.6559
 30
0.000000
  70
    32
  0
VERTEX
  8
1
  5
7995
 10
157.552
 20
73.6772
 30
0.000000
  70
    32
  0
VERTEX
  8
1
  5
7996
 10
157.576
 20
73.6982
 30
0.000000
  70
    32
  0
VERTEX
  8
1
  5
7997
 10
157.601
 20
73.7191
 30
0.000000
  70
    32
  0
VERTEX
  8
1
  5
7998
 10
157.628
 20
73.7398
 30
0.000000
  70
    32
  0
VERTEX
  8
1
  5
7999
 10
157.658
 20
73.7603
 30
0.000000
  70
    32
  0
VERTEX
  8
1
  5
799A
 10
157.689
 20
73.7806
 30
0.000000
  70
    32
  0
VERTEX
  8
1
  5
799B
 10
157.721
 20
73.8007
 30
0.000000
  70
    32
  0
VERTEX
  8
1
  5
799C
 10
157.756
 20
73.8205
 30
0.000000
  70
    32
  0
VERTEX
  8
1
  5
799D
 10
157.792
 20
73.8402
 30
0.000000
  70
    32
  0
VERTEX
  8
1
  5
799E
 10
157.830
 20
73.8595
 30
0.000000
  70
    32
  0
VERTEX
  8
1
  5
799F
 10
157.869
 20
73.8786
 30
0.000000
  70
    32
  0
VERTEX
  8
1
  5
79A0
 10
157.910
 20
73.8974
 30
0.000000
  70
    32
  0
VERTEX
  8
1
  5
79A1
 10
157.953
 20
73.9159
 30
0.000000
  70
    32
  0
VERTEX
  8
1
  5
79A2
 10
157.998
 20
73.9341
 30
0.000000
  70
    32
  0
VERTEX
  8
1
  5
79A3
 10
158.044
 20
73.9520
 30
0.000000
  70
    32
  0
VERTEX
  8
1
  5
79A4
 10
158.091
 20
73.9696
 30
0.000000
  70
    32
  0
VERTEX
  8
1
  5
79A5
 10
158.140
 20
73.9869
 30
0.000000
  70
    32
  0
VERTEX
  8
1
  5
79A6
 10
158.191
 20
74.0038
 30
0.000000
  70
    32
  0
VERTEX
  8
1
  5
79A7
 10
158.243
 20
74.0203
 30
0.000000
  70
    32
  0
VERTEX
  8
1
  5
79A8
 10
158.296
 20
74.0365
 30
0.000000
  70
    32
  0
VERTEX
  8
1
  5
79A9
 10
158.351
 20
74.0523
 30
0.000000
  70
    32
  0
VERTEX
  8
1
  5
79AA
 10
158.407
 20
74.0677
 30
0.000000
  70
    32
  0
VERTEX
  8
1
  5
79AB
 10
158.465
 20
74.0828
 30
0.000000
  70
    32
  0
VERTEX
  8
1
  5
79AC
 10
158.524
 20
74.0974
 30
0.000000
  70
    32
  0
VERTEX
  8
1
  5
79AD
 10
158.584
 20
74.1116
 30
0.000000
  70
    32
  0
VERTEX
  8
1
  5
79AE
 10
158.645
 20
74.1254
 30
0.000000
  70
    32
  0
VERTEX
  8
1
  5
79AF
 10
158.708
 20
74.1388
 30
0.000000
  70
    32
  0
VERTEX
  8
1
  5
79B0
 10
158.771
 20
74.1517
 30
0.000000
  70
    32
  0
VERTEX
  8
1
  5
79B1
 10
158.836
 20
74.1642
 30
0.000000
  70
    32
  0
VERTEX
  8
1
  5
79B2
 10
158.902
 20
74.1763
 30
0.000000
  70
    32
  0
VERTEX
  8
1
  5
79B3
 10
158.969
 20
74.1879
 30
0.000000
  70
    32
  0
VERTEX
  8
1
  5
79B4
 10
159.037
 20
74.1990
 30
0.000000
  70
    32
  0
VERTEX
  8
1
  5
79B5
 10
159.106
 20
74.2096
 30
0.000000
  70
    32
  0
VERTEX
  8
1
  5
79B6
 10
159.175
 20
74.2198
 30
0.000000
  70
    32
  0
VERTEX
  8
1
  5
79B7
 10
159.246
 20
74.2295
 30
0.000000
  70
    32
  0
VERTEX
  8
1
  5
79B8
 10
159.317
 20
74.2387
 30
0.000000
  70
    32
  0
VERTEX
  8
1
  5
79B9
 10
159.389
 20
74.2474
 30
0.000000
  70
    32
  0
VERTEX
  8
1
  5
79BA
 10
159.462
 20
74.2556
 30
0.000000
  70
    32
  0
VERTEX
  8
1
  5
79BB
 10
159.536
 20
74.2633
 30
0.000000
  70
    32
  0
VERTEX
  8
1
  5
79BC
 10
159.610
 20
74.2705
 30
0.000000
  70
    32
  0
VERTEX
  8
1
  5
79BD
 10
159.685
 20
74.2771
 30
0.000000
  70
    32
  0
VERTEX
  8
1
  5
79BE
 10
159.761
 20
74.2833
 30
0.000000
  70
    32
  0
VERTEX
  8
1
  5
79BF
 10
159.836
 20
74.2889
 30
0.000000
  70
    32
  0
VERTEX
  8
1
  5
79C0
 10
159.913
 20
74.2940
 30
0.000000
  70
    32
  0
VERTEX
  8
1
  5
79C1
 10
159.990
 20
74.2986
 30
0.000000
  70
    32
  0
VERTEX
  8
1
  5
79C2
 10
160.067
 20
74.3026
 30
0.000000
  70
    32
  0
VERTEX
  8
1
  5
79C3
 10
160.144
 20
74.3062
 30
0.000000
  70
    32
  0
VERTEX
  8
1
  5
79C4
 10
160.222
 20
74.3091
 30
0.000000
  70
    32
  0
VERTEX
  8
1
  5
79C5
 10
160.300
 20
74.3116
 30
0.000000
  70
    32
  0
VERTEX
  8
1
  5
79C6
 10
160.379
 20
74.3135
 30
0.000000
  70
    32
  0
VERTEX
  8
1
  5
79C7
 10
160.457
 20
74.3148
 30
0.000000
  70
    32
  0
VERTEX
  8
1
  5
79C8
 10
160.535
 20
74.3156
 30
0.000000
  70
    32
  0
VERTEX
  8
1
  5
79C9
 10
160.614
 20
74.3159
 30
0.000000
  70
    32
  0
VERTEX
  8
1
  5
79CA
 10
160.693
 20
74.3156
 30
0.000000
  70
    32
  0
VERTEX
  8
1
  5
79CB
 10
160.771
 20
74.3148
 30
0.000000
  70
    32
  0
VERTEX
  8
1
  5
79CC
 10
160.849
 20
74.3135
 30
0.000000
  70
    32
  0
VERTEX
  8
1
  5
79CD
 10
160.928
 20
74.3116
 30
0.000000
  70
    32
  0
VERTEX
  8
1
  5
79CE
 10
161.006
 20
74.3091
 30
0.000000
  70
    32
  0
VERTEX
  8
1
  5
79CF
 10
161.084
 20
74.3062
 30
0.000000
  70
    32
  0
VERTEX
  8
1
  5
79D0
 10
161.161
 20
74.3026
 30
0.000000
  70
    32
  0
VERTEX
  8
1
  5
79D1
 10
161.238
 20
74.2986
 30
0.000000
  70
    32
  0
VERTEX
  8
1
  5
79D2
 10
161.315
 20
74.2940
 30
0.000000
  70
    32
  0
VERTEX
  8
1
  5
79D3
 10
161.392
 20
74.2889
 30
0.000000
  70
    32
  0
VERTEX
  8
1
  5
79D4
 10
161.467
 20
74.2833
 30
0.000000
  70
    32
  0
VERTEX
  8
1
  5
79D5
 10
161.543
 20
74.2771
 30
0.000000
  70
    32
  0
VERTEX
  8
1
  5
79D6
 10
161.618
 20
74.2705
 30
0.000000
  70
    32
  0
VERTEX
  8
1
  5
79D7
 10
161.692
 20
74.2633
 30
0.000000
  70
    32
  0
VERTEX
  8
1
  5
79D8
 10
161.766
 20
74.2556
 30
0.000000
  70
    32
  0
VERTEX
  8
1
  5
79D9
 10
161.839
 20
74.2474
 30
0.000000
  70
    32
  0
VERTEX
  8
1
  5
79DA
 10
161.911
 20
74.2387
 30
0.000000
  70
    32
  0
VERTEX
  8
1
  5
79DB
 10
161.982
 20
74.2295
 30
0.000000
  70
    32
  0
VERTEX
  8
1
  5
79DC
 10
162.053
 20
74.2198
 30
0.000000
  70
    32
  0
VERTEX
  8
1
  5
79DD
 10
162.122
 20
74.2096
 30
0.000000
  70
    32
  0
VERTEX
  8
1
  5
79DE
 10
162.191
 20
74.1990
 30
0.000000
  70
    32
  0
VERTEX
  8
1
  5
79DF
 10
162.259
 20
74.1879
 30
0.000000
  70
    32
  0
VERTEX
  8
1
  5
79E0
 10
162.326
 20
74.1763
 30
0.000000
  70
    32
  0
VERTEX
  8
1
  5
79E1
 10
162.392
 20
74.1642
 30
0.000000
  70
    32
  0
VERTEX
  8
1
  5
79E2
 10
162.457
 20
74.1517
 30
0.000000
  70
    32
  0
VERTEX
  8
1
  5
79E3
 10
162.520
 20
74.1388
 30
0.000000
  70
    32
  0
VERTEX
  8
1
  5
79E4
 10
162.583
 20
74.1254
 30
0.000000
  70
    32
  0
VERTEX
  8
1
  5
79E5
 10
162.644
 20
74.1116
 30
0.000000
  70
    32
  0
VERTEX
  8
1
  5
79E6
 10
162.704
 20
74.0974
 30
0.000000
  70
    32
  0
VERTEX
  8
1
  5
79E7
 10
162.763
 20
74.0828
 30
0.000000
  70
    32
  0
VERTEX
  8
1
  5
79E8
 10
162.821
 20
74.0677
 30
0.000000
  70
    32
  0
VERTEX
  8
1
  5
79E9
 10
162.877
 20
74.0523
 30
0.000000
  70
    32
  0
VERTEX
  8
1
  5
79EA
 10
162.932
 20
74.0365
 30
0.000000
  70
    32
  0
VERTEX
  8
1
  5
79EB
 10
162.985
 20
74.0203
 30
0.000000
  70
    32
  0
VERTEX
  8
1
  5
79EC
 10
163.037
 20
74.0038
 30
0.000000
  70
    32
  0
VERTEX
  8
1
  5
79ED
 10
163.088
 20
73.9869
 30
0.000000
  70
    32
  0
VERTEX
  8
1
  5
79EE
 10
163.137
 20
73.9696
 30
0.000000
  70
    32
  0
VERTEX
  8
1
  5
79EF
 10
163.184
 20
73.9520
 30
0.000000
  70
    32
  0
VERTEX
  8
1
  5
79F0
 10
163.230
 20
73.9341
 30
0.000000
  70
    32
  0
VERTEX
  8
1
  5
79F1
 10
163.275
 20
73.9159
 30
0.000000
  70
    32
  0
VERTEX
  8
1
  5
79F2
 10
163.318
 20
73.8974
 30
0.000000
  70
    32
  0
VERTEX
  8
1
  5
79F3
 10
163.359
 20
73.8786
 30
0.000000
  70
    32
  0
VERTEX
  8
1
  5
79F4
 10
163.398
 20
73.8595
 30
0.000000
  70
    32
  0
VERTEX
  8
1
  5
79F5
 10
163.436
 20
73.8402
 30
0.000000
  70
    32
  0
VERTEX
  8
1
  5
79F6
 10
163.472
 20
73.8205
 30
0.000000
  70
    32
  0
VERTEX
  8
1
  5
79F7
 10
163.507
 20
73.8007
 30
0.000000
  70
    32
  0
VERTEX
  8
1
  5
79F8
 10
163.539
 20
73.7806
 30
0.000000
  70
    32
  0
VERTEX
  8
1
  5
79F9
 10
163.570
 20
73.7603
 30
0.000000
  70
    32
  0
VERTEX
  8
1
  5
79FA
 10
163.600
 20
73.7398
 30
0.000000
  70
    32
  0
VERTEX
  8
1
  5
79FB
 10
163.627
 20
73.7191
 30
0.000000
  70
    32
  0
VERTEX
  8
1
  5
79FC
 10
163.652
 20
73.6982
 30
0.000000
  70
    32
  0
VERTEX
  8
1
  5
79FD
 10
163.676
 20
73.6772
 30
0.000000
  70
    32
  0
VERTEX
  8
1
  5
79FE
 10
163.698
 20
73.6559
 30
0.000000
  70
    32
  0
VERTEX
  8
1
  5
79FF
 10
163.718
 20
73.6346
 30
0.000000
  70
    32
  0
VERTEX
  8
1
  5
7A00
 10
163.736
 20
73.6131
 30
0.000000
  70
    32
  0
VERTEX
  8
1
  5
7A01
 10
163.753
 20
73.5915
 30
0.000000
  70
    32
  0
VERTEX
  8
1
  5
7A02
 10
163.767
 20
73.5698
 30
0.000000
  70
    32
  0
VERTEX
  8
1
  5
7A03
 10
163.779
 20
73.5480
 30
0.000000
  70
    32
  0
VERTEX
  8
1
  5
7A04
 10
163.790
 20
73.5261
 30
0.000000
  70
    32
  0
VERTEX
  8
1
  5
7A05
 10
163.799
 20
73.5041
 30
0.000000
  70
    32
  0
VERTEX
  8
1
  5
7A06
 10
163.805
 20
73.4821
 30
0.000000
  70
    32
  0
VERTEX
  8
1
  5
7A07
 10
163.810
 20
73.4601
 30
0.000000
  70
    32
  0
VERTEX
  8
1
  5
7A08
 10
163.813
 20
73.4380
 30
0.000000
  70
    32
  0
VERTEX
  8
1
  5
7A09
 10
163.814
 20
73.4159
 30
0.000000
  70
    32
  0
SEQEND
  8
1
  5
7A0A
  0
POLYLINE
  5
6DD3
  8
1
 10
157.41399872184184
 20
43.815909822393898
 30
0.0
 66
     1
 70
     8
  0
VERTEX
  8
1
  5
7A0B
 10
157.414
 20
43.8159
 30
0.000000
  70
    32
  0
VERTEX
  8
1
  5
7A0C
 10
157.415
 20
43.7938
 30
0.000000
  70
    32
  0
VERTEX
  8
1
  5
7A0D
 10
157.418
 20
43.7717
 30
0.000000
  70
    32
  0
VERTEX
  8
1
  5
7A0E
 10
157.423
 20
43.7497
 30
0.000000
  70
    32
  0
VERTEX
  8
1
  5
7A0F
 10
157.429
 20
43.7277
 30
0.000000
  70
    32
  0
VERTEX
  8
1
  5
7A10
 10
157.438
 20
43.7057
 30
0.000000
  70
    32
  0
VERTEX
  8
1
  5
7A11
 10
157.449
 20
43.6839
 30
0.000000
  70
    32
  0
VERTEX
  8
1
  5
7A12
 10
157.461
 20
43.6620
 30
0.000000
  70
    32
  0
VERTEX
  8
1
  5
7A13
 10
157.475
 20
43.6403
 30
0.000000
  70
    32
  0
VERTEX
  8
1
  5
7A14
 10
157.492
 20
43.6187
 30
0.000000
  70
    32
  0
VERTEX
  8
1
  5
7A15
 10
157.510
 20
43.5972
 30
0.000000
  70
    32
  0
VERTEX
  8
1
  5
7A16
 10
157.530
 20
43.5759
 30
0.000000
  70
    32
  0
VERTEX
  8
1
  5
7A17
 10
157.552
 20
43.5547
 30
0.000000
  70
    32
  0
VERTEX
  8
1
  5
7A18
 10
157.576
 20
43.5336
 30
0.000000
  70
    32
  0
VERTEX
  8
1
  5
7A19
 10
157.601
 20
43.5127
 30
0.000000
  70
    32
  0
VERTEX
  8
1
  5
7A1A
 10
157.628
 20
43.4920
 30
0.000000
  70
    32
  0
VERTEX
  8
1
  5
7A1B
 10
157.658
 20
43.4715
 30
0.000000
  70
    32
  0
VERTEX
  8
1
  5
7A1C
 10
157.689
 20
43.4512
 30
0.000000
  70
    32
  0
VERTEX
  8
1
  5
7A1D
 10
157.721
 20
43.4311
 30
0.000000
  70
    32
  0
VERTEX
  8
1
  5
7A1E
 10
157.756
 20
43.4113
 30
0.000000
  70
    32
  0
VERTEX
  8
1
  5
7A1F
 10
157.792
 20
43.3917
 30
0.000000
  70
    32
  0
VERTEX
  8
1
  5
7A20
 10
157.830
 20
43.3723
 30
0.000000
  70
    32
  0
VERTEX
  8
1
  5
7A21
 10
157.869
 20
43.3532
 30
0.000000
  70
    32
  0
VERTEX
  8
1
  5
7A22
 10
157.910
 20
43.3344
 30
0.000000
  70
    32
  0
VERTEX
  8
1
  5
7A23
 10
157.953
 20
43.3159
 30
0.000000
  70
    32
  0
VERTEX
  8
1
  5
7A24
 10
157.998
 20
43.2977
 30
0.000000
  70
    32
  0
VERTEX
  8
1
  5
7A25
 10
158.044
 20
43.2798
 30
0.000000
  70
    32
  0
VERTEX
  8
1
  5
7A26
 10
158.091
 20
43.2622
 30
0.000000
  70
    32
  0
VERTEX
  8
1
  5
7A27
 10
158.140
 20
43.2450
 30
0.000000
  70
    32
  0
VERTEX
  8
1
  5
7A28
 10
158.191
 20
43.2281
 30
0.000000
  70
    32
  0
VERTEX
  8
1
  5
7A29
 10
158.243
 20
43.2115
 30
0.000000
  70
    32
  0
VERTEX
  8
1
  5
7A2A
 10
158.296
 20
43.1953
 30
0.000000
  70
    32
  0
VERTEX
  8
1
  5
7A2B
 10
158.351
 20
43.1795
 30
0.000000
  70
    32
  0
VERTEX
  8
1
  5
7A2C
 10
158.407
 20
43.1641
 30
0.000000
  70
    32
  0
VERTEX
  8
1
  5
7A2D
 10
158.465
 20
43.1491
 30
0.000000
  70
    32
  0
VERTEX
  8
1
  5
7A2E
 10
158.524
 20
43.1344
 30
0.000000
  70
    32
  0
VERTEX
  8
1
  5
7A2F
 10
158.584
 20
43.1202
 30
0.000000
  70
    32
  0
VERTEX
  8
1
  5
7A30
 10
158.645
 20
43.1064
 30
0.000000
  70
    32
  0
VERTEX
  8
1
  5
7A31
 10
158.708
 20
43.0930
 30
0.000000
  70
    32
  0
VERTEX
  8
1
  5
7A32
 10
158.771
 20
43.0801
 30
0.000000
  70
    32
  0
VERTEX
  8
1
  5
7A33
 10
158.836
 20
43.0676
 30
0.000000
  70
    32
  0
VERTEX
  8
1
  5
7A34
 10
158.902
 20
43.0555
 30
0.000000
  70
    32
  0
VERTEX
  8
1
  5
7A35
 10
158.969
 20
43.0440
 30
0.000000
  70
    32
  0
VERTEX
  8
1
  5
7A36
 10
159.037
 20
43.0328
 30
0.000000
  70
    32
  0
VERTEX
  8
1
  5
7A37
 10
159.106
 20
43.0222
 30
0.000000
  70
    32
  0
VERTEX
  8
1
  5
7A38
 10
159.175
 20
43.0120
 30
0.000000
  70
    32
  0
VERTEX
  8
1
  5
7A39
 10
159.246
 20
43.0023
 30
0.000000
  70
    32
  0
VERTEX
  8
1
  5
7A3A
 10
159.317
 20
42.9931
 30
0.000000
  70
    32
  0
VERTEX
  8
1
  5
7A3B
 10
159.389
 20
42.9844
 30
0.000000
  70
    32
  0
VERTEX
  8
1
  5
7A3C
 10
159.462
 20
42.9762
 30
0.000000
  70
    32
  0
VERTEX
  8
1
  5
7A3D
 10
159.536
 20
42.9685
 30
0.000000
  70
    32
  0
VERTEX
  8
1
  5
7A3E
 10
159.610
 20
42.9613
 30
0.000000
  70
    32
  0
VERTEX
  8
1
  5
7A3F
 10
159.685
 20
42.9547
 30
0.000000
  70
    32
  0
VERTEX
  8
1
  5
7A40
 10
159.761
 20
42.9485
 30
0.000000
  70
    32
  0
VERTEX
  8
1
  5
7A41
 10
159.836
 20
42.9429
 30
0.000000
  70
    32
  0
VERTEX
  8
1
  5
7A42
 10
159.913
 20
42.9378
 30
0.000000
  70
    32
  0
VERTEX
  8
1
  5
7A43
 10
159.990
 20
42.9332
 30
0.000000
  70
    32
  0
VERTEX
  8
1
  5
7A44
 10
160.067
 20
42.9292
 30
0.000000
  70
    32
  0
VERTEX
  8
1
  5
7A45
 10
160.144
 20
42.9257
 30
0.000000
  70
    32
  0
VERTEX
  8
1
  5
7A46
 10
160.222
 20
42.9227
 30
0.000000
  70
    32
  0
VERTEX
  8
1
  5
7A47
 10
160.300
 20
42.9202
 30
0.000000
  70
    32
  0
VERTEX
  8
1
  5
7A48
 10
160.379
 20
42.9183
 30
0.000000
  70
    32
  0
VERTEX
  8
1
  5
7A49
 10
160.457
 20
42.9170
 30
0.000000
  70
    32
  0
VERTEX
  8
1
  5
7A4A
 10
160.535
 20
42.9162
 30
0.000000
  70
    32
  0
VERTEX
  8
1
  5
7A4B
 10
160.614
 20
42.9159
 30
0.000000
  70
    32
  0
VERTEX
  8
1
  5
7A4C
 10
160.693
 20
42.9162
 30
0.000000
  70
    32
  0
VERTEX
  8
1
  5
7A4D
 10
160.771
 20
42.9170
 30
0.000000
  70
    32
  0
VERTEX
  8
1
  5
7A4E
 10
160.849
 20
42.9183
 30
0.000000
  70
    32
  0
VERTEX
  8
1
  5
7A4F
 10
160.928
 20
42.9202
 30
0.000000
  70
    32
  0
VERTEX
  8
1
  5
7A50
 10
161.006
 20
42.9227
 30
0.000000
  70
    32
  0
VERTEX
  8
1
  5
7A51
 10
161.084
 20
42.9257
 30
0.000000
  70
    32
  0
VERTEX
  8
1
  5
7A52
 10
161.161
 20
42.9292
 30
0.000000
  70
    32
  0
VERTEX
  8
1
  5
7A53
 10
161.238
 20
42.9332
 30
0.000000
  70
    32
  0
VERTEX
  8
1
  5
7A54
 10
161.315
 20
42.9378
 30
0.000000
  70
    32
  0
VERTEX
  8
1
  5
7A55
 10
161.392
 20
42.9429
 30
0.000000
  70
    32
  0
VERTEX
  8
1
  5
7A56
 10
161.467
 20
42.9485
 30
0.000000
  70
    32
  0
VERTEX
  8
1
  5
7A57
 10
161.543
 20
42.9547
 30
0.000000
  70
    32
  0
VERTEX
  8
1
  5
7A58
 10
161.618
 20
42.9613
 30
0.000000
  70
    32
  0
VERTEX
  8
1
  5
7A59
 10
161.692
 20
42.9685
 30
0.000000
  70
    32
  0
VERTEX
  8
1
  5
7A5A
 10
161.766
 20
42.9762
 30
0.000000
  70
    32
  0
VERTEX
  8
1
  5
7A5B
 10
161.839
 20
42.9844
 30
0.000000
  70
    32
  0
VERTEX
  8
1
  5
7A5C
 10
161.911
 20
42.9931
 30
0.000000
  70
    32
  0
VERTEX
  8
1
  5
7A5D
 10
161.982
 20
43.0023
 30
0.000000
  70
    32
  0
VERTEX
  8
1
  5
7A5E
 10
162.053
 20
43.0120
 30
0.000000
  70
    32
  0
VERTEX
  8
1
  5
7A5F
 10
162.122
 20
43.0222
 30
0.000000
  70
    32
  0
VERTEX
  8
1
  5
7A60
 10
162.191
 20
43.0328
 30
0.000000
  70
    32
  0
VERTEX
  8
1
  5
7A61
 10
162.259
 20
43.0440
 30
0.000000
  70
    32
  0
VERTEX
  8
1
  5
7A62
 10
162.326
 20
43.0555
 30
0.000000
  70
    32
  0
VERTEX
  8
1
  5
7A63
 10
162.392
 20
43.0676
 30
0.000000
  70
    32
  0
VERTEX
  8
1
  5
7A64
 10
162.457
 20
43.0801
 30
0.000000
  70
    32
  0
VERTEX
  8
1
  5
7A65
 10
162.520
 20
43.0930
 30
0.000000
  70
    32
  0
VERTEX
  8
1
  5
7A66
 10
162.583
 20
43.1064
 30
0.000000
  70
    32
  0
VERTEX
  8
1
  5
7A67
 10
162.644
 20
43.1202
 30
0.000000
  70
    32
  0
VERTEX
  8
1
  5
7A68
 10
162.704
 20
43.1344
 30
0.000000
  70
    32
  0
VERTEX
  8
1
  5
7A69
 10
162.763
 20
43.1491
 30
0.000000
  70
    32
  0
VERTEX
  8
1
  5
7A6A
 10
162.821
 20
43.1641
 30
0.000000
  70
    32
  0
VERTEX
  8
1
  5
7A6B
 10
162.877
 20
43.1795
 30
0.000000
  70
    32
  0
VERTEX
  8
1
  5
7A6C
 10
162.932
 20
43.1953
 30
0.000000
  70
    32
  0
VERTEX
  8
1
  5
7A6D
 10
162.985
 20
43.2115
 30
0.000000
  70
    32
  0
VERTEX
  8
1
  5
7A6E
 10
163.037
 20
43.2281
 30
0.000000
  70
    32
  0
VERTEX
  8
1
  5
7A6F
 10
163.088
 20
43.2450
 30
0.000000
  70
    32
  0
VERTEX
  8
1
  5
7A70
 10
163.137
 20
43.2622
 30
0.000000
  70
    32
  0
VERTEX
  8
1
  5
7A71
 10
163.184
 20
43.2798
 30
0.000000
  70
    32
  0
VERTEX
  8
1
  5
7A72
 10
163.230
 20
43.2977
 30
0.000000
  70
    32
  0
VERTEX
  8
1
  5
7A73
 10
163.275
 20
43.3159
 30
0.000000
  70
    32
  0
VERTEX
  8
1
  5
7A74
 10
163.318
 20
43.3344
 30
0.000000
  70
    32
  0
VERTEX
  8
1
  5
7A75
 10
163.359
 20
43.3532
 30
0.000000
  70
    32
  0
VERTEX
  8
1
  5
7A76
 10
163.398
 20
43.3723
 30
0.000000
  70
    32
  0
VERTEX
  8
1
  5
7A77
 10
163.436
 20
43.3917
 30
0.000000
  70
    32
  0
VERTEX
  8
1
  5
7A78
 10
163.472
 20
43.4113
 30
0.000000
  70
    32
  0
VERTEX
  8
1
  5
7A79
 10
163.507
 20
43.4311
 30
0.000000
  70
    32
  0
VERTEX
  8
1
  5
7A7A
 10
163.539
 20
43.4512
 30
0.000000
  70
    32
  0
VERTEX
  8
1
  5
7A7B
 10
163.570
 20
43.4715
 30
0.000000
  70
    32
  0
VERTEX
  8
1
  5
7A7C
 10
163.600
 20
43.4920
 30
0.000000
  70
    32
  0
VERTEX
  8
1
  5
7A7D
 10
163.627
 20
43.5127
 30
0.000000
  70
    32
  0
VERTEX
  8
1
  5
7A7E
 10
163.652
 20
43.5336
 30
0.000000
  70
    32
  0
VERTEX
  8
1
  5
7A7F
 10
163.676
 20
43.5547
 30
0.000000
  70
    32
  0
VERTEX
  8
1
  5
7A80
 10
163.698
 20
43.5759
 30
0.000000
  70
    32
  0
VERTEX
  8
1
  5
7A81
 10
163.718
 20
43.5972
 30
0.000000
  70
    32
  0
VERTEX
  8
1
  5
7A82
 10
163.736
 20
43.6187
 30
0.000000
  70
    32
  0
VERTEX
  8
1
  5
7A83
 10
163.753
 20
43.6403
 30
0.000000
  70
    32
  0
VERTEX
  8
1
  5
7A84
 10
163.767
 20
43.6620
 30
0.000000
  70
    32
  0
VERTEX
  8
1
  5
7A85
 10
163.779
 20
43.6839
 30
0.000000
  70
    32
  0
VERTEX
  8
1
  5
7A86
 10
163.790
 20
43.7057
 30
0.000000
  70
    32
  0
VERTEX
  8
1
  5
7A87
 10
163.799
 20
43.7277
 30
0.000000
  70
    32
  0
VERTEX
  8
1
  5
7A88
 10
163.805
 20
43.7497
 30
0.000000
  70
    32
  0
VERTEX
  8
1
  5
7A89
 10
163.810
 20
43.7717
 30
0.000000
  70
    32
  0
VERTEX
  8
1
  5
7A8A
 10
163.813
 20
43.7938
 30
0.000000
  70
    32
  0
VERTEX
  8
1
  5
7A8B
 10
163.814
 20
43.8159
 30
0.000000
  70
    32
  0
SEQEND
  8
1
  5
7A8C
  0
LINE
  5
6DD8
  8
1
 10
156.61399902953301
 20
73.415898437783355
 30
0.0
 11
194.1139846064618
 21
73.415898437783355
 31
0.0
  0
LINE
  5
6DD9
  8
1
 10
194.1139846064618
 20
43.815909822392662
 30
0.0
 11
156.61399902953301
 21
43.815909822392662
 31
0.0
  0
LINE
  5
6DDA
  8
1
 10
192.6139851833845
 20
57.815904437780262
 30
0.0
 11
171.1139934526127
 21
57.815904437780262
 31
0.0
  0
LINE
  5
6DDB
  8
1
 10
192.6139851833845
 20
59.415903822397127
 30
0.0
 11
171.1139934526127
 21
59.415903822397127
 31
0.0
  0
ARC
  5
6DDC
  8
1
 10
155.91399929876431
 20
73.415898437782005
 30
0.0
 40
0.7999996923078107
 50
179.9999999999479
 51
270.0
  0
LINE
  5
6DDD
  8
1
 10
155.11399960645591
 20
73.415898437784733
 30
0.0
 11
155.11399960645591
 21
73.615898360860115
 31
0.0
  0
LINE
  5
6DDE
  8
1
 10
155.91399929876431
 20
72.615898745474908
 30
0.0
 11
156.61399902953301
 21
72.615898745474908
 31
0.0
  0
LINE
  5
6DDF
  8
1
 10
95.114022683371545
 20
73.61589836085875
 30
0.0
 11
155.11399960645591
 21
73.615898360860115
 31
0.0
  0
LINE
  5
6DE1
  8
1
 10
171.1139934526127
 20
59.415903822397127
 30
0.0
 11
171.1139934526127
 21
57.815904437780262
 31
0.0
  0
LINE
  5
6DE4
  8
1
 10
153.11400037568811
 20
41.615910668548167
 30
0.0
 11
156.11399922184521
 21
44.615909514701109
 31
0.0
  0
LINE
  5
6DE5
  8
1
 10
156.61399902953301
 20
57.815904437780262
 30
0.0
 11
156.61399902953301
 21
43.815909822392662
 31
0.0
  0
LINE
  5
6DE7
  8
1
 10
171.1139934526127
 20
57.815904437780262
 30
0.0
 11
156.61399902953301
 21
57.815904437780262
 31
0.0
  0
LINE
  5
6DE8
  8
1
 10
156.11399922184521
 20
44.615909514701109
 30
0.0
 11
156.61399902953301
 21
44.615909514701109
 31
0.0
  0
LINE
  5
6DE9
  8
1
 10
95.114022683371545
 20
41.615910668546803
 30
0.0
 11
153.11400037568811
 21
41.615910668546803
 31
0.0
  0
LINE
  5
6DEA
  8
1
 10
156.61399902953301
 20
73.415898437783355
 30
0.0
 11
156.61399902953301
 21
49.61590759162447
 31
0.0
  0
LINE
  5
6DEB
  8
1
 10
95.114022683371545
 20
41.615910668546803
 30
0.0
 11
95.114022683371545
 21
73.61589836085875
 31
0.0
  0
CIRCLE
  5
6DEC
  8
1
 10
123.61401172183869
 20
58.615904130088659
 30
0.0
 40
13.4999948076943
  0
LINE
  5
6E0E
  8
1
 10
225.1139726833926
 20
43.615909899315852
 30
0.0
 11
225.11397268339121
 21
73.615898360860115
 31
0.0
  0
ARC
  5
6E15
  8
1
 10
194.3139845295386
 20
46.815908668546911
 30
0.0
 40
0.7999996923078107
 50
0.0
 51
90.0
  0
LINE
  5
6E16
  8
1
 10
195.11398422184689
 20
46.815908668546911
 30
0.0
 11
195.11398422184689
 21
43.615909899315852
 31
0.0
  0
LINE
  5
6E17
  8
1
 10
194.1139846064618
 20
56.315905014703098
 30
0.0
 11
194.1139846064618
 21
43.815909822392662
 31
0.0
  0
LINE
  5
6E18
  8
1
 10
194.1139846064618
 20
47.615908360855371
 30
0.0
 11
194.3139845295386
 21
47.615908360855371
 31
0.0
  0
ARC
  5
6E19
  8
1
 10
194.3139845295386
 20
70.415899591627692
 30
0.0
 40
0.7999996923078107
 50
270.0
 51
0.0
  0
LINE
  5
6E1A
  8
1
 10
194.1139846064618
 20
69.615899899320652
 30
0.0
 11
194.3139845295386
 21
69.615899899320652
 31
0.0
  0
ARC
  5
6E1B
  8
1
 10
192.6139851833845
 20
60.915903245474283
 30
0.0
 40
1.4999994230771441
 50
270.0
 51
0.0
  0
ARC
  5
6E1C
  8
1
 10
192.6139851833845
 20
56.315905014703098
 30
0.0
 40
1.4999994230771441
 50
0.0
 51
90.0
  0
LINE
  5
6E1D
  8
1
 10
195.11398422184689
 20
70.415899591627692
 30
0.0
 11
195.11398422184689
 21
73.615898360860115
 31
0.0
  0
LINE
  5
6E1E
  8
1
 10
194.1139846064618
 20
73.415898437783355
 30
0.0
 11
194.1139846064618
 21
60.915903245474283
 31
0.0
  0
LINE
  5
6E1F
  8
1
 10
195.11398422184689
 20
43.615909899315852
 30
0.0
 11
225.11397268339121
 21
43.615909899315852
 31
0.0
  0
LINE
  5
6E20
  8
1
 10
195.11398422184689
 20
73.615898360860115
 30
0.0
 11
225.11397268339121
 21
73.615898360860115
 31
0.0
  0
LINE
  5
6E22
  8
1
 10
87.114022683371104
 20
56.615910668545887
 30
0.0
 11
58.102950858539309
 21
56.615910668545887
 31
0.0
  0
LINE
  5
6E23
  8
1
 10
87.114022683371104
 20
60.615910668545887
 30
0.0
 11
58.102950858539309
 21
60.615910668545887
 31
0.0
  0
ARC
  5
6E24
  8
1
 10
92.114022683370194
 20
55.615910668545951
 30
0.0
 40
4.9999999999991243
 50
143.13010235414859
 51
216.86989764585229
  0
LINE
  5
6E25
  8
1
 10
87.114022683371104
 20
52.615910668545887
 30
0.0
 11
93.114022683371559
 21
52.615910668545887
 31
0.0
  0
ARC
  5
6E26
  8
1
 10
92.114022683370194
 20
61.61591066854583
 30
0.0
 40
4.9999999999991243
 50
143.1301023541476
 51
216.8698976458513
  0
LINE
  5
6E27
  8
1
 10
88.114022683371331
 20
58.615910668545858
 30
0.0
 11
93.114022683371559
 21
58.615910668545901
 31
0.0
  0
LINE
  5
6E28
  8
1
 10
87.114022683371104
 20
64.615910668545894
 30
0.0
 11
93.114022683371559
 21
64.615910668545894
 31
0.0
  0
LINE
  5
6E29
  8
1
 10
93.114022683371559
 20
64.615910668545894
 30
0.0
 11
93.114022683371559
 21
52.615910668545887
 31
0.0
  0
LINE
  5
6E2A
  8
1
 10
95.114022683371545
 20
62.615910668545887
 30
0.0
 11
93.114022683371559
 21
62.615910668545887
 31
0.0
  0
LINE
  5
6E2B
  8
1
 10
95.114022683371545
 20
54.615910668545887
 30
0.0
 11
93.114022683371559
 21
54.615910668545887
 31
0.0
  0
LINE
  5
6E2C
  8
1
 10
87.114022683371104
 20
64.615910668545894
 30
0.0
 11
87.114022683371331
 21
52.615910668545887
 31
0.0
  0
LINE
  5
6E33
  8
1
 10
95.114022683371545
 20
116.1846773887183
 30
0.0
 11
156.61399960645591
 21
116.1846773887183
 31
0.0
  0
LINE
  5
6E34
  8
1
 10
95.114022683371545
 20
148.18467738871831
 30
0.0
 11
156.61399960645591
 21
148.18467738871831
 31
0.0
  0
LINE
  5
6E35
  8
1
 10
87.114022683371331
 20
123.1846773887183
 30
0.0
 11
58.10295085853955
 21
123.1846773887183
 31
0.0
  0
LINE
  5
6E36
  8
1
 10
87.114022683371331
 20
119.1846773887183
 30
0.0
 11
58.10295085853955
 21
119.1846773887183
 31
0.0
  0
ARC
  5
6E42
  8
1
 10
89.114022683371786
 20
115.9885249660117
 30
0.0
 40
2.000000000000425
 50
120.0000000000021
 51
179.99999999999829
  0
LINE
  5
6E43
  8
1
 10
87.114022683371331
 20
115.98852496601179
 30
0.0
 11
88.114022683371559
 21
114.2564741584425
 31
0.0
  0
ARC
  5
6E44
  8
1
 10
89.114022683371786
 20
126.3808298114249
 30
0.0
 40
2.000000000000425
 50
180.00000000000159
 51
239.9999999999979
  0
ARC
  5
6E45
  8
1
 10
93.614022683369967
 20
121.1846773887183
 30
0.0
 40
6.4999999999985816
 50
147.7957724960215
 51
212.2042275039789
  0
LINE
  5
6E46
  8
1
 10
87.114022683371331
 20
126.3808298114248
 30
0.0
 11
88.114022683371559
 21
128.1128806189941
 31
0.0
  0
LINE
  5
6E47
  8
1
 10
95.114022683371545
 20
117.1846773887183
 30
0.0
 11
93.114022683371559
 21
117.1846773887183
 31
0.0
  0
LINE
  5
6E48
  8
1
 10
95.114022683371545
 20
125.1846773887183
 30
0.0
 11
93.114022683371559
 21
125.1846773887183
 31
0.0
  0
LINE
  5
6E49
  8
1
 10
88.114022683371559
 20
114.2564741584427
 30
0.0
 11
93.114022683371559
 21
114.2564741584428
 31
0.0
  0
LINE
  5
6E4A
  8
1
 10
88.114022683371104
 20
117.72057577358061
 30
0.0
 11
93.114022683371559
 21
117.72057577358061
 31
0.0
  0
LINE
  5
6E4B
  8
1
 10
88.114022683371559
 20
124.64877900385591
 30
0.0
 11
93.114022683371331
 21
124.64877900385601
 31
0.0
  0
LINE
  5
6E4C
  8
1
 10
88.114022683371559
 20
128.1128806189941
 30
0.0
 11
93.114022683371331
 21
128.1128806189939
 31
0.0
  0
LINE
  5
6E4D
  8
1
 10
93.114022683371559
 20
128.1128806189939
 30
0.0
 11
93.114022683371559
 21
114.2564741584427
 31
0.0
  0
LINE
  5
6E4E
  8
1
 10
87.114022683371331
 20
126.3808298114248
 30
0.0
 11
87.114022683371331
 21
115.9885249660115
 31
0.0
  0
CIRCLE
  5
6E4F
  8
1
 10
136.1140226833715
 20
132.18467738871831
 30
0.0
 40
7.0
  0
CIRCLE
  5
6E50
  8
1
 10
111.1140226833715
 20
132.18467738871831
 30
0.0
 40
7.0
  0
LINE
  5
6E51
  8
1
 10
95.114022683371545
 20
116.1846773887174
 30
0.0
 11
95.114022683371545
 21
148.18467738871831
 31
0.0
  0
CIRCLE
  5
6E59
  8
1
 62
     9
 10
212.1140226833715
 20
132.18467738871831
 30
0.0
 40
6.0
  0
CIRCLE
  5
6E5A
  8
1
 10
212.1140226833715
 20
132.18467738871831
 30
0.0
 40
5.0
  0
LINE
  5
6E5B
  8
1
 10
225.1140226833715
 20
116.1846773887183
 30
0.0
 11
225.11402268337241
 21
148.18467738871831
 31
0.0
  0
CIRCLE
  5
6E5C
  8
1
 10
212.1140226833715
 20
132.18467738871831
 30
0.0
 40
10.5
  0
LINE
  5
6EE0
  8
1
  6
HIDDEN
 62
     9
 10
206.1140226833715
 20
58.615910668546803
 30
0.0
 11
206.1140226833715
 21
43.615910668545887
 31
0.0
  0
LINE
  5
6EE1
  8
1
  6
HIDDEN
 10
207.11402268337059
 20
57.615910668548622
 30
0.0
 11
207.11402268337241
 21
44.615910668543172
 31
0.0
  0
LINE
  5
6EE2
  8
1
  6
HIDDEN
 10
217.1140226833715
 20
57.615910668547713
 30
0.0
 11
217.1140226833715
 21
44.615910668544068
 31
0.0
  0
LINE
  5
6EE3
  8
1
  6
HIDDEN
 62
     9
 10
218.1140226833715
 20
58.615910668546803
 30
0.0
 11
218.11402268337241
 21
43.615910668545887
 31
0.0
  0
LINE
  5
6EE4
  8
1
  6
HIDDEN
 10
206.1140226833715
 20
58.615910668546803
 30
0.0
 11
207.11402268336971
 21
57.615910668549532
 31
0.0
  0
LINE
  5
6EE5
  8
1
  6
HIDDEN
 10
218.1140226833715
 20
58.615910668546803
 30
0.0
 11
217.11402268337329
 21
57.615910668549532
 31
0.0
  0
LINE
  5
6EE6
  8
1
  6
HIDDEN
 10
207.11402268337059
 20
57.615910668548622
 30
0.0
 11
217.1140226833715
 21
57.615910668547713
 31
0.0
  0
LINE
  5
6EE7
  8
1
  6
HIDDEN
 10
207.11402268337059
 20
44.615910668543172
 30
0.0
 11
217.1140226833715
 21
44.615910668544068
 31
0.0
  0
LINE
  5
6EE8
  8
1
  6
HIDDEN
 10
218.1140226833715
 20
43.615910668544977
 30
0.0
 11
217.11402268337329
 21
44.615910668542249
 31
0.0
  0
LINE
  5
6EE9
  8
1
  6
HIDDEN
 10
206.1140226833715
 20
43.615910668544977
 30
0.0
 11
207.11402268336971
 21
44.615910668542249
 31
0.0
  0
LINE
  5
6EEA
  8
1
  6
HIDDEN
 10
222.61402268336971
 20
58.615910668545901
 30
0.0
 11
222.61402268337059
 21
73.615910668547713
 31
0.0
  0
LINE
  5
6EEB
  8
1
  6
HIDDEN
 10
201.61402268337059
 20
58.615910668545901
 30
0.0
 11
201.61402268337059
 21
73.615910668546803
 31
0.0
  0
LINE
  5
6EEC
  8
1
  6
HIDDEN
 10
201.61402268337059
 20
58.615910668545901
 30
0.0
 11
222.61402268337059
 21
58.615910668545901
 31
0.0
  0
LINE
  5
6F47
  8
1
 10
155.11399960645591
 20
116.1846773887183
 30
0.0
 11
155.11399960645591
 21
148.18467738871831
 31
0.0
  0
LINE
  5
6F48
  8
1
 10
195.11398422184689
 20
116.1846773887183
 30
0.0
 11
195.11398422184689
 21
148.18467738871831
 31
0.0
  0
LINE
  5
6FCA
  8
1
 10
194.11399960645591
 20
149.9846773887179
 30
0.0
 11
194.11399960645591
 21
114.3846773887179
 31
0.0
  0
LINE
  5
6FCB
  8
1
 10
156.61399960645591
 20
114.3846773887179
 30
0.0
 11
156.61399960645591
 21
149.9846773887179
 31
0.0
  0
LINE
  5
6FCE
  8
1
 10
194.11399960645591
 20
114.3846773887179
 30
0.0
 11
156.61399960645591
 21
114.3846773887179
 31
0.0
  0
LINE
  5
6FD3
  8
1
 10
156.61399960645591
 20
149.9846773887179
 30
0.0
 11
194.11399960645591
 21
149.9846773887179
 31
0.0
  0
CIRCLE
  5
6FD4
  8
1
 10
160.6139996071426
 20
143.1846773887178
 30
0.0
 40
1.5
  0
LINE
  5
6FD5
  8
1
 10
194.11399960645591
 20
148.18467738871831
 30
0.0
 11
225.11402268337241
 21
148.18467738871831
 31
0.0
  0
LINE
  5
6FD6
  8
1
 10
194.11399960645591
 20
116.1846773887183
 30
0.0
 11
225.11402268337241
 21
116.1846773887183
 31
0.0
  0
CIRCLE
  5
6FD7
  8
1
 10
160.6139996071426
 20
143.1846773887178
 30
0.0
 40
3.2000000000000002
  0
CIRCLE
  5
704A
  8
1
 10
160.6139996071426
 20
121.1846773887178
 30
0.0
 40
3.2000000000000002
  0
CIRCLE
  5
704B
  8
1
 10
160.6139996071426
 20
121.1846773887178
 30
0.0
 40
1.5
  0
LINE
  5
72D4
  8
1
 10
195.11398422184689
 20
71.615898976243898
 30
0.0
 11
194.1139846064618
 21
71.615898976243898
 31
0.0
  0
LINE
  5
72D5
  8
1
 10
195.11398422184689
 20
45.615909283932069
 30
0.0
 11
194.1139846064618
 21
45.615909283932069
 31
0.0
  0
VIEWPORT
  5
22
 67
     1
  8
0
 10
231.33415193102351
 20
136.27717363200671
 30
0.0
 40
571.68750087976355
 41
356.84065598744979
 68
     1
 69
     1
1001
ACAD
1000
MVIEW
1002
{
1070
    16
1010
0.0
1020
0.0
1030
0.0
1010
0.0
1020
0.0
1030
1.0
1040
0.0
1040
356.84065598744979
1040
231.33415193102351
1040
136.27717363200671
1040
50.0
1040
0.0
1040
0.0
1070
     0
1070
   100
1070
     1
1070
     0
1070
     0
1070
     0
1070
     0
1070
     0
1040
0.0
1040
0.0
1040
0.0
1040
1.0
1040
1.0
1040
10.0
1040
10.0
1070
     0
1002
{
1002
}
1002
}
  0
VIEWPORT
  5
2CF
 67
     1
  8
DEFPOINTS
 10
212.49999999999989
 20
149.49999999999989
 30
0.0
 40
384.99999999999977
 41
265.0
 68
     2
 69
     2
1001
ACAD
1000
MVIEW
1002
{
1070
    16
1010
0.0
1020
0.0
1030
0.0
1010
0.0
1020
0.0
1030
1.0
1040
0.0
1040
265.0000025015994
1040
163.42917082841109
1040
92.664027445863667
1040
50.0
1040
0.0
1040
0.0
1070
     0
1070
   100
1070
     1
1070
     0
1070
     0
1070
     0
1070
     0
1070
     1
1040
0.0
1040
0.0
1040
0.0
1040
168.0
1040
168.0
1040
0.0
1040
0.0
1070
     0
1002
{
1002
}
1002
}
  0
ENDSEC
  0
EOF
