  0
SECTION
  2
HEADER
  9
$ACADVER
  1
AC1009
  9
$INSBASE
 10
0.0
 20
0.0
 30
0.0
  9
$EXTMIN
 10
7.0087665726131192
 20
24.946957301268132
 30
0.0
  9
$EXTMAX
 10
292.69022578964262
 20
241.47810720838399
 30
0.0
  9
$LIMMIN
 10
0.0
 20
0.0
  9
$LIMMAX
 10
10000.0
 20
10000.0
  9
$ORTHOMODE
 70
     1
  9
$REGENMODE
 70
     1
  9
$FILLMODE
 70
     1
  9
$QTEXTMODE
 70
     0
  9
$MIRRTEXT
 70
     1
  9
$DRAGMODE
 70
     2
  9
$LTSCALE
 40
5.0
  9
$OSMODE
 70
   447
  9
$ATTMODE
 70
     1
  9
$TEXTSIZE
 40
3.5
  9
$TRACEWID
 40
1.0
  9
$TEXTSTYLE
  7
AD-STANDARD
  9
$CLAYER
  8
1
  9
$CELTYPE
  6
BYLAYER
  9
$CECOLOR
 62
   256
  9
$DIMSCALE
 40
1.0
  9
$DIMASZ
 40
0.18
  9
$DIMEXO
 40
0.0625
  9
$DIMDLI
 40
0.38
  9
$DIMRND
 40
0.0
  9
$DIMDLE
 40
0.0
  9
$DIMEXE
 40
0.18
  9
$DIMTP
 40
0.0
  9
$DIMTM
 40
0.0
  9
$DIMTXT
 40
0.18
  9
$DIMCEN
 40
0.09
  9
$DIMTSZ
 40
0.0
  9
$DIMTOL
 70
     0
  9
$DIMLIM
 70
     0
  9
$DIMTIH
 70
     1
  9
$DIMTOH
 70
     1
  9
$DIMSE1
 70
     0
  9
$DIMSE2
 70
     0
  9
$DIMTAD
 70
     0
  9
$DIMZIN
 70
     0
  9
$DIMBLK
  1

  9
$DIMASO
 70
     1
  9
$DIMSHO
 70
     1
  9
$DIMPOST
  1

  9
$DIMAPOST
  1

  9
$DIMALT
 70
     0
  9
$DIMALTD
 70
     2
  9
$DIMALTF
 40
25.399999999999999
  9
$DIMLFAC
 40
1.0
  9
$DIMTOFL
 70
     0
  9
$DIMTVP
 40
0.0
  9
$DIMTIX
 70
     0
  9
$DIMSOXD
 70
     0
  9
$DIMSAH
 70
     0
  9
$DIMBLK1
  1

  9
$DIMBLK2
  1

  9
$DIMSTYLE
  2
STANDARD
  9
$DIMCLRD
 70
     0
  9
$DIMCLRE
 70
     0
  9
$DIMCLRT
 70
     0
  9
$DIMTFAC
 40
1.0
  9
$DIMGAP
 40
0.09
  9
$LUNITS
 70
     2
  9
$LUPREC
 70
     4
  9
$SKETCHINC
 40
1.0
  9
$FILLETRAD
 40
3.0
  9
$AUNITS
 70
     0
  9
$AUPREC
 70
     0
  9
$MENU
  1
.
  9
$ELEVATION
 40
0.0
  9
$PELEVATION
 40
0.0
  9
$THICKNESS
 40
0.0
  9
$LIMCHECK
 70
     0
  9
$BLIPMODE
 70
     0
  9
$CHAMFERA
 40
1.0
  9
$CHAMFERB
 40
1.0
  9
$SKPOLY
 70
     0
  9
$TDCREATE
 40
2451430.616412153
  9
$TDUPDATE
 40
2457567.5468392251
  9
$TDINDWG
 40
0.5318937037
  9
$TDUSRTIMER
 40
0.5318923958
  9
$USRTIMER
 70
     1
  9
$ANGBASE
 50
0.0
  9
$ANGDIR
 70
     0
  9
$PDMODE
 70
     0
  9
$PDSIZE
 40
0.0
  9
$PLINEWID
 40
0.0
  9
$COORDS
 70
     1
  9
$SPLFRAME
 70
     0
  9
$SPLINETYPE
 70
     6
  9
$SPLINESEGS
 70
     8
  9
$ATTDIA
 70
     0
  9
$ATTREQ
 70
     1
  9
$HANDLING
 70
     1
  9
$HANDSEED
  5
35AE
  9
$SURFTAB1
 70
     6
  9
$SURFTAB2
 70
     6
  9
$SURFTYPE
 70
     6
  9
$SURFU
 70
     6
  9
$SURFV
 70
     6
  9
$UCSNAME
  2

  9
$UCSORG
 10
0.0
 20
0.0
 30
0.0
  9
$UCSXDIR
 10
1.0
 20
0.0
 30
0.0
  9
$UCSYDIR
 10
0.0
 20
1.0
 30
0.0
  9
$PUCSNAME
  2

  9
$PUCSORG
 10
0.0
 20
0.0
 30
0.0
  9
$PUCSXDIR
 10
1.0
 20
0.0
 30
0.0
  9
$PUCSYDIR
 10
0.0
 20
1.0
 30
0.0
  9
$USERI1
 70
     0
  9
$USERI2
 70
     0
  9
$USERI3
 70
     0
  9
$USERI4
 70
     0
  9
$USERI5
 70
     0
  9
$USERR1
 40
0.0
  9
$USERR2
 40
0.0
  9
$USERR3
 40
0.0
  9
$USERR4
 40
0.0
  9
$USERR5
 40
0.0
  9
$WORLDVIEW
 70
     1
  9
$SHADEDGE
 70
     3
  9
$SHADEDIF
 70
    70
  9
$TILEMODE
 70
     1
  9
$MAXACTVP
 70
    16
  9
$PLIMCHECK
 70
     0
  9
$PEXTMIN
 10
19.970380158506359
 20
11.991401124274599
 30
-0.0015258207003583
  9
$PEXTMAX
 10
405.02405826069639
 20
277.00653095576041
 30
0.0000000349246037
  9
$PLIMMIN
 10
15.764304539401961
 20
7.7853093970341742
  9
$PLIMMAX
 10
409.23014998793678
 20
286.00426647099982
  9
$UNITMODE
 70
     0
  9
$VISRETAIN
 70
     0
  9
$PLINEGEN
 70
     0
  9
$PSLTSCALE
 70
     1
  0
ENDSEC
  0
SECTION
  2
TABLES
  0
TABLE
  2
VPORT
 70
     1
  0
VPORT
  2
*ACTIVE
 70
     0
 10
0.0
 20
0.0
 11
1.0
 21
1.0
 12
180.81584498649141
 22
212.84311195853959
 13
0.0
 23
0.0
 14
168.0
 24
168.0
 15
0.0
 25
0.0
 16
0.0
 26
0.0
 36
1.0
 17
0.0
 27
0.0
 37
0.0
 40
185.03176047877989
 41
1.308564231738035
 42
50.0
 43
0.0
 44
0.0
 50
0.0
 51
0.0
 71
     0
 72
   100
 73
     1
 74
     0
 75
     0
 76
     0
 77
     0
 78
     1
  0
ENDTAB
  0
TABLE
  2
LTYPE
 70
     4
  0
LTYPE
  2
CONTINUOUS
 70
     0
  3
Solid line
 72
    65
 73
     0
 40
0.0
  0
LTYPE
  2
PHANTOM2
 70
     0
  3
___ _ _ ___ _ _ ___ _ _ ___ _ _
 72
    65
 73
     6
 40
1.25
 49
0.625
 49
-0.125
 49
0.125
 49
-0.125
 49
0.125
 49
-0.125
  0
LTYPE
  2
CENTER
 70
     0
  3
____ _ ____ _ ____ _ ____ _ ____ _ ____ _ ____ 
 72
    65
 73
     4
 40
2.0
 49
1.25
 49
-0.25
 49
0.25
 49
-0.25
  0
LTYPE
  2
HIDDEN
 70
     0
  3
__ __ __ __ __ __ __ __ __ __ __ __ __ __ __ __
 72
    65
 73
     2
 40
0.375
 49
0.25
 49
-0.125
  0
ENDTAB
  0
TABLE
  2
LAYER
 70
     5
  0
LAYER
  2
0
 70
     0
 62
     7
  6
CONTINUOUS
  0
LAYER
  2
1
 70
     0
 62
     7
  6
CONTINUOUS
  0
LAYER
  2
DEFPOINTS
 70
     0
 62
     7
  6
CONTINUOUS
  0
LAYER
  2
CENTER
 70
     0
 62
     9
  6
CENTER
  0
LAYER
  2
ケーブル
 70
     0
 62
     7
  6
CONTINUOUS
  0
ENDTAB
  0
TABLE
  2
STYLE
 70
     4
  0
STYLE
  2
STANDARD
 70
     0
 40
0.0
 41
0.8
 50
0.0
 71
     0
 42
84.175084175084123
  3
TXT
  4
bigfont.shx
  0
STYLE
  2
ANNOTATIVE
 70
     0
 40
0.0
 41
1.0
 50
0.0
 71
     0
 42
0.2
  3
txt
  4

  0
STYLE
  2
AD-STANDARD
 70
     0
 40
0.0
 41
0.8
 50
0.0
 71
     0
 42
3.5
  3
C:\Program Files\AutoCAD LT\romans.shx
  4
bigfont.shx
  0
STYLE
  2

 70
     1
 40
0.0
 41
1.0
 50
0.0
 71
     0
 42
3.5
  3
ltypeshp.shx
  4

  0
ENDTAB
  0
TABLE
  2
VIEW
 70
     0
  0
ENDTAB
  0
TABLE
  2
UCS
 70
     0
  0
ENDTAB
  0
TABLE
  2
APPID
 70
    13
  0
APPID
  2
ACAD
 70
     0
  0
APPID
  2
ACADANNOTATIVE
 70
     0
  0
APPID
  2
CONTENTTABDATA
 70
     0
  0
APPID
  2
CONTENTCURRENTTAB
 70
     0
  0
APPID
  2
CONTENTBLOCKDESCRIPTION
 70
     0
  0
APPID
  2
CONTENTBLOCKICON
 70
     0
  0
APPID
  2
ACAD_PSEXT
 70
     0
  0
APPID
  2
ACAD_NAV_VCDISPLAY
 70
     0
  0
APPID
  2
ACAD_DSTYLE_DIMRADIAL_EXTENSION
 70
     0
  0
APPID
  2
ACAECLAYERSTANDARD
 70
     0
  0
APPID
  2
ACCMTRANSPARENCY
 70
     0
  0
APPID
  2
ACAD_EXEMPT_FROM_CAD_STANDARDS
 70
     0
  0
APPID
  2
ACAD_MLEADERVER
 70
     0
  0
ENDTAB
  0
TABLE
  2
DIMSTYLE
 70
     3
  0
DIMSTYLE
  2
STANDARD
 70
     0
  3

  4

  5

  6

  7

 40
1.0
 41
0.18
 42
0.0625
 43
0.38
 44
0.18
 45
0.0
 46
0.0
 47
0.0
 48
0.0
140
0.18
141
0.09
142
0.0
143
25.399999999999999
144
1.0
145
0.0
146
1.0
147
0.09
 71
     0
 72
     0
 73
     1
 74
     1
 75
     0
 76
     0
 77
     0
 78
     0
170
     0
171
     2
172
     0
173
     0
174
     0
175
     0
176
     0
177
     0
178
     0
  0
DIMSTYLE
  2
ANNOTATIVE
 70
     0
  3

  4

  5

  6

  7

 40
1.0
 41
0.18
 42
0.0625
 43
0.38
 44
0.18
 45
0.0
 46
0.0
 47
0.0
 48
0.0
140
0.18
141
0.09
142
0.0
143
25.399999999999999
144
1.0
145
0.0
146
1.0
147
0.09
 71
     0
 72
     0
 73
     1
 74
     1
 75
     0
 76
     0
 77
     0
 78
     0
170
     0
171
     2
172
     0
173
     0
174
     0
175
     0
176
     0
177
     0
178
     0
  0
DIMSTYLE
  2
AD-STANDARD
 70
     0
  3

  4

  5

  6

  7

 40
1.0
 41
2.5
 42
1.0
 43
0.38
 44
2.0
 45
0.0
 46
0.0
 47
0.0
 48
0.0
140
3.5
141
-2.0
142
0.0
143
25.399999999999999
144
1.0
145
0.0
146
1.0
147
0.5
 71
     0
 72
     0
 73
     0
 74
     0
 75
     0
 76
     0
 77
     1
 78
     8
170
     0
171
     2
172
     1
173
     0
174
     0
175
     0
176
     9
177
     9
178
     2
  0
ENDTAB
  0
ENDSEC
  0
SECTION
  2
BLOCKS
  0
BLOCK
  8
0
  2
$MODEL_SPACE
 70
     0
 10
0.0
 20
0.0
 30
0.0
  3
$MODEL_SPACE
  1

  0
ENDBLK
  5
349F
  8
0
  0
BLOCK
 67
     1
  8
0
  2
$PAPER_SPACE
 70
     0
 10
0.0
 20
0.0
 30
0.0
  3
$PAPER_SPACE
  1

  0
ENDBLK
  5
349B
 67
     1
  8
0
  0
BLOCK
  8
0
 62
     6
  2
*D2
 70
     1
 10
0.0
 20
0.0
 30
0.0
  3
*D2
  1

  0
LINE
  5
2284
  8
ケーブル
 62
     9
 10
4812.1401584594651
 20
5545.4955588214807
 30
0.0
 11
4812.1401584594651
 21
5578.6331918545457
 31
0.0
  0
LINE
  5
2285
  8
ケーブル
 62
     9
 10
5022.1401584594651
 20
5545.4955588214807
 30
0.0
 11
5022.1401584594651
 21
5578.6331918545457
 31
0.0
  0
LINE
  5
2286
  8
ケーブル
 62
     9
 10
4814.6401584594641
 20
5576.6331918545457
 30
0.0
 11
5019.6401584594651
 21
5576.6331918545457
 31
0.0
  0
SOLID
  5
2287
  8
ケーブル
 62
     9
 10
4814.6401584594641
 20
5577.0498585212126
 30
0.0
 11
4814.6401584594641
 21
5576.2165251878796
 31
0.0
 12
4812.1401584594651
 22
5576.6331918545457
 32
0.0
 13
4812.1401584594651
 23
5576.6331918545457
 33
0.0
  0
SOLID
  5
2288
  8
ケーブル
 62
     9
 10
5019.6401584594651
 20
5577.0498585212126
 30
0.0
 11
5019.6401584594651
 21
5576.2165251878796
 31
0.0
 12
5022.1401584594651
 22
5576.6331918545457
 32
0.0
 13
5022.1401584594651
 23
5576.6331918545457
 33
0.0
  0
INSERT
  5
2289
  8
1
  2
*U3
 10
0.0
 20
0.0
 30
0.0
  0
POINT
  5
228A
  8
DEFPOINTS
 62
     0
 10
4812.1401584594651
 20
5544.4955588214807
 30
0.0
  0
POINT
  5
228B
  8
DEFPOINTS
 62
     0
 10
5022.1401584594651
 20
5544.4955588214807
 30
0.0
  0
POINT
  5
228C
  8
DEFPOINTS
 62
     0
 10
5022.1401584594651
 20
5576.6331918545457
 30
0.0
  0
ENDBLK
  5
228D
  8
0
 62
     6
  0
BLOCK
  8
0
  2
*U3
 70
     1
 10
0.0
 20
0.0
 30
0.0
  3
*U3
  1

  0
TEXT
  5
28E5
  8
ケーブル
 62
     2
 10
4913.1401584594651
 20
5577.1331918545457
 30
0.0
 40
3.5
  1
210
 41
0.8
  7
AD-STANDARD
  0
ENDBLK
  5
28E7
  8
0
  0
BLOCK
  8
0
 62
     6
  2
*D4
 70
     1
 10
0.0
 20
0.0
 30
0.0
  3
*D4
  1

  0
LINE
  5
2290
  8
ケーブル
 62
     9
 10
4812.1401584594651
 20
5545.4955588214807
 30
0.0
 11
4812.1401584594651
 21
5565.2209354546712
 31
0.0
  0
LINE
  5
2291
  8
ケーブル
 62
     9
 10
4827.1401584594641
 20
5545.4955588214807
 30
0.0
 11
4827.1401584594641
 21
5565.2209354546712
 31
0.0
  0
LINE
  5
2292
  8
ケーブル
 62
     9
 10
4814.6401584594641
 20
5563.2209354546694
 30
0.0
 11
4824.6401584594641
 21
5563.2209354546694
 31
0.0
  0
SOLID
  5
2293
  8
ケーブル
 62
     9
 10
4814.6401584594641
 20
5563.6376021213346
 30
0.0
 11
4814.6401584594641
 21
5562.8042687880034
 31
0.0
 12
4812.1401584594651
 22
5563.2209354546694
 32
0.0
 13
4812.1401584594651
 23
5563.2209354546694
 33
0.0
  0
SOLID
  5
2294
  8
ケーブル
 62
     9
 10
4824.6401584594641
 20
5563.6376021213346
 30
0.0
 11
4824.6401584594641
 21
5562.8042687880034
 31
0.0
 12
4827.1401584594641
 22
5563.2209354546694
 32
0.0
 13
4827.1401584594641
 23
5563.2209354546694
 33
0.0
  0
INSERT
  5
2295
  8
1
  2
*U5
 10
0.0
 20
0.0
 30
0.0
  0
POINT
  5
2296
  8
DEFPOINTS
 62
     0
 10
4812.1401584594651
 20
5544.4955588214807
 30
0.0
  0
POINT
  5
2297
  8
DEFPOINTS
 62
     0
 10
4827.1401584594641
 20
5544.4955588214807
 30
0.0
  0
POINT
  5
2298
  8
DEFPOINTS
 62
     0
 10
4827.1401584594641
 20
5563.2209354546694
 30
0.0
  0
ENDBLK
  5
2299
  8
0
 62
     6
  0
BLOCK
  8
0
  2
*U5
 70
     1
 10
0.0
 20
0.0
 30
0.0
  3
*U5
  1

  0
TEXT
  5
28E9
  8
ケーブル
 62
     2
 10
4816.7734917927983
 20
5563.7209354546712
 30
0.0
 40
3.5
  1
15
 41
0.8
  7
AD-STANDARD
  0
ENDBLK
  5
28EB
  8
0
  0
BLOCK
  8
0
 62
     6
  2
*D6
 70
     1
 10
0.0
 20
0.0
 30
0.0
  3
*D6
  1

  0
LINE
  5
229C
  8
ケーブル
 62
     9
 10
4862.1401584594651
 20
5532.9955588214807
 30
0.0
 11
4862.1401584594651
 21
5565.1549341832442
 31
0.0
  0
LINE
  5
229D
  8
ケーブル
 62
     9
 10
4827.1401584594651
 20
5532.9955588214807
 30
0.0
 11
4827.1401584594651
 21
5565.1549341832442
 31
0.0
  0
LINE
  5
229E
  8
ケーブル
 62
     9
 10
4859.6401584594651
 20
5563.1549341832451
 30
0.0
 11
4829.6401584594651
 21
5563.1549341832451
 31
0.0
  0
SOLID
  5
229F
  8
ケーブル
 62
     9
 10
4859.6401584594651
 20
5563.5716008499112
 30
0.0
 11
4859.6401584594651
 21
5562.7382675165791
 31
0.0
 12
4862.1401584594651
 22
5563.1549341832451
 32
0.0
 13
4862.1401584594651
 23
5563.1549341832451
 33
0.0
  0
SOLID
  5
22A0
  8
ケーブル
 62
     9
 10
4829.6401584594651
 20
5563.5716008499112
 30
0.0
 11
4829.6401584594651
 21
5562.7382675165791
 31
0.0
 12
4827.1401584594651
 22
5563.1549341832451
 32
0.0
 13
4827.1401584594651
 23
5563.1549341832451
 33
0.0
  0
INSERT
  5
22A1
  8
1
  2
*U7
 10
0.0
 20
0.0
 30
0.0
  0
POINT
  5
22A2
  8
DEFPOINTS
 62
     0
 10
4862.1401584594651
 20
5531.9955588214807
 30
0.0
  0
POINT
  5
22A3
  8
DEFPOINTS
 62
     0
 10
4827.1401584594651
 20
5531.9955588214807
 30
0.0
  0
POINT
  5
22A4
  8
DEFPOINTS
 62
     0
 10
4827.1401584594651
 20
5563.1549341832451
 30
0.0
  0
ENDBLK
  5
22A5
  8
0
 62
     6
  0
BLOCK
  8
0
  2
*U7
 70
     1
 10
0.0
 20
0.0
 30
0.0
  3
*U7
  1

  0
TEXT
  5
28ED
  8
ケーブル
 62
     2
 10
4841.973491792799
 20
5563.6549341832442
 30
0.0
 40
3.5
  1
35
 41
0.8
  7
AD-STANDARD
  0
ENDBLK
  5
28EF
  8
0
  0
BLOCK
  8
0
 62
     6
  2
*D8
 70
     1
 10
0.0
 20
0.0
 30
0.0
  3
*D8
  1

  0
LINE
  5
22A8
  8
ケーブル
 62
     9
 10
4826.1401584594651
 20
5531.9955588214807
 30
0.0
 11
4800.917073806253
 21
5531.9955588214807
 31
0.0
  0
LINE
  5
22A9
  8
ケーブル
 62
     9
 10
4826.1401584594651
 20
5506.9955588214807
 30
0.0
 11
4800.917073806253
 21
5506.9955588214807
 31
0.0
  0
LINE
  5
22AA
  8
ケーブル
 62
     9
 10
4802.917073806253
 20
5529.4955588214798
 30
0.0
 11
4802.917073806253
 21
5509.4955588214798
 31
0.0
  0
SOLID
  5
22AB
  8
ケーブル
 62
     9
 10
4802.5004071395861
 20
5529.4955588214798
 30
0.0
 11
4803.3337404729209
 21
5529.4955588214798
 31
0.0
 12
4802.917073806253
 22
5531.9955588214807
 32
0.0
 13
4802.917073806253
 23
5531.9955588214807
 33
0.0
  0
SOLID
  5
22AC
  8
ケーブル
 62
     9
 10
4802.5004071395861
 20
5509.4955588214798
 30
0.0
 11
4803.3337404729209
 21
5509.4955588214798
 31
0.0
 12
4802.917073806253
 22
5506.9955588214807
 32
0.0
 13
4802.917073806253
 23
5506.9955588214807
 33
0.0
  0
INSERT
  5
22AD
  8
1
  2
*U9
 10
0.0
 20
0.0
 30
0.0
  0
POINT
  5
22AE
  8
DEFPOINTS
 62
     0
 10
4827.1401584594651
 20
5531.9955588214807
 30
0.0
  0
POINT
  5
22AF
  8
DEFPOINTS
 62
     0
 10
4827.1401584594651
 20
5506.9955588214807
 30
0.0
  0
POINT
  5
22B0
  8
DEFPOINTS
 62
     0
 10
4802.917073806253
 20
5506.9955588214807
 30
0.0
  0
ENDBLK
  5
22B1
  8
0
 62
     6
  0
BLOCK
  8
0
  2
*U9
 70
     1
 10
0.0
 20
0.0
 30
0.0
  3
*U9
  1

  0
TEXT
  5
28F1
  8
ケーブル
 62
     2
 10
4802.4170738062521
 20
5516.8288921548155
 30
0.0
 40
3.5
  1
25
 50
90.0
 41
0.8
  7
AD-STANDARD
  0
ENDBLK
  5
28F3
  8
0
  0
BLOCK
  8
0
 62
     6
  2
*D10
 70
     1
 10
0.0
 20
0.0
 30
0.0
  3
*D10
  1

  0
LINE
  5
22B4
  8
ケーブル
 62
     9
 10
4863.8728400149594
 20
5488.4955588214798
 30
0.0
 11
4852.9968303926616
 21
5488.4955588214798
 31
0.0
  0
LINE
  5
22B5
  8
ケーブル
 62
     9
 10
4863.8728400149594
 20
5494.4955588214807
 30
0.0
 11
4852.9968303926616
 21
5494.4955588214807
 31
0.0
  0
LINE
  5
22B6
  8
ケーブル
 62
     9
 10
4854.9968303926616
 20
5485.9955588214807
 30
0.0
 11
4854.9968303926616
 21
5483.4955588214807
 31
0.0
  0
LINE
  5
22B7
  8
ケーブル
 62
     9
 10
4854.9968303926616
 20
5496.9955588214807
 30
0.0
 11
4854.9968303926616
 21
5499.4955588214807
 31
0.0
  0
LINE
  5
22B8
  8
ケーブル
 62
     9
 10
4854.9968303926616
 20
5488.4955588214798
 30
0.0
 11
4854.9968303926616
 21
5494.4955588214807
 31
0.0
  0
SOLID
  5
22B9
  8
ケーブル
 62
     9
 10
4854.5801637259938
 20
5485.9955588214807
 30
0.0
 11
4855.4134970593304
 21
5485.9955588214807
 31
0.0
 12
4854.9968303926616
 22
5488.4955588214798
 32
0.0
 13
4854.9968303926616
 23
5488.4955588214798
 33
0.0
  0
SOLID
  5
22BA
  8
ケーブル
 62
     9
 10
4854.5801637259938
 20
5496.9955588214807
 30
0.0
 11
4855.4134970593304
 21
5496.9955588214807
 31
0.0
 12
4854.9968303926616
 22
5494.4955588214807
 32
0.0
 13
4854.9968303926616
 23
5494.4955588214807
 33
0.0
  0
INSERT
  5
22BB
  8
1
  2
*U11
 10
0.0
 20
0.0
 30
0.0
  0
POINT
  5
22BC
  8
DEFPOINTS
 62
     0
 10
4864.8728400149594
 20
5488.4955588214798
 30
0.0
  0
POINT
  5
22BD
  8
DEFPOINTS
 62
     0
 10
4864.8728400149594
 20
5494.4955588214807
 30
0.0
  0
POINT
  5
22BE
  8
DEFPOINTS
 62
     0
 10
4854.9968303926616
 20
5494.4955588214807
 30
0.0
  0
ENDBLK
  5
22BF
  8
0
 62
     6
  0
BLOCK
  8
0
  2
*U11
 70
     1
 10
0.0
 20
0.0
 30
0.0
  3
*U11
  1

  0
TEXT
  5
28F5
  8
ケーブル
 62
     2
 10
4854.4968303926607
 20
5490.0955588214811
 30
0.0
 40
3.5
  1
6
 50
90.0
 41
0.8
  7
AD-STANDARD
  0
ENDBLK
  5
28F7
  8
0
  0
BLOCK
  8
0
 62
     6
  2
*D12
 70
     1
 10
0.0
 20
0.0
 30
0.0
  3
*D12
  1

  0
LINE
  5
22C2
  8
ケーブル
 62
     9
 10
4844.1638603098263
 20
5531.6747600014287
 30
0.0
 11
4833.6390046735578
 21
5531.8730929667872
 31
0.0
  0
LINE
  5
22C3
  8
ケーブル
 62
     9
 10
4820.6413122453732
 20
5532.1180246761769
 30
0.0
 11
4818.1417560091832
 21
5532.165126927981
 31
0.0
  0
INSERT
  5
22C4
  8
1
  2
*U13
 10
0.0
 20
0.0
 30
0.0
  0
LINE
  5
22C6
  8
ケーブル
 62
     9
 10
4823.1408684815633
 20
5532.070922424371
 30
0.0
 11
4831.1394484373686
 21
5531.9201952185922
 31
0.0
  0
SOLID
  5
22C7
  8
ケーブル
 62
     9
 10
4820.6491626206735
 20
5532.5346173822081
 30
0.0
 11
4820.6334618700721
 21
5531.7014319701439
 31
0.0
 12
4823.1408684815633
 22
5532.070922424371
 32
0.0
 13
4823.1408684815633
 23
5532.070922424371
 33
0.0
  0
SOLID
  5
22C8
  8
ケーブル
 62
     9
 10
4833.646855048858
 20
5532.2896856728185
 30
0.0
 11
4833.6311542982567
 21
5531.4565002607542
 31
0.0
 12
4831.1394484373686
 22
5531.9201952185922
 32
0.0
 13
4831.1394484373686
 23
5531.9201952185922
 33
0.0
  0
POINT
  5
22C9
  8
DEFPOINTS
 62
     0
 10
4831.1394484373686
 20
5531.9201952185922
 30
0.0
  0
POINT
  5
22CA
  8
DEFPOINTS
 62
     0
 10
4823.1408684815633
 20
5532.070922424371
 30
0.0
  0
ENDBLK
  5
22CB
  8
0
 62
     6
  0
BLOCK
  8
0
  2
*U13
 70
     1
 10
0.0
 20
0.0
 30
0.0
  3
*U13
  1

  0
TEXT
  5
28F9
  8
ケーブル
 62
     2
 10
4838.8742215394641
 20
5532.2745280224963
 30
0.0
 40
3.5
  1
\U+22058
 50
358.92043202920189
 41
0.8
  7
AD-STANDARD
  0
ENDBLK
  5
28FB
  8
0
  0
BLOCK
  8
0
 62
     6
  2
*D14
 70
     1
 10
0.0
 20
0.0
 30
0.0
  3
*D14
  1

  0
LINE
  5
22CE
  8
ケーブル
 62
     9
 10
4847.7412146963061
 20
5531.8211498040337
 30
0.0
 11
4855.6406352330396
 21
5531.9168325288847
 31
0.0
  0
LINE
  5
22CF
  8
ケーブル
 62
     9
 10
4868.6396816858914
 20
5532.0742851140767
 30
0.0
 11
4871.1394983114433
 21
5532.1045644573842
 31
0.0
  0
INSERT
  5
22D0
  8
1
  2
*U15
 10
0.0
 20
0.0
 30
0.0
  0
LINE
  5
22D2
  8
ケーブル
 62
     9
 10
4866.1398650603433
 20
5532.044005770771
 30
0.0
 11
4858.1404518585878
 21
5531.9471118721922
 31
0.0
  0
SOLID
  5
22D3
  8
ケーブル
 62
     9
 10
4868.6346351286738
 20
5532.4909212183347
 30
0.0
 11
4868.6447282431091
 21
5531.6576490098178
 31
0.0
 12
4866.1398650603433
 22
5532.044005770771
 32
0.0
 13
4866.1398650603433
 23
5532.044005770771
 33
0.0
  0
SOLID
  5
22D4
  8
ケーブル
 62
     9
 10
4855.635588675822
 20
5532.3334686331418
 30
0.0
 11
4855.6456817902572
 21
5531.5001964246267
 31
0.0
 12
4858.1404518585878
 22
5531.9471118721922
 32
0.0
 13
4858.1404518585878
 23
5531.9471118721922
 33
0.0
  0
POINT
  5
22D5
  8
DEFPOINTS
 62
     0
 10
4858.1404518585878
 20
5531.9471118721922
 30
0.0
  0
POINT
  5
22D6
  8
DEFPOINTS
 62
     0
 10
4866.1398650603433
 20
5532.044005770771
 30
0.0
  0
ENDBLK
  5
22D7
  8
0
 62
     6
  0
BLOCK
  8
0
  2
*U15
 70
     1
 10
0.0
 20
0.0
 30
0.0
  3
*U15
  1

  0
TEXT
  5
28FD
  8
ケーブル
 62
     2
 10
4847.8351514926671
 20
5532.322324302877
 30
0.0
 40
3.5
  1
\U+22058
 50
0.6939683987148039
 41
0.8
  7
AD-STANDARD
  0
ENDBLK
  5
28FF
  8
0
  0
BLOCK
  8
0
 62
     6
  2
*D16
 70
     1
 10
0.0
 20
0.0
 30
0.0
  3
*D16
  1

  0
LINE
  5
22DA
  8
ケーブル
 62
     9
 10
4847.7401584594663
 20
5506.9955588214807
 30
0.0
 11
4855.6401584594651
 21
5506.9955588214807
 31
0.0
  0
LINE
  5
22DB
  8
ケーブル
 62
     9
 10
4868.6401584594651
 20
5506.9955588214807
 30
0.0
 11
4871.1401584594651
 21
5506.9955588214807
 31
0.0
  0
INSERT
  5
22DC
  8
1
  2
*U17
 10
0.0
 20
0.0
 30
0.0
  0
LINE
  5
22DE
  8
ケーブル
 62
     9
 10
4866.1401584594651
 20
5506.9955588214807
 30
0.0
 11
4858.1401584594651
 21
5506.9955588214807
 31
0.0
  0
SOLID
  5
22DF
  8
ケーブル
 62
     9
 10
4868.6401584594651
 20
5507.4122254881486
 30
0.0
 11
4868.6401584594651
 21
5506.5788921548146
 31
0.0
 12
4866.1401584594651
 22
5506.9955588214807
 32
0.0
 13
4866.1401584594651
 23
5506.9955588214807
 33
0.0
  0
SOLID
  5
22E0
  8
ケーブル
 62
     9
 10
4855.6401584594651
 20
5507.4122254881486
 30
0.0
 11
4855.6401584594651
 21
5506.5788921548146
 31
0.0
 12
4858.1401584594651
 22
5506.9955588214807
 32
0.0
 13
4858.1401584594651
 23
5506.9955588214807
 33
0.0
  0
POINT
  5
22E1
  8
DEFPOINTS
 62
     0
 10
4858.1401584594651
 20
5506.9955588214807
 30
0.0
  0
POINT
  5
22E2
  8
DEFPOINTS
 62
     0
 10
4866.1401584594651
 20
5506.9955588214807
 30
0.0
  0
ENDBLK
  5
22E3
  8
0
 62
     6
  0
BLOCK
  8
0
  2
*U17
 70
     1
 10
0.0
 20
0.0
 30
0.0
  3
*U17
  1

  0
TEXT
  5
2901
  8
ケーブル
 62
     2
 10
4847.8401584594649
 20
5507.4955588214807
 30
0.0
 40
3.5
  1
\U+22058
 41
0.8
  7
AD-STANDARD
  0
ENDBLK
  5
2903
  8
0
  0
BLOCK
  8
0
 62
     6
  2
*D18
 70
     1
 10
0.0
 20
0.0
 30
0.0
  3
*D18
  1

  0
LINE
  5
22E6
  8
ケーブル
 62
     9
 10
5023.1401584594651
 20
5544.4955588214807
 30
0.0
 11
5047.8558035512442
 21
5544.4955588214807
 31
0.0
  0
LINE
  5
22E7
  8
ケーブル
 62
     9
 10
5023.1401584594651
 20
5494.4955588214807
 30
0.0
 11
5047.8558035512442
 21
5494.4955588214807
 31
0.0
  0
LINE
  5
22E8
  8
ケーブル
 62
     9
 10
5045.8558035512442
 20
5541.9955588214789
 30
0.0
 11
5045.8558035512442
 21
5496.9955588214807
 31
0.0
  0
SOLID
  5
22E9
  8
ケーブル
 62
     9
 10
5045.4391368845781
 20
5541.9955588214789
 30
0.0
 11
5046.2724702179112
 21
5541.9955588214789
 31
0.0
 12
5045.8558035512442
 22
5544.4955588214807
 32
0.0
 13
5045.8558035512442
 23
5544.4955588214807
 33
0.0
  0
SOLID
  5
22EA
  8
ケーブル
 62
     9
 10
5045.4391368845781
 20
5496.9955588214807
 30
0.0
 11
5046.2724702179112
 21
5496.9955588214807
 31
0.0
 12
5045.8558035512442
 22
5494.4955588214807
 32
0.0
 13
5045.8558035512442
 23
5494.4955588214807
 33
0.0
  0
INSERT
  5
22EB
  8
1
  2
*U19
 10
0.0
 20
0.0
 30
0.0
  0
POINT
  5
22EC
  8
DEFPOINTS
 62
     0
 10
5022.1401584594651
 20
5544.4955588214807
 30
0.0
  0
POINT
  5
22ED
  8
DEFPOINTS
 62
     0
 10
5022.1401584594651
 20
5494.4955588214807
 30
0.0
  0
POINT
  5
22EE
  8
DEFPOINTS
 62
     0
 10
5045.8558035512442
 20
5494.4955588214807
 30
0.0
  0
ENDBLK
  5
22EF
  8
0
 62
     6
  0
BLOCK
  8
0
  2
*U19
 70
     1
 10
0.0
 20
0.0
 30
0.0
  3
*U19
  1

  0
TEXT
  5
2905
  8
ケーブル
 62
     2
 10
5045.3558035512442
 20
5516.8288921548155
 30
0.0
 40
3.5
  1
50
 50
90.0
 41
0.8
  7
AD-STANDARD
  0
ENDBLK
  5
2907
  8
0
  0
BLOCK
  8
0
 62
     6
  2
*D20
 70
     1
 10
0.0
 20
0.0
 30
0.0
  3
*D20
  1

  0
LINE
  5
22F2
  8
ケーブル
 62
     9
 10
4993.1497593049444
 20
5531.9955588214807
 30
0.0
 11
5039.2200220586419
 21
5531.9955588214807
 31
0.0
  0
LINE
  5
22F3
  8
ケーブル
 62
     9
 10
4993.1305576139866
 20
5506.9955588214807
 30
0.0
 11
5039.2200220586419
 21
5506.9955588214807
 31
0.0
  0
LINE
  5
22F4
  8
ケーブル
 62
     9
 10
5037.2200220586419
 20
5529.4955588214798
 30
0.0
 11
5037.2200220586419
 21
5509.4955588214798
 31
0.0
  0
SOLID
  5
22F5
  8
ケーブル
 62
     9
 10
5036.8033553919749
 20
5529.4955588214798
 30
0.0
 11
5037.6366887253089
 21
5529.4955588214798
 31
0.0
 12
5037.2200220586419
 22
5531.9955588214807
 32
0.0
 13
5037.2200220586419
 23
5531.9955588214807
 33
0.0
  0
SOLID
  5
22F6
  8
ケーブル
 62
     9
 10
5036.8033553919749
 20
5509.4955588214798
 30
0.0
 11
5037.6366887253089
 21
5509.4955588214798
 31
0.0
 12
5037.2200220586419
 22
5506.9955588214807
 32
0.0
 13
5037.2200220586419
 23
5506.9955588214807
 33
0.0
  0
INSERT
  5
22F7
  8
1
  2
*U21
 10
0.0
 20
0.0
 30
0.0
  0
POINT
  5
22F8
  8
DEFPOINTS
 62
     0
 10
4992.1497593049407
 20
5531.9955588214807
 30
0.0
  0
POINT
  5
22F9
  8
DEFPOINTS
 62
     0
 10
4992.1305576139903
 20
5506.9955588214807
 30
0.0
  0
POINT
  5
22FA
  8
DEFPOINTS
 62
     0
 10
5037.2200220586419
 20
5506.9955588214807
 30
0.0
  0
ENDBLK
  5
22FB
  8
0
 62
     6
  0
BLOCK
  8
0
  2
*U21
 70
     1
 10
0.0
 20
0.0
 30
0.0
  3
*U21
  1

  0
TEXT
  5
2909
  8
ケーブル
 62
     2
 10
5036.720022058641
 20
5516.8288921548155
 30
0.0
 40
3.5
  1
25
 50
90.0
 41
0.8
  7
AD-STANDARD
  0
ENDBLK
  5
290B
  8
0
  0
BLOCK
  8
0
 62
     6
  2
*D22
 70
     1
 10
0.0
 20
0.0
 30
0.0
  3
*D22
  1

  0
LINE
  5
22FE
  8
ケーブル
 62
     9
 10
5022.1401584594651
 20
5545.4955588214807
 30
0.0
 11
5022.1401584594651
 21
5555.440451654863
 31
0.0
  0
LINE
  5
22FF
  8
ケーブル
 62
     9
 10
5010.4401584594652
 20
5545.4955588214807
 30
0.0
 11
5010.4401584594652
 21
5555.440451654863
 31
0.0
  0
LINE
  5
2300
  8
ケーブル
 62
     9
 10
5019.6401584594651
 20
5553.440451654863
 30
0.0
 11
5012.9401584594643
 21
5553.440451654863
 31
0.0
  0
SOLID
  5
2301
  8
ケーブル
 62
     9
 10
5019.6401584594651
 20
5553.8571183215308
 30
0.0
 11
5019.6401584594651
 21
5553.023784988196
 31
0.0
 12
5022.1401584594651
 22
5553.440451654863
 32
0.0
 13
5022.1401584594651
 23
5553.440451654863
 33
0.0
  0
SOLID
  5
2302
  8
ケーブル
 62
     9
 10
5012.9401584594643
 20
5553.8571183215308
 30
0.0
 11
5012.9401584594643
 21
5553.023784988196
 31
0.0
 12
5010.4401584594652
 22
5553.440451654863
 32
0.0
 13
5010.4401584594652
 23
5553.440451654863
 33
0.0
  0
INSERT
  5
2303
  8
1
  2
*U23
 10
0.0
 20
0.0
 30
0.0
  0
POINT
  5
2304
  8
DEFPOINTS
 62
     0
 10
5022.1401584594651
 20
5544.4955588214807
 30
0.0
  0
POINT
  5
2305
  8
DEFPOINTS
 62
     0
 10
5010.4401584594652
 20
5544.4955588214807
 30
0.0
  0
POINT
  5
2306
  8
DEFPOINTS
 62
     0
 10
5010.4401584594652
 20
5553.440451654863
 30
0.0
  0
ENDBLK
  5
2307
  8
0
 62
     6
  0
BLOCK
  8
0
  2
*U23
 70
     1
 10
0.0
 20
0.0
 30
0.0
  3
*U23
  1

  0
TEXT
  5
290D
  8
ケーブル
 62
     2
 10
5011.4234917927979
 20
5553.940451654863
 30
0.0
 40
3.5
  1
11.7
 41
0.8
  7
AD-STANDARD
  0
ENDBLK
  5
290F
  8
0
  0
BLOCK
  8
0
 62
     6
  2
*D24
 70
     1
 10
0.0
 20
0.0
 30
0.0
  3
*D24
  1

  0
LINE
  5
230A
  8
ケーブル
 62
     9
 10
4992.140158459466
 20
5532.9955588214807
 30
0.0
 11
4992.140158459466
 21
5555.3390972014222
 31
0.0
  0
LINE
  5
230B
  8
ケーブル
 62
     9
 10
5010.4401584594652
 20
5520.4955588214807
 30
0.0
 11
5010.4401584594652
 21
5555.3390972014222
 31
0.0
  0
LINE
  5
230C
  8
ケーブル
 62
     9
 10
4994.6401584594651
 20
5553.3390972014231
 30
0.0
 11
5007.9401584594643
 21
5553.3390972014231
 31
0.0
  0
SOLID
  5
230D
  8
ケーブル
 62
     9
 10
4994.6401584594651
 20
5553.7557638680883
 30
0.0
 11
4994.6401584594651
 21
5552.9224305347552
 31
0.0
 12
4992.140158459466
 22
5553.3390972014231
 32
0.0
 13
4992.140158459466
 23
5553.3390972014231
 33
0.0
  0
SOLID
  5
230E
  8
ケーブル
 62
     9
 10
5007.9401584594643
 20
5553.7557638680883
 30
0.0
 11
5007.9401584594643
 21
5552.9224305347552
 31
0.0
 12
5010.4401584594652
 22
5553.3390972014231
 32
0.0
 13
5010.4401584594652
 23
5553.3390972014231
 33
0.0
  0
INSERT
  5
230F
  8
1
  2
*U25
 10
0.0
 20
0.0
 30
0.0
  0
POINT
  5
2310
  8
DEFPOINTS
 62
     0
 10
4992.140158459466
 20
5531.9955588214807
 30
0.0
  0
POINT
  5
2311
  8
DEFPOINTS
 62
     0
 10
5010.4401584594652
 20
5519.4955588214807
 30
0.0
  0
POINT
  5
2312
  8
DEFPOINTS
 62
     0
 10
5010.4401584594652
 20
5553.3390972014231
 30
0.0
  0
ENDBLK
  5
2313
  8
0
 62
     6
  0
BLOCK
  8
0
  2
*U25
 70
     1
 10
0.0
 20
0.0
 30
0.0
  3
*U25
  1

  0
TEXT
  5
2911
  8
ケーブル
 62
     2
 10
4996.4234917927988
 20
5553.8390972014213
 30
0.0
 40
3.5
  1
18.3
 41
0.8
  7
AD-STANDARD
  0
ENDBLK
  5
2913
  8
0
  0
BLOCK
  8
0
 62
     6
  2
*D26
 70
     1
 10
0.0
 20
0.0
 30
0.0
  3
*D26
  1

  0
LINE
  5
2316
  8
ケーブル
 62
     9
 10
5023.1401584594651
 20
5433.755720214318
 30
0.0
 11
5045.0196219426643
 21
5433.755720214318
 31
0.0
  0
LINE
  5
2317
  8
ケーブル
 62
     9
 10
5023.1401584594651
 20
5388.755720214318
 30
0.0
 11
5045.0196219426643
 21
5388.755720214318
 31
0.0
  0
LINE
  5
2318
  8
ケーブル
 62
     9
 10
5043.0196219426653
 20
5431.255720214318
 30
0.0
 11
5043.0196219426653
 21
5391.255720214318
 31
0.0
  0
SOLID
  5
2319
  8
ケーブル
 62
     9
 10
5042.6029552759992
 20
5431.255720214318
 30
0.0
 11
5043.4362886093322
 21
5431.255720214318
 31
0.0
 12
5043.0196219426653
 22
5433.755720214318
 32
0.0
 13
5043.0196219426653
 23
5433.755720214318
 33
0.0
  0
SOLID
  5
231A
  8
ケーブル
 62
     9
 10
5042.6029552759992
 20
5391.255720214318
 30
0.0
 11
5043.4362886093322
 21
5391.255720214318
 31
0.0
 12
5043.0196219426653
 22
5388.755720214318
 32
0.0
 13
5043.0196219426653
 23
5388.755720214318
 33
0.0
  0
INSERT
  5
231B
  8
1
  2
*U27
 10
0.0
 20
0.0
 30
0.0
  0
POINT
  5
231C
  8
DEFPOINTS
 62
     0
 10
5022.1401584594651
 20
5433.755720214318
 30
0.0
  0
POINT
  5
231D
  8
DEFPOINTS
 62
     0
 10
5022.1401584594651
 20
5388.755720214318
 30
0.0
  0
POINT
  5
231E
  8
DEFPOINTS
 62
     0
 10
5043.0196219426653
 20
5388.755720214318
 30
0.0
  0
ENDBLK
  5
231F
  8
0
 62
     6
  0
BLOCK
  8
0
  2
*U27
 70
     1
 10
0.0
 20
0.0
 30
0.0
  3
*U27
  1

  0
TEXT
  5
2915
  8
ケーブル
 62
     2
 10
5042.5196219426643
 20
5408.5890535476528
 30
0.0
 40
3.5
  1
45
 50
90.0
 41
0.8
  7
AD-STANDARD
  0
ENDBLK
  5
2917
  8
0
  0
BLOCK
  8
0
 62
     6
  2
*D28
 70
     1
 10
0.0
 20
0.0
 30
0.0
  3
*D28
  1

  0
LINE
  5
2322
  8
ケーブル
 62
     9
 10
4972.1651584594656
 20
5436.7557038866307
 30
0.0
 11
5050.129499455441
 21
5436.7557038866307
 31
0.0
  0
LINE
  5
2323
  8
ケーブル
 62
     9
 10
4972.1651584594656
 20
5385.7557365420053
 30
0.0
 11
5050.129499455441
 21
5385.7557365420053
 31
0.0
  0
LINE
  5
2324
  8
ケーブル
 62
     9
 10
5048.129499455441
 20
5434.2557038866307
 30
0.0
 11
5048.129499455441
 21
5388.2557365420062
 31
0.0
  0
SOLID
  5
2325
  8
ケーブル
 62
     9
 10
5047.712832788774
 20
5434.2557038866307
 30
0.0
 11
5048.5461661221079
 21
5434.2557038866307
 31
0.0
 12
5048.129499455441
 22
5436.7557038866307
 32
0.0
 13
5048.129499455441
 23
5436.7557038866307
 33
0.0
  0
SOLID
  5
2326
  8
ケーブル
 62
     9
 10
5047.712832788774
 20
5388.2557365420062
 30
0.0
 11
5048.5461661221079
 21
5388.2557365420062
 31
0.0
 12
5048.129499455441
 22
5385.7557365420053
 32
0.0
 13
5048.129499455441
 23
5385.7557365420053
 33
0.0
  0
INSERT
  5
2327
  8
1
  2
*U29
 10
0.0
 20
0.0
 30
0.0
  0
POINT
  5
2328
  8
DEFPOINTS
 62
     0
 10
4971.1651584594656
 20
5436.7557038866307
 30
0.0
  0
POINT
  5
2329
  8
DEFPOINTS
 62
     0
 10
4971.1651584594656
 20
5385.7557365420053
 30
0.0
  0
POINT
  5
232A
  8
DEFPOINTS
 62
     0
 10
5048.129499455441
 20
5385.7557365420053
 30
0.0
  0
ENDBLK
  5
232B
  8
0
 62
     6
  0
BLOCK
  8
0
  2
*U29
 70
     1
 10
0.0
 20
0.0
 30
0.0
  3
*U29
  1

  0
TEXT
  5
2919
  8
ケーブル
 62
     2
 10
5047.6294994554401
 20
5408.9890535476534
 30
0.0
 40
3.5
  1
51
 50
90.0
 41
0.8
  7
AD-STANDARD
  0
ENDBLK
  5
291B
  8
0
  0
BLOCK
  8
0
 62
     6
  2
*D30
 70
     1
 10
0.0
 20
0.0
 30
0.0
  3
*D30
  1

  0
LINE
  5
232E
  8
ケーブル
 62
     9
 10
4985.7209567685104
 20
5531.9955588214807
 30
0.0
 11
4993.62095676851
 21
5531.9955588214807
 31
0.0
  0
INSERT
  5
232F
  8
1
  2
*U31
 10
0.0
 20
0.0
 30
0.0
  0
SOLID
  5
2331
  8
ケーブル
 62
     9
 10
4993.62095676851
 20
5532.4122254881477
 30
0.0
 11
4993.62095676851
 21
5531.5788921548146
 31
0.0
 12
4996.12095676851
 22
5531.9955588214807
 32
0.0
 13
4996.12095676851
 23
5531.9955588214807
 33
0.0
  0
POINT
  5
2332
  8
DEFPOINTS
 62
     0
 10
4996.12095676851
 20
5531.9955588214807
 30
0.0
  0
POINT
  5
2333
  8
DEFPOINTS
 62
     0
 10
4988.12095676851
 20
5531.9955588214807
 30
0.0
  0
ENDBLK
  5
2334
  8
0
 62
     6
  0
BLOCK
  8
0
  2
*U31
 70
     1
 10
0.0
 20
0.0
 30
0.0
  3
*U31
  1

  0
TEXT
  5
291D
  8
ケーブル
 62
     2
 10
4985.8209567685108
 20
5532.4955588214798
 30
0.0
 40
3.5
  1
\U+22058
 41
0.8
  7
AD-STANDARD
  0
ENDBLK
  5
291F
  8
0
  0
BLOCK
  8
0
 62
     6
  2
*D32
 70
     1
 10
0.0
 20
0.0
 30
0.0
  3
*D32
  1

  0
LINE
  5
2337
  8
ケーブル
 62
     9
 10
5016.839463079682
 20
5519.401217008618
 30
0.0
 11
5008.9403214391023
 21
5519.5176701838709
 31
0.0
  0
INSERT
  5
2338
  8
1
  2
*U33
 10
0.0
 20
0.0
 30
0.0
  0
SOLID
  5
233A
  8
ケーブル
 62
     9
 10
5008.9464634842097
 20
5519.9342915784146
 30
0.0
 11
5008.9341793939921
 21
5519.1010487893227
 31
0.0
 12
5006.4405930718294
 22
5519.5545224545203
 32
0.0
 13
5006.4405930718294
 23
5519.5545224545203
 33
0.0
  0
POINT
  5
233B
  8
DEFPOINTS
 62
     0
 10
5006.4405930718294
 20
5519.5545224545203
 30
0.0
  0
POINT
  5
233C
  8
DEFPOINTS
 62
     0
 10
5014.439723847102
 20
5519.436595188442
 30
0.0
  0
ENDBLK
  5
233D
  8
0
 62
     6
  0
BLOCK
  8
0
  2
*U33
 70
     1
 10
0.0
 20
0.0
 30
0.0
  3
*U33
  1

  0
TEXT
  5
2921
  8
ケーブル
 62
     2
 10
5011.5474093951952
 20
5519.97928949585
 30
0.0
 40
3.5
  1
\U+22058
 50
359.15537758003018
 41
0.8
  7
AD-STANDARD
  0
ENDBLK
  5
2923
  8
0
  0
BLOCK
  8
0
 62
     6
  2
*D34
 70
     1
 10
0.0
 20
0.0
 30
0.0
  3
*D34
  1

  0
LINE
  5
2340
  8
ケーブル
 62
     9
 10
4985.7209567685104
 20
5506.9955588214807
 30
0.0
 11
4993.62095676851
 21
5506.9955588214807
 31
0.0
  0
INSERT
  5
2341
  8
1
  2
*U35
 10
0.0
 20
0.0
 30
0.0
  0
SOLID
  5
2343
  8
ケーブル
 62
     9
 10
4993.62095676851
 20
5507.4122254881486
 30
0.0
 11
4993.62095676851
 21
5506.5788921548146
 31
0.0
 12
4996.12095676851
 22
5506.9955588214807
 32
0.0
 13
4996.12095676851
 23
5506.9955588214807
 33
0.0
  0
POINT
  5
2344
  8
DEFPOINTS
 62
     0
 10
4996.12095676851
 20
5506.9955588214807
 30
0.0
  0
POINT
  5
2345
  8
DEFPOINTS
 62
     0
 10
4988.12095676851
 20
5506.9955588214807
 30
0.0
  0
ENDBLK
  5
2346
  8
0
 62
     6
  0
BLOCK
  8
0
  2
*U35
 70
     1
 10
0.0
 20
0.0
 30
0.0
  3
*U35
  1

  0
TEXT
  5
2925
  8
ケーブル
 62
     2
 10
4985.8209567685108
 20
5507.4955588214807
 30
0.0
 40
3.5
  1
\U+22058
 41
0.8
  7
AD-STANDARD
  0
ENDBLK
  5
2927
  8
0
  0
BLOCK
  8
0
  2
*D36
 70
     1
 10
0.0
 20
0.0
 30
0.0
  3
*D36
  1

  0
LINE
  5
26B6
  8
ケーブル
 62
     9
 10
168.31345571461009
 20
259.42721797122363
 30
0.0
 11
246.27779671058539
 21
259.42721797122363
 31
0.0
  0
LINE
  5
26B7
  8
ケーブル
 62
     9
 10
168.31345571461009
 20
208.4272506265981
 30
0.0
 11
246.27779671058539
 21
208.4272506265981
 31
0.0
  0
LINE
  5
26B8
  8
ケーブル
 62
     9
 10
244.27779671058539
 20
256.92721797122363
 30
0.0
 11
244.27779671058539
 21
210.9272506265981
 31
0.0
  0
SOLID
  5
26B9
  8
ケーブル
 62
     9
 10
243.86113004391879
 20
256.92721797122363
 30
0.0
 11
244.69446337725211
 21
256.92721797122363
 31
0.0
 12
244.27779671058539
 22
259.42721797122363
 32
0.0
 13
244.27779671058539
 23
259.42721797122363
 33
0.0
  0
SOLID
  5
26BA
  8
ケーブル
 62
     9
 10
243.86113004391879
 20
210.9272506265981
 30
0.0
 11
244.69446337725211
 21
210.9272506265981
 31
0.0
 12
244.27779671058539
 22
208.4272506265981
 32
0.0
 13
244.27779671058539
 23
208.4272506265981
 33
0.0
  0
INSERT
  5
26BB
  8
1
  2
*U37
 10
0.0
 20
0.0
 30
0.0
  0
POINT
  5
26BC
  8
DEFPOINTS
 62
     0
 10
167.31345571461009
 20
259.42721797122363
 30
0.0
  0
POINT
  5
26BD
  8
DEFPOINTS
 62
     0
 10
167.31345571461009
 20
208.4272506265981
 30
0.0
  0
POINT
  5
26BE
  8
DEFPOINTS
 62
     0
 10
244.27779671058539
 20
208.4272506265981
 30
0.0
  0
ENDBLK
  5
25F9
  8
0
  0
BLOCK
  8
0
  2
*U37
 70
     1
 10
0.0
 20
0.0
 30
0.0
  3
*U37
  1

  0
TEXT
  5
2970
  8
ケーブル
 62
     2
 10
243.77779671058539
 20
231.66056763224421
 30
0.0
 40
3.5
  1
51
 50
90.0
 41
0.8
  7
AD-STANDARD
  0
ENDBLK
  5
2972
  8
0
  0
BLOCK
  8
0
  2
*D38
 70
     1
 10
0.0
 20
0.0
 30
0.0
  3
*D38
  1

  0
LINE
  5
26BF
  8
ケーブル
 62
     9
 10
181.86925402365449
 20
354.6670729060736
 30
0.0
 11
189.7692540236545
 21
354.6670729060736
 31
0.0
  0
INSERT
  5
26C0
  8
1
  2
*U39
 10
0.0
 20
0.0
 30
0.0
  0
SOLID
  5
26C1
  8
ケーブル
 62
     9
 10
189.7692540236545
 20
355.08373957274023
 30
0.0
 11
189.7692540236545
 21
354.25040623940691
 31
0.0
 12
192.2692540236545
 22
354.6670729060736
 32
0.0
 13
192.2692540236545
 23
354.6670729060736
 33
0.0
  0
POINT
  5
26C2
  8
DEFPOINTS
 62
     0
 10
192.2692540236545
 20
354.6670729060736
 30
0.0
  0
POINT
  5
26C3
  8
DEFPOINTS
 62
     0
 10
184.2692540236545
 20
354.6670729060736
 30
0.0
  0
ENDBLK
  5
2605
  8
0
  0
BLOCK
  8
0
  2
*U39
 70
     1
 10
0.0
 20
0.0
 30
0.0
  3
*U39
  1

  0
TEXT
  5
2974
  8
ケーブル
 62
     2
 10
181.96925402365451
 20
355.1670729060736
 30
0.0
 40
3.5
  1
\U+22058
 41
0.8
  7
AD-STANDARD
  0
ENDBLK
  5
2976
  8
0
  0
BLOCK
  8
0
  2
*D40
 70
     1
 10
0.0
 20
0.0
 30
0.0
  3
*D40
  1

  0
LINE
  5
26C4
  8
ケーブル
 62
     9
 10
212.98776033482849
 20
342.07273109321159
 30
0.0
 11
205.08861869424669
 21
342.18918426846312
 31
0.0
  0
INSERT
  5
26C5
  8
1
  2
*U41
 10
0.0
 20
0.0
 30
0.0
  0
SOLID
  5
26C6
  8
ケーブル
 62
     9
 10
205.09476073935491
 20
342.6058056630086
 30
0.0
 11
205.0824766491385
 21
341.77256287391771
 31
0.0
 12
202.588890326974
 22
342.22603653911227
 32
0.0
 13
202.588890326974
 23
342.22603653911227
 33
0.0
  0
POINT
  5
26C7
  8
DEFPOINTS
 62
     0
 10
202.588890326974
 20
342.22603653911227
 30
0.0
  0
POINT
  5
26C8
  8
DEFPOINTS
 62
     0
 10
210.5880211022465
 20
342.10810927303493
 30
0.0
  0
ENDBLK
  5
260D
  8
0
  0
BLOCK
  8
0
  2
*U41
 70
     1
 10
0.0
 20
0.0
 30
0.0
  3
*U41
  1

  0
TEXT
  5
2978
  8
ケーブル
 62
     2
 10
207.69570665034021
 20
342.65080358044253
 30
0.0
 40
3.5
  1
\U+22058
 50
359.15537758003018
 41
0.8
  7
AD-STANDARD
  0
ENDBLK
  5
297A
  8
0
  0
BLOCK
  8
0
  2
*D42
 70
     1
 10
0.0
 20
0.0
 30
0.0
  3
*D42
  1

  0
LINE
  5
26C9
  8
ケーブル
 62
     9
 10
181.86925402365449
 20
329.6670729060736
 30
0.0
 11
189.7692540236545
 21
329.6670729060736
 31
0.0
  0
INSERT
  5
26CA
  8
1
  2
*U43
 10
0.0
 20
0.0
 30
0.0
  0
SOLID
  5
26CB
  8
ケーブル
 62
     9
 10
189.7692540236545
 20
330.08373957274023
 30
0.0
 11
189.7692540236545
 21
329.25040623940691
 31
0.0
 12
192.2692540236545
 22
329.6670729060736
 32
0.0
 13
192.2692540236545
 23
329.6670729060736
 33
0.0
  0
POINT
  5
26CC
  8
DEFPOINTS
 62
     0
 10
192.2692540236545
 20
329.6670729060736
 30
0.0
  0
POINT
  5
26CD
  8
DEFPOINTS
 62
     0
 10
184.2692540236545
 20
329.6670729060736
 30
0.0
  0
ENDBLK
  5
2615
  8
0
  0
BLOCK
  8
0
  2
*U43
 70
     1
 10
0.0
 20
0.0
 30
0.0
  3
*U43
  1

  0
TEXT
  5
297C
  8
ケーブル
 62
     2
 10
181.96925402365451
 20
330.1670729060736
 30
0.0
 40
3.5
  1
\U+22058
 41
0.8
  7
AD-STANDARD
  0
ENDBLK
  5
297E
  8
0
  0
BLOCK
  8
0
  2
*D44
 70
     1
 10
0.0
 20
0.0
 30
0.0
  3
*D44
  1

  0
LINE
  5
26CE
  8
ケーブル
 62
     9
 10
8.2884557146095368
 20
368.1670729060736
 30
0.0
 11
8.2884557146095421
 21
401.30470593913952
 31
0.0
  0
LINE
  5
26CF
  8
ケーブル
 62
     9
 10
218.28845571460951
 20
368.1670729060736
 30
0.0
 11
218.28845571460951
 21
401.30470593913952
 31
0.0
  0
LINE
  5
26D0
  8
ケーブル
 62
     9
 10
10.78845571460954
 20
399.30470593913952
 30
0.0
 11
215.7884557146096
 21
399.30470593913952
 31
0.0
  0
SOLID
  5
26D1
  8
ケーブル
 62
     9
 10
10.78845571460954
 20
399.72137260580632
 30
0.0
 11
10.78845571460954
 21
398.88803927247278
 31
0.0
 12
8.2884557146095421
 22
399.30470593913952
 32
0.0
 13
8.2884557146095421
 23
399.30470593913952
 33
0.0
  0
SOLID
  5
26D2
  8
ケーブル
 62
     9
 10
215.7884557146096
 20
399.72137260580632
 30
0.0
 11
215.7884557146096
 21
398.88803927247278
 31
0.0
 12
218.28845571460951
 22
399.30470593913952
 32
0.0
 13
218.28845571460951
 23
399.30470593913952
 33
0.0
  0
INSERT
  5
26D3
  8
1
  2
*U45
 10
0.0
 20
0.0
 30
0.0
  0
POINT
  5
26D4
  8
DEFPOINTS
 62
     0
 10
8.2884557146095368
 20
367.1670729060736
 30
0.0
  0
POINT
  5
26D5
  8
DEFPOINTS
 62
     0
 10
218.28845571460951
 20
367.1670729060736
 30
0.0
  0
POINT
  5
26D6
  8
DEFPOINTS
 62
     0
 10
218.28845571460951
 20
399.30470593913952
 30
0.0
  0
ENDBLK
  5
261D
  8
0
  0
BLOCK
  8
0
  2
*U45
 70
     1
 10
0.0
 20
0.0
 30
0.0
  3
*U45
  1

  0
TEXT
  5
2980
  8
ケーブル
 62
     2
 10
109.2884557146095
 20
399.80470593913941
 30
0.0
 40
3.5
  1
210
 41
0.8
  7
AD-STANDARD
  0
ENDBLK
  5
2982
  8
0
  0
BLOCK
  8
0
  2
*D46
 70
     1
 10
0.0
 20
0.0
 30
0.0
  3
*D46
  1

  0
LINE
  5
26D7
  8
ケーブル
 62
     9
 10
8.2884557146095368
 20
368.1670729060736
 30
0.0
 11
8.2884557146095421
 21
387.89244953926232
 31
0.0
  0
LINE
  5
26D8
  8
ケーブル
 62
     9
 10
23.288455714608631
 20
368.1670729060736
 30
0.0
 11
23.288455714608631
 21
387.89244953926232
 31
0.0
  0
LINE
  5
26D9
  8
ケーブル
 62
     9
 10
10.78845571460954
 20
385.89244953926232
 30
0.0
 11
20.788455714608631
 21
385.89244953926232
 31
0.0
  0
SOLID
  5
26DA
  8
ケーブル
 62
     9
 10
10.78845571460954
 20
386.30911620592912
 30
0.0
 11
10.78845571460954
 21
385.47578287259557
 31
0.0
 12
8.2884557146095421
 22
385.89244953926232
 32
0.0
 13
8.2884557146095421
 23
385.89244953926232
 33
0.0
  0
SOLID
  5
26DB
  8
ケーブル
 62
     9
 10
20.788455714608631
 20
386.30911620592912
 30
0.0
 11
20.788455714608631
 21
385.47578287259557
 31
0.0
 12
23.288455714608631
 22
385.89244953926232
 32
0.0
 13
23.288455714608631
 23
385.89244953926232
 33
0.0
  0
INSERT
  5
26DC
  8
1
  2
*U47
 10
0.0
 20
0.0
 30
0.0
  0
POINT
  5
26DD
  8
DEFPOINTS
 62
     0
 10
8.2884557146095368
 20
367.1670729060736
 30
0.0
  0
POINT
  5
26DE
  8
DEFPOINTS
 62
     0
 10
23.288455714608631
 20
367.1670729060736
 30
0.0
  0
POINT
  5
26DF
  8
DEFPOINTS
 62
     0
 10
23.288455714608631
 20
385.89244953926232
 30
0.0
  0
ENDBLK
  5
2629
  8
0
  0
BLOCK
  8
0
  2
*U47
 70
     1
 10
0.0
 20
0.0
 30
0.0
  3
*U47
  1

  0
TEXT
  5
2984
  8
ケーブル
 62
     2
 10
12.92178904794242
 20
386.39244953926232
 30
0.0
 40
3.5
  1
15
 41
0.8
  7
AD-STANDARD
  0
ENDBLK
  5
2986
  8
0
  0
BLOCK
  8
0
  2
*D48
 70
     1
 10
0.0
 20
0.0
 30
0.0
  3
*D48
  1

  0
LINE
  5
26E0
  8
ケーブル
 62
     9
 10
58.28845571460954
 20
355.6670729060736
 30
0.0
 11
58.28845571460954
 21
387.82644826783712
 31
0.0
  0
LINE
  5
26E1
  8
ケーブル
 62
     9
 10
23.28845571460954
 20
355.6670729060736
 30
0.0
 11
23.28845571460954
 21
387.82644826783712
 31
0.0
  0
LINE
  5
26E2
  8
ケーブル
 62
     9
 10
55.78845571460954
 20
385.82644826783712
 30
0.0
 11
25.78845571460954
 21
385.82644826783712
 31
0.0
  0
SOLID
  5
26E3
  8
ケーブル
 62
     9
 10
55.78845571460954
 20
386.24311493450381
 30
0.0
 11
55.78845571460954
 21
385.40978160117032
 31
0.0
 12
58.28845571460954
 22
385.82644826783712
 32
0.0
 13
58.28845571460954
 23
385.82644826783712
 33
0.0
  0
SOLID
  5
26E4
  8
ケーブル
 62
     9
 10
25.78845571460954
 20
386.24311493450381
 30
0.0
 11
25.78845571460954
 21
385.40978160117032
 31
0.0
 12
23.28845571460954
 22
385.82644826783712
 32
0.0
 13
23.28845571460954
 23
385.82644826783712
 33
0.0
  0
INSERT
  5
26E5
  8
1
  2
*U49
 10
0.0
 20
0.0
 30
0.0
  0
POINT
  5
26E6
  8
DEFPOINTS
 62
     0
 10
58.28845571460954
 20
354.6670729060736
 30
0.0
  0
POINT
  5
26E7
  8
DEFPOINTS
 62
     0
 10
23.28845571460954
 20
354.6670729060736
 30
0.0
  0
POINT
  5
26E8
  8
DEFPOINTS
 62
     0
 10
23.28845571460954
 20
385.82644826783712
 30
0.0
  0
ENDBLK
  5
2635
  8
0
  0
BLOCK
  8
0
  2
*U49
 70
     1
 10
0.0
 20
0.0
 30
0.0
  3
*U49
  1

  0
TEXT
  5
2988
  8
ケーブル
 62
     2
 10
38.12178904794289
 20
386.32644826783712
 30
0.0
 40
3.5
  1
35
 41
0.8
  7
AD-STANDARD
  0
ENDBLK
  5
298A
  8
0
  0
BLOCK
  8
0
  2
*D50
 70
     1
 10
0.0
 20
0.0
 30
0.0
  3
*D50
  1

  0
LINE
  5
26E9
  8
ケーブル
 62
     9
 10
22.28845571460954
 20
354.6670729060736
 30
0.0
 11
-2.9346289386024802
 21
354.6670729060736
 31
0.0
  0
LINE
  5
26EA
  8
ケーブル
 62
     9
 10
22.28845571460954
 20
329.6670729060736
 30
0.0
 11
-2.934628938602486
 21
329.6670729060736
 31
0.0
  0
LINE
  5
26EB
  8
ケーブル
 62
     9
 10
-0.9346289386024814
 20
352.1670729060736
 30
0.0
 11
-0.9346289386024858
 21
332.1670729060736
 31
0.0
  0
SOLID
  5
26EC
  8
ケーブル
 62
     9
 10
-1.351295605269148
 20
352.1670729060736
 30
0.0
 11
-0.517962271935815
 21
352.1670729060736
 31
0.0
 12
-0.9346289386024808
 22
354.6670729060736
 32
0.0
 13
-0.9346289386024808
 23
354.6670729060736
 33
0.0
  0
SOLID
  5
26ED
  8
ケーブル
 62
     9
 10
-1.351295605269152
 20
332.1670729060736
 30
0.0
 11
-0.5179622719358195
 21
332.1670729060736
 31
0.0
 12
-0.9346289386024864
 22
329.6670729060736
 32
0.0
 13
-0.9346289386024864
 23
329.6670729060736
 33
0.0
  0
INSERT
  5
26EE
  8
1
  2
*U51
 10
0.0
 20
0.0
 30
0.0
  0
POINT
  5
26EF
  8
DEFPOINTS
 62
     0
 10
23.28845571460954
 20
354.6670729060736
 30
0.0
  0
POINT
  5
26F0
  8
DEFPOINTS
 62
     0
 10
23.28845571460954
 20
329.6670729060736
 30
0.0
  0
POINT
  5
26F1
  8
DEFPOINTS
 62
     0
 10
-0.9346289386024864
 20
329.6670729060736
 30
0.0
  0
ENDBLK
  5
2641
  8
0
  0
BLOCK
  8
0
  2
*U51
 70
     1
 10
0.0
 20
0.0
 30
0.0
  3
*U51
  1

  0
TEXT
  5
298C
  8
ケーブル
 62
     2
 10
-1.4346289386025339
 20
339.50040623940703
 30
0.0
 40
3.5
  1
25
 50
90.0
 41
0.8
  7
AD-STANDARD
  0
ENDBLK
  5
298E
  8
0
  0
BLOCK
  8
0
  2
*D52
 70
     1
 10
0.0
 20
0.0
 30
0.0
  3
*D52
  1

  0
LINE
  5
26F2
  8
ケーブル
 62
     9
 10
60.021137270104759
 20
311.1670729060736
 30
0.0
 11
49.145127647806142
 21
311.1670729060736
 31
0.0
  0
LINE
  5
26F3
  8
ケーブル
 62
     9
 10
60.021137270104759
 20
317.1670729060736
 30
0.0
 11
49.145127647806142
 21
317.1670729060736
 31
0.0
  0
LINE
  5
26F4
  8
ケーブル
 62
     9
 10
51.145127647806127
 20
308.6670729060736
 30
0.0
 11
51.145127647806127
 21
306.1670729060736
 31
0.0
  0
LINE
  5
26F5
  8
ケーブル
 62
     9
 10
51.145127647806127
 20
319.6670729060736
 30
0.0
 11
51.145127647806127
 21
322.1670729060736
 31
0.0
  0
LINE
  5
26F6
  8
ケーブル
 62
     9
 10
51.145127647806127
 20
311.1670729060736
 30
0.0
 11
51.145127647806127
 21
317.1670729060736
 31
0.0
  0
SOLID
  5
26F7
  8
ケーブル
 62
     9
 10
50.72846098113947
 20
308.6670729060736
 30
0.0
 11
51.561794314472799
 21
308.6670729060736
 31
0.0
 12
51.145127647806127
 22
311.1670729060736
 32
0.0
 13
51.145127647806127
 23
311.1670729060736
 33
0.0
  0
SOLID
  5
26F8
  8
ケーブル
 62
     9
 10
50.72846098113947
 20
319.6670729060736
 30
0.0
 11
51.561794314472799
 21
319.6670729060736
 31
0.0
 12
51.145127647806127
 22
317.1670729060736
 32
0.0
 13
51.145127647806127
 23
317.1670729060736
 33
0.0
  0
INSERT
  5
26F9
  8
1
  2
*U53
 10
0.0
 20
0.0
 30
0.0
  0
POINT
  5
26FA
  8
DEFPOINTS
 62
     0
 10
61.021137270104752
 20
311.1670729060736
 30
0.0
  0
POINT
  5
26FB
  8
DEFPOINTS
 62
     0
 10
61.021137270104752
 20
317.1670729060736
 30
0.0
  0
POINT
  5
26FC
  8
DEFPOINTS
 62
     0
 10
51.145127647806127
 20
317.1670729060736
 30
0.0
  0
ENDBLK
  5
264D
  8
0
  0
BLOCK
  8
0
  2
*U53
 70
     1
 10
0.0
 20
0.0
 30
0.0
  3
*U53
  1

  0
TEXT
  5
2990
  8
ケーブル
 62
     2
 10
50.645127647806092
 20
312.76707290607351
 30
0.0
 40
3.5
  1
6
 50
90.0
 41
0.8
  7
AD-STANDARD
  0
ENDBLK
  5
2992
  8
0
  0
BLOCK
  8
0
  2
*D54
 70
     1
 10
0.0
 20
0.0
 30
0.0
  3
*D54
  1

  0
LINE
  5
26FD
  8
ケーブル
 62
     9
 10
40.312157564969169
 20
354.34627408602228
 30
0.0
 11
29.787301928702799
 21
354.54460705137922
 31
0.0
  0
LINE
  5
26FE
  8
ケーブル
 62
     9
 10
16.789609500518079
 20
354.78953876076957
 30
0.0
 11
14.290053264328391
 21
354.83664101257563
 31
0.0
  0
INSERT
  5
26FF
  8
1
  2
*U55
 10
0.0
 20
0.0
 30
0.0
  0
LINE
  5
2700
  8
ケーブル
 62
     9
 10
19.28916573670779
 20
354.74243650896392
 30
0.0
 11
27.287745692513109
 21
354.5917093031851
 31
0.0
  0
SOLID
  5
2701
  8
ケーブル
 62
     9
 10
16.797459875819069
 20
355.20613146680148
 30
0.0
 11
16.7817591252171
 21
354.37294605473812
 31
0.0
 12
19.28916573670779
 22
354.74243650896392
 32
0.0
 13
19.28916573670779
 23
354.74243650896392
 33
0.0
  0
SOLID
  5
2702
  8
ケーブル
 62
     9
 10
29.795152304003789
 20
354.96119975741078
 30
0.0
 11
29.779451553401831
 21
354.12801434534759
 31
0.0
 12
27.287745692513109
 22
354.5917093031851
 32
0.0
 13
27.287745692513109
 23
354.5917093031851
 33
0.0
  0
POINT
  5
2703
  8
DEFPOINTS
 62
     0
 10
27.287745692513109
 20
354.5917093031851
 30
0.0
  0
POINT
  5
2704
  8
DEFPOINTS
 62
     0
 10
19.28916573670779
 20
354.74243650896392
 30
0.0
  0
ENDBLK
  5
265B
  8
0
  0
BLOCK
  8
0
  2
*U55
 70
     1
 10
0.0
 20
0.0
 30
0.0
  3
*U55
  1

  0
TEXT
  5
2994
  8
ケーブル
 62
     2
 10
35.022518794608182
 20
354.94604210708877
 30
0.0
 40
3.5
  1
\U+22058
 50
358.92043202920189
 41
0.8
  7
AD-STANDARD
  0
ENDBLK
  5
2996
  8
0
  0
BLOCK
  8
0
  2
*D56
 70
     1
 10
0.0
 20
0.0
 30
0.0
  3
*D56
  1

  0
LINE
  5
2705
  8
ケーブル
 62
     9
 10
43.889511951450281
 20
354.4926638886281
 30
0.0
 11
51.788932488183683
 21
354.5883466134768
 31
0.0
  0
LINE
  5
2706
  8
ケーブル
 62
     9
 10
64.787978941036286
 20
354.74579919867028
 30
0.0
 11
67.287795566584819
 21
354.7760785419768
 31
0.0
  0
INSERT
  5
2707
  8
1
  2
*U57
 10
0.0
 20
0.0
 30
0.0
  0
LINE
  5
2708
  8
ケーブル
 62
     9
 10
62.288162315487739
 20
354.71551985536382
 30
0.0
 11
54.288749113732237
 21
354.61862595678321
 31
0.0
  0
SOLID
  5
2709
  8
ケーブル
 62
     9
 10
64.782932383818547
 20
355.16243530292849
 30
0.0
 11
64.793025498254039
 21
354.32916309441231
 31
0.0
 12
62.288162315487739
 22
354.71551985536382
 32
0.0
 13
62.288162315487739
 23
354.71551985536382
 33
0.0
  0
SOLID
  5
270A
  8
ケーブル
 62
     9
 10
51.783885930965951
 20
355.00498271773489
 30
0.0
 11
51.793979045401443
 21
354.17171050921883
 31
0.0
 12
54.288749113732237
 22
354.61862595678321
 32
0.0
 13
54.288749113732237
 23
354.61862595678321
 33
0.0
  0
POINT
  5
270B
  8
DEFPOINTS
 62
     0
 10
54.288749113732237
 20
354.61862595678321
 30
0.0
  0
POINT
  5
270C
  8
DEFPOINTS
 62
     0
 10
62.288162315487739
 20
354.71551985536382
 30
0.0
  0
ENDBLK
  5
2666
  8
0
  0
BLOCK
  8
0
  2
*U57
 70
     1
 10
0.0
 20
0.0
 30
0.0
  3
*U57
  1

  0
TEXT
  5
2998
  8
ケーブル
 62
     2
 10
43.983448747810918
 20
354.9938383874703
 30
0.0
 40
3.5
  1
\U+22058
 50
0.6939683987147275
 41
0.8
  7
AD-STANDARD
  0
ENDBLK
  5
299A
  8
0
  0
BLOCK
  8
0
  2
*D58
 70
     1
 10
0.0
 20
0.0
 30
0.0
  3
*D58
  1

  0
LINE
  5
270D
  8
ケーブル
 62
     9
 10
43.888455714609528
 20
329.6670729060736
 30
0.0
 11
51.78845571460954
 21
329.6670729060736
 31
0.0
  0
LINE
  5
270E
  8
ケーブル
 62
     9
 10
64.78845571460954
 20
329.6670729060736
 30
0.0
 11
67.28845571460954
 21
329.6670729060736
 31
0.0
  0
INSERT
  5
270F
  8
1
  2
*U59
 10
0.0
 20
0.0
 30
0.0
  0
LINE
  5
2710
  8
ケーブル
 62
     9
 10
62.28845571460954
 20
329.6670729060736
 30
0.0
 11
54.28845571460954
 21
329.6670729060736
 31
0.0
  0
SOLID
  5
2711
  8
ケーブル
 62
     9
 10
64.78845571460954
 20
330.08373957274023
 30
0.0
 11
64.78845571460954
 21
329.25040623940691
 31
0.0
 12
62.28845571460954
 22
329.6670729060736
 32
0.0
 13
62.28845571460954
 23
329.6670729060736
 33
0.0
  0
SOLID
  5
2712
  8
ケーブル
 62
     9
 10
51.78845571460954
 20
330.08373957274023
 30
0.0
 11
51.78845571460954
 21
329.25040623940691
 31
0.0
 12
54.28845571460954
 22
329.6670729060736
 32
0.0
 13
54.28845571460954
 23
329.6670729060736
 33
0.0
  0
POINT
  5
2713
  8
DEFPOINTS
 62
     0
 10
54.28845571460954
 20
329.6670729060736
 30
0.0
  0
POINT
  5
2714
  8
DEFPOINTS
 62
     0
 10
62.28845571460954
 20
329.6670729060736
 30
0.0
  0
ENDBLK
  5
2671
  8
0
  0
BLOCK
  8
0
  2
*U59
 70
     1
 10
0.0
 20
0.0
 30
0.0
  3
*U59
  1

  0
TEXT
  5
299C
  8
ケーブル
 62
     2
 10
43.988455714609522
 20
330.1670729060736
 30
0.0
 40
3.5
  1
\U+22058
 41
0.8
  7
AD-STANDARD
  0
ENDBLK
  5
299E
  8
0
  0
BLOCK
  8
0
  2
*D60
 70
     1
 10
0.0
 20
0.0
 30
0.0
  3
*D60
  1

  0
LINE
  5
2715
  8
ケーブル
 62
     9
 10
219.28845571460951
 20
367.1670729060736
 30
0.0
 11
244.00410080638781
 21
367.1670729060736
 31
0.0
  0
LINE
  5
2716
  8
ケーブル
 62
     9
 10
219.28845571460951
 20
317.1670729060736
 30
0.0
 11
244.00410080638781
 21
317.1670729060736
 31
0.0
  0
LINE
  5
2717
  8
ケーブル
 62
     9
 10
242.00410080638781
 20
364.6670729060736
 30
0.0
 11
242.00410080638781
 21
319.6670729060736
 31
0.0
  0
SOLID
  5
2718
  8
ケーブル
 62
     9
 10
241.58743413972121
 20
364.6670729060736
 30
0.0
 11
242.4207674730545
 21
364.6670729060736
 31
0.0
 12
242.00410080638781
 22
367.1670729060736
 32
0.0
 13
242.00410080638781
 23
367.1670729060736
 33
0.0
  0
SOLID
  5
2719
  8
ケーブル
 62
     9
 10
241.5874341397211
 20
319.6670729060736
 30
0.0
 11
242.4207674730545
 21
319.6670729060736
 31
0.0
 12
242.00410080638781
 22
317.1670729060736
 32
0.0
 13
242.00410080638781
 23
317.1670729060736
 33
0.0
  0
INSERT
  5
271A
  8
1
  2
*U61
 10
0.0
 20
0.0
 30
0.0
  0
POINT
  5
271B
  8
DEFPOINTS
 62
     0
 10
218.28845571460951
 20
367.1670729060736
 30
0.0
  0
POINT
  5
271C
  8
DEFPOINTS
 62
     0
 10
218.28845571460951
 20
317.1670729060736
 30
0.0
  0
POINT
  5
271D
  8
DEFPOINTS
 62
     0
 10
242.00410080638781
 20
317.1670729060736
 30
0.0
  0
ENDBLK
  5
267C
  8
0
  0
BLOCK
  8
0
  2
*U61
 70
     1
 10
0.0
 20
0.0
 30
0.0
  3
*U61
  1

  0
TEXT
  5
29A0
  8
ケーブル
 62
     2
 10
241.50410080638781
 20
339.50040623940788
 30
0.0
 40
3.5
  1
50
 50
90.0
 41
0.8
  7
AD-STANDARD
  0
ENDBLK
  5
29A2
  8
0
  0
BLOCK
  8
0
  2
*D62
 70
     1
 10
0.0
 20
0.0
 30
0.0
  3
*D62
  1

  0
LINE
  5
271E
  8
ケーブル
 62
     9
 10
189.29805656008679
 20
354.6670729060736
 30
0.0
 11
235.3683193137864
 21
354.6670729060736
 31
0.0
  0
LINE
  5
271F
  8
ケーブル
 62
     9
 10
189.278854869132
 20
329.6670729060736
 30
0.0
 11
235.3683193137864
 21
329.6670729060736
 31
0.0
  0
LINE
  5
2720
  8
ケーブル
 62
     9
 10
233.3683193137864
 20
352.1670729060736
 30
0.0
 11
233.3683193137864
 21
332.1670729060736
 31
0.0
  0
SOLID
  5
2721
  8
ケーブル
 62
     9
 10
232.95165264711989
 20
352.1670729060736
 30
0.0
 11
233.784985980453
 21
352.1670729060736
 31
0.0
 12
233.3683193137864
 22
354.6670729060736
 32
0.0
 13
233.3683193137864
 23
354.6670729060736
 33
0.0
  0
SOLID
  5
2722
  8
ケーブル
 62
     9
 10
232.95165264711989
 20
332.1670729060736
 30
0.0
 11
233.784985980453
 21
332.1670729060736
 31
0.0
 12
233.3683193137864
 22
329.6670729060736
 32
0.0
 13
233.3683193137864
 23
329.6670729060736
 33
0.0
  0
INSERT
  5
2723
  8
1
  2
*U63
 10
0.0
 20
0.0
 30
0.0
  0
POINT
  5
2724
  8
DEFPOINTS
 62
     0
 10
188.29805656008679
 20
354.6670729060736
 30
0.0
  0
POINT
  5
2725
  8
DEFPOINTS
 62
     0
 10
188.278854869132
 20
329.6670729060736
 30
0.0
  0
POINT
  5
2726
  8
DEFPOINTS
 62
     0
 10
233.3683193137864
 20
329.6670729060736
 30
0.0
  0
ENDBLK
  5
2688
  8
0
  0
BLOCK
  8
0
  2
*U63
 70
     1
 10
0.0
 20
0.0
 30
0.0
  3
*U63
  1

  0
TEXT
  5
29A4
  8
ケーブル
 62
     2
 10
232.86831931378629
 20
339.50040623940703
 30
0.0
 40
3.5
  1
25
 50
90.0
 41
0.8
  7
AD-STANDARD
  0
ENDBLK
  5
29A6
  8
0
  0
BLOCK
  8
0
  2
*D64
 70
     1
 10
0.0
 20
0.0
 30
0.0
  3
*D64
  1

  0
LINE
  5
2727
  8
ケーブル
 62
     9
 10
218.28845571460951
 20
368.1670729060736
 30
0.0
 11
218.28845571460951
 21
378.11196573945602
 31
0.0
  0
LINE
  5
2728
  8
ケーブル
 62
     9
 10
206.58845571460881
 20
368.1670729060736
 30
0.0
 11
206.58845571460881
 21
378.11196573945602
 31
0.0
  0
LINE
  5
2729
  8
ケーブル
 62
     9
 10
215.7884557146096
 20
376.11196573945602
 30
0.0
 11
209.08845571460881
 21
376.11196573945602
 31
0.0
  0
SOLID
  5
272A
  8
ケーブル
 62
     9
 10
215.7884557146096
 20
376.52863240612248
 30
0.0
 11
215.7884557146096
 21
375.69529907278923
 31
0.0
 12
218.28845571460951
 22
376.11196573945602
 32
0.0
 13
218.28845571460951
 23
376.11196573945602
 33
0.0
  0
SOLID
  5
272B
  8
ケーブル
 62
     9
 10
209.08845571460881
 20
376.52863240612248
 30
0.0
 11
209.08845571460881
 21
375.69529907278923
 31
0.0
 12
206.58845571460881
 22
376.11196573945602
 32
0.0
 13
206.58845571460881
 23
376.11196573945602
 33
0.0
  0
INSERT
  5
272C
  8
1
  2
*U65
 10
0.0
 20
0.0
 30
0.0
  0
POINT
  5
272D
  8
DEFPOINTS
 62
     0
 10
218.28845571460951
 20
367.1670729060736
 30
0.0
  0
POINT
  5
272E
  8
DEFPOINTS
 62
     0
 10
206.58845571460881
 20
367.1670729060736
 30
0.0
  0
POINT
  5
272F
  8
DEFPOINTS
 62
     0
 10
206.58845571460881
 20
376.11196573945602
 30
0.0
  0
ENDBLK
  5
2694
  8
0
  0
BLOCK
  8
0
  2
*U65
 70
     1
 10
0.0
 20
0.0
 30
0.0
  3
*U65
  1

  0
TEXT
  5
29A8
  8
ケーブル
 62
     2
 10
207.5717890479425
 20
376.61196573945602
 30
0.0
 40
3.5
  1
11.7
 41
0.8
  7
AD-STANDARD
  0
ENDBLK
  5
29AA
  8
0
  0
BLOCK
  8
0
  2
*D66
 70
     1
 10
0.0
 20
0.0
 30
0.0
  3
*D66
  1

  0
LINE
  5
2730
  8
ケーブル
 62
     9
 10
188.28845571460951
 20
355.6670729060736
 30
0.0
 11
188.28845571460951
 21
378.01061128601418
 31
0.0
  0
LINE
  5
2731
  8
ケーブル
 62
     9
 10
206.58845571460969
 20
343.1670729060736
 30
0.0
 11
206.58845571460969
 21
378.01061128601418
 31
0.0
  0
LINE
  5
2732
  8
ケーブル
 62
     9
 10
190.78845571460951
 20
376.01061128601418
 30
0.0
 11
204.08845571460969
 21
376.01061128601418
 31
0.0
  0
SOLID
  5
2733
  8
ケーブル
 62
     9
 10
190.78845571460951
 20
376.42727795268092
 30
0.0
 11
190.78845571460951
 21
375.59394461934761
 31
0.0
 12
188.28845571460951
 22
376.01061128601418
 32
0.0
 13
188.28845571460951
 23
376.01061128601418
 33
0.0
  0
SOLID
  5
2734
  8
ケーブル
 62
     9
 10
204.08845571460969
 20
376.42727795268092
 30
0.0
 11
204.08845571460969
 21
375.59394461934761
 31
0.0
 12
206.58845571460969
 22
376.01061128601418
 32
0.0
 13
206.58845571460969
 23
376.01061128601418
 33
0.0
  0
INSERT
  5
2735
  8
1
  2
*U67
 10
0.0
 20
0.0
 30
0.0
  0
POINT
  5
2736
  8
DEFPOINTS
 62
     0
 10
188.28845571460951
 20
354.6670729060736
 30
0.0
  0
POINT
  5
2737
  8
DEFPOINTS
 62
     0
 10
206.58845571460969
 20
342.1670729060736
 30
0.0
  0
POINT
  5
2738
  8
DEFPOINTS
 62
     0
 10
206.58845571460969
 20
376.01061128601418
 30
0.0
  0
ENDBLK
  5
26A0
  8
0
  0
BLOCK
  8
0
  2
*U67
 70
     1
 10
0.0
 20
0.0
 30
0.0
  3
*U67
  1

  0
TEXT
  5
29AC
  8
ケーブル
 62
     2
 10
192.5717890479429
 20
376.51061128601418
 30
0.0
 40
3.5
  1
18.3
 41
0.8
  7
AD-STANDARD
  0
ENDBLK
  5
29AE
  8
0
  0
BLOCK
  8
0
  2
*D68
 70
     1
 10
0.0
 20
0.0
 30
0.0
  3
*D68
  1

  0
LINE
  5
2739
  8
ケーブル
 62
     9
 10
219.28845571460951
 20
256.42723429891089
 30
0.0
 11
241.16791919780971
 21
256.42723429891089
 31
0.0
  0
LINE
  5
273A
  8
ケーブル
 62
     9
 10
219.28845571460951
 20
211.42723429891089
 30
0.0
 11
241.16791919780971
 21
211.42723429891089
 31
0.0
  0
LINE
  5
273B
  8
ケーブル
 62
     9
 10
239.16791919780971
 20
253.92723429891089
 30
0.0
 11
239.16791919780971
 21
213.92723429891089
 31
0.0
  0
SOLID
  5
273C
  8
ケーブル
 62
     9
 10
238.75125253114311
 20
253.92723429891089
 30
0.0
 11
239.5845858644764
 21
253.92723429891089
 31
0.0
 12
239.16791919780971
 22
256.42723429891089
 32
0.0
 13
239.16791919780971
 23
256.42723429891089
 33
0.0
  0
SOLID
  5
273D
  8
ケーブル
 62
     9
 10
238.75125253114311
 20
213.92723429891089
 30
0.0
 11
239.5845858644764
 21
213.92723429891089
 31
0.0
 12
239.16791919780971
 22
211.42723429891089
 32
0.0
 13
239.16791919780971
 23
211.42723429891089
 33
0.0
  0
INSERT
  5
273E
  8
1
  2
*U69
 10
0.0
 20
0.0
 30
0.0
  0
POINT
  5
273F
  8
DEFPOINTS
 62
     0
 10
218.28845571460951
 20
256.42723429891089
 30
0.0
  0
POINT
  5
2740
  8
DEFPOINTS
 62
     0
 10
218.28845571460951
 20
211.42723429891089
 30
0.0
  0
POINT
  5
2741
  8
DEFPOINTS
 62
     0
 10
239.16791919780971
 20
211.42723429891089
 30
0.0
  0
ENDBLK
  5
26AC
  8
0
  0
BLOCK
  8
0
  2
*U69
 70
     1
 10
0.0
 20
0.0
 30
0.0
  3
*U69
  1

  0
TEXT
  5
29B0
  8
ケーブル
 62
     2
 10
238.66791919780971
 20
231.2605676322442
 30
0.0
 40
3.5
  1
45
 50
90.0
 41
0.8
  7
AD-STANDARD
  0
ENDBLK
  5
29B2
  8
0
  0
BLOCK
  8
0
  2
*U70
 70
     1
 10
0.0
 20
0.0
 30
0.0
  3
*U70
  1

  0
TEXT
  5
2944
  8
ケーブル
 62
     2
 10
7.1073148799926162
 20
103.5083226563838
 30
0.0
 40
4.0
  1
4-M8
 41
0.8
  0
LINE
  5
2945
  8
ケーブル
  6
BYBLOCK
 10
21.200648213325621
 20
102.7083226563836
 30
0.0
 11
20.840648213325611
 21
102.7083226563836
 31
0.0
  0
POLYLINE
  5
2946
  8
ケーブル
  6
BYBLOCK
 66
     1
 10
0.0
 20
0.0
 30
0.0
  0
VERTEX
  5
356C
  8
ケーブル
  6
BYBLOCK
 10
26.482641955974369
 20
113.638318935515
 30
0.0
  0
VERTEX
  5
356D
  8
ケーブル
  6
BYBLOCK
 10
21.200648213325621
 20
102.7083226563836
 30
0.0
  0
SEQEND
  5
356E
  8
ケーブル
  6
BYBLOCK
  0
SOLID
  5
294A
  8
ケーブル
 10
25.88239129515441
 20
113.92839407858941
 30
0.0
 11
28.223092814420848
 21
117.2398229004347
 31
0.0
 12
27.082892616794339
 22
113.3482437924406
 32
0.0
 13
27.082892616794339
 23
113.3482437924406
 33
0.0
  0
POLYLINE
  5
294B
  8
ケーブル
  6
BYBLOCK
 66
     1
 10
0.0
 20
0.0
 30
0.0
  0
VERTEX
  5
356F
  8
ケーブル
  6
BYBLOCK
 10
7.1073148799922894
 20
102.7083226563836
 30
0.0
  0
VERTEX
  5
3570
  8
ケーブル
  6
BYBLOCK
 10
20.840648213325611
 20
102.7083226563836
 30
0.0
  0
SEQEND
  5
3571
  8
ケーブル
  6
BYBLOCK
  0
ENDBLK
  5
2950
  8
0
  0
BLOCK
  8
0
  2
*U71
 70
     1
 10
0.0
 20
0.0
 30
0.0
  3
*U71
  1

  0
TEXT
  5
2952
  8
ケーブル
 62
     6
 10
56.742759773318369
 20
208.80527666764371
 30
0.0
 40
5.0
  1
LC4103_外観図 16.06.08
 41
0.8
  7
AD-STANDARD
  0
TEXT
  5
2953
  8
ケーブル
 62
     6
 10
56.742759773318369
 20
200.4719433343104
 30
0.0
 40
5.0
  1
HPアップ用として作成
 41
0.8
  7
AD-STANDARD
  0
ENDBLK
  5
2955
  8
0
  0
ENDSEC
  0
SECTION
  2
ENTITIES
  0
LINE
  5
308E
  8
1
 10
34.192860251447989
 20
162.4820006032611
 30
0.0
 11
34.192860251447989
 21
144.48698131952651
 31
0.0
  0
LINE
  5
308F
  8
1
 10
34.192860251447989
 20
122.4820006032611
 30
0.0
 11
64.192860251447996
 21
122.4820006032611
 31
0.0
  0
LINE
  5
3090
  8
1
 10
154.19286025144709
 20
122.4820006032611
 30
0.0
 11
184.192860251448
 21
122.4820006032611
 31
0.0
  0
LINE
  5
3091
  8
1
 10
184.192860251448
 20
122.4820006032611
 30
0.0
 11
184.192860251448
 21
162.4820006032611
 31
0.0
  0
LINE
  5
3092
  8
1
 10
184.192860251448
 20
162.4820006032611
 30
0.0
 11
154.19286025144709
 21
162.4820006032611
 31
0.0
  0
LINE
  5
3093
  8
1
 10
64.192860251447996
 20
162.4820006032611
 30
0.0
 11
34.192860251447989
 21
162.4820006032611
 31
0.0
  0
LINE
  5
3094
  8
1
 10
34.192860251447989
 20
233.47810720838399
 30
0.0
 11
34.192860251447989
 21
203.4781072083839
 31
0.0
  0
LINE
  5
3095
  8
1
 10
34.192860251447989
 20
203.4781072083839
 30
0.0
 11
64.192860251447996
 21
203.4781072083839
 31
0.0
  0
LINE
  5
3096
  8
1
 10
154.192860251448
 20
203.4781072083839
 30
0.0
 11
184.192860251448
 21
203.4781072083839
 31
0.0
  0
LINE
  5
3097
  8
1
 10
184.192860251448
 20
203.4781072083839
 30
0.0
 11
184.192860251448
 21
233.47810720838399
 31
0.0
  0
LINE
  5
3098
  8
1
 10
184.192860251448
 20
233.47810720838399
 30
0.0
 11
154.192860251448
 21
233.47810720838399
 31
0.0
  0
LINE
  5
3099
  8
1
 10
64.192860251447996
 20
233.47810720838399
 30
0.0
 11
34.192860251447989
 21
233.47810720838399
 31
0.0
  0
LINE
  5
309A
  8
1
 10
252.3122609755645
 20
162.4820006032611
 30
0.0
 11
252.3122609755645
 21
122.4820006032611
 31
0.0
  0
LINE
  5
309B
  8
1
 10
252.3122609755645
 20
122.4820006032611
 30
0.0
 11
282.31226097556453
 21
122.4820006032611
 31
0.0
  0
LINE
  5
309C
  8
1
 10
282.31226097556453
 20
122.4820006032611
 30
0.0
 11
282.31226097556453
 21
162.4820006032611
 31
0.0
  0
LINE
  5
309D
  8
1
 10
282.31226097556453
 20
162.4820006032611
 30
0.0
 11
252.3122609755645
 21
162.4820006032611
 31
0.0
  0
LINE
  5
309E
  8
CENTER
 10
7.0087665726131192
 20
142.4820006032611
 30
0.0
 11
211.3769539302838
 21
142.4820006032611
 31
0.0
  0
LINE
  5
309F
  8
1
 10
34.192860251447989
 20
32.946957301268128
 30
0.0
 11
34.192860251447989
 21
62.946957301268128
 31
0.0
  0
LINE
  5
30A0
  8
1
 10
34.192860251447989
 20
62.946957301268128
 30
0.0
 11
64.192860251447996
 21
62.946957301268128
 31
0.0
  0
LINE
  5
30A1
  8
1
 10
154.192860251448
 20
62.946957301268128
 30
0.0
 11
184.192860251448
 21
62.946957301268128
 31
0.0
  0
LINE
  5
30A2
  8
1
 10
184.192860251448
 20
62.946957301268128
 30
0.0
 11
184.192860251448
 21
32.946957301268128
 31
0.0
  0
LINE
  5
30A3
  8
1
 10
184.192860251448
 20
32.946957301268128
 30
0.0
 11
154.192860251448
 21
32.946957301268128
 31
0.0
  0
LINE
  5
30A4
  8
1
 10
64.192860251447996
 20
32.946957301268128
 30
0.0
 11
34.192860251447989
 21
32.946957301268128
 31
0.0
  0
LINE
  5
30A5
  8
CENTER
 10
7.0087665726131192
 20
218.47810720838399
 30
0.0
 11
211.3769539302838
 21
218.47810720838399
 31
0.0
  0
LINE
  5
30A6
  8
CENTER
 10
7.0087665726131192
 20
47.946957301268128
 30
0.0
 11
211.3769539302838
 21
47.946957301268128
 31
0.0
  0
LINE
  5
30A7
  8
CENTER
 10
241.9342961614847
 20
142.4820006032611
 30
0.0
 11
292.69022578964262
 21
142.4820006032611
 31
0.0
  0
LINE
  5
30A8
  8
CENTER
 10
267.3122609755635
 20
172.48194940408089
 30
0.0
 11
267.3122609755635
 21
112.4820518024423
 31
0.0
  0
ARC
  5
30A9
  8
1
 10
94.192860251447996
 20
148.39200060326101
 30
0.0
 40
10.000000000000449
 50
6.2576731718467551
 51
216.22800338925151
  0
ARC
  5
30AA
  8
1
 10
94.192860251447996
 20
136.57200060326221
 30
0.0
 40
9.9999999999997833
 50
143.7719966107484
 51
353.74232682815313
  0
ARC
  5
30AB
  8
1
 10
124.192860251448
 20
148.39200060326101
 30
0.0
 40
10.00000000000032
 50
323.77199661074849
 51
173.74232682815301
  0
ARC
  5
30AC
  8
1
 10
124.192860251448
 20
136.5720006032613
 30
0.0
 40
10.000000000000449
 50
186.2576731718467
 51
36.228003389251498
  0
LINE
  5
30AD
  8
1
 10
104.13327774771081
 20
149.4820006032611
 30
0.0
 11
114.252442755186
 21
149.4820006032611
 31
0.0
  0
LINE
  5
30AE
  8
1
 10
104.1332777477099
 20
135.4820006032611
 30
0.0
 11
114.2524427551851
 21
135.4820006032611
 31
0.0
  0
ARC
  5
30AF
  8
1
 10
66.192860251447996
 20
158.9820006032611
 30
0.0
 40
2.0
 50
180.0
 51
0.0
  0
LINE
  5
30B0
  8
1
 10
68.192860251447996
 20
158.9820006032611
 30
0.0
 11
68.192860251448892
 21
160.48200060326201
 31
0.0
  0
LINE
  5
30B1
  8
1
 10
64.192860251447996
 20
161.98200060326201
 30
0.0
 11
64.192860251447996
 21
162.4820006032611
 31
0.0
  0
CIRCLE
  5
30B4
  8
1
 10
178.192860251448
 20
218.47810720838399
 30
0.0
 40
3.0
  0
CIRCLE
  5
30B5
  8
1
 10
178.192860251448
 20
218.47810720838399
 30
0.0
 40
2.5
  0
CIRCLE
  5
30B6
  8
1
 10
160.192860251448
 20
227.47810720838399
 30
0.0
 40
3.0
  0
CIRCLE
  5
30B7
  8
1
 10
160.192860251448
 20
227.47810720838399
 30
0.0
 40
2.5
  0
LINE
  5
30B8
  8
CENTER
 10
156.50324126520979
 20
227.47810720838399
 30
0.0
 11
163.8824792376862
 21
227.47810720838399
 31
0.0
  0
LINE
  5
30B9
  8
CENTER
 10
160.192860251448
 20
231.16772619462219
 30
0.0
 11
160.192860251448
 21
223.7884882221457
 31
0.0
  0
CIRCLE
  5
30BA
  8
1
 10
160.192860251448
 20
209.47810720838399
 30
0.0
 40
3.0
  0
CIRCLE
  5
30BB
  8
1
 10
160.192860251448
 20
209.47810720838399
 30
0.0
 40
2.5
  0
LINE
  5
30BC
  8
CENTER
 10
156.50324126520979
 20
209.47810720838399
 30
0.0
 11
163.8824792376862
 21
209.47810720838399
 31
0.0
  0
LINE
  5
30BD
  8
CENTER
 10
160.192860251448
 20
205.78848822214579
 30
0.0
 11
160.192860251448
 21
213.16772619462219
 31
0.0
  0
LINE
  5
30BE
  8
CENTER
 10
178.192860251448
 20
222.16772619462219
 30
0.0
 11
178.192860251448
 21
214.78848822214579
 31
0.0
  0
CIRCLE
  5
30BF
  8
1
 10
178.192860251448
 20
47.946957301268128
 30
0.0
 40
3.0
  0
CIRCLE
  5
30C0
  8
1
 10
178.192860251448
 20
47.946957301268128
 30
0.0
 40
2.5
  0
LINE
  5
30C1
  8
CENTER
 10
178.192860251448
 20
44.257338315029919
 30
0.0
 11
178.192860251448
 21
51.63657628750633
 31
0.0
  0
CIRCLE
  5
30C2
  8
1
 10
40.192860251447989
 20
56.946957301268128
 30
0.0
 40
3.0
  0
CIRCLE
  5
30C3
  8
1
 10
40.192860251447989
 20
56.946957301268128
 30
0.0
 40
2.5
  0
LINE
  5
30C4
  8
CENTER
 10
36.50324126520978
 20
56.946957301268128
 30
0.0
 11
43.882479237686169
 21
56.946957301268128
 31
0.0
  0
LINE
  5
30C5
  8
CENTER
 10
40.192860251447989
 20
60.636576287506323
 30
0.0
 11
40.192860251447989
 21
53.257338315029941
 31
0.0
  0
CIRCLE
  5
30C6
  8
1
 10
40.192860251447989
 20
38.946957301268149
 30
0.0
 40
3.0
  0
CIRCLE
  5
30C7
  8
1
 10
40.192860251447989
 20
38.946957301268149
 30
0.0
 40
2.5
  0
LINE
  5
30C8
  8
CENTER
 10
36.50324126520978
 20
38.946957301268149
 30
0.0
 11
43.882479237686169
 21
38.946957301268149
 31
0.0
  0
LINE
  5
30C9
  8
CENTER
 10
40.192860251447989
 20
35.257338315029934
 30
0.0
 11
40.192860251447989
 21
42.63657628750633
 31
0.0
  0
CIRCLE
  5
30CA
  8
1
 10
58.192860251447989
 20
56.946957301268128
 30
0.0
 40
3.0
  0
CIRCLE
  5
30CB
  8
1
 10
58.192860251447989
 20
56.946957301268128
 30
0.0
 40
2.5
  0
LINE
  5
30CC
  8
CENTER
 10
54.50324126520978
 20
56.946957301268128
 30
0.0
 11
61.882479237686169
 21
56.946957301268128
 31
0.0
  0
LINE
  5
30CD
  8
CENTER
 10
58.192860251447989
 20
60.636576287506323
 30
0.0
 11
58.192860251447989
 21
53.257338315029941
 31
0.0
  0
CIRCLE
  5
30CE
  8
1
 10
58.192860251447989
 20
38.946957301268149
 30
0.0
 40
3.0
  0
CIRCLE
  5
30CF
  8
1
 10
58.192860251447989
 20
38.946957301268149
 30
0.0
 40
2.5
  0
LINE
  5
30D0
  8
CENTER
 10
54.50324126520978
 20
38.946957301268149
 30
0.0
 11
61.882479237686169
 21
38.946957301268149
 31
0.0
  0
LINE
  5
30D1
  8
CENTER
 10
58.192860251447989
 20
35.257338315029934
 30
0.0
 11
58.192860251447989
 21
42.63657628750633
 31
0.0
  0
LINE
  5
30D2
  8
CENTER
 10
94.192860251447996
 20
124.0425376667114
 30
0.0
 11
94.192860251447996
 21
160.92146353980991
 31
0.0
  0
LINE
  5
30D3
  8
CENTER
 10
124.192860251448
 20
124.0425376667114
 30
0.0
 11
124.192860251448
 21
160.92146353980991
 31
0.0
  0
LINE
  5
30D4
  8
1
 10
80.29286025144836
 20
223.97810720838399
 30
0.0
 11
80.29286025144836
 21
212.97810720838399
 31
0.0
  0
LINE
  5
30D5
  8
1
 10
81.79286025144836
 20
209.9781072083839
 30
0.0
 11
136.5928602514476
 21
209.9781072083839
 31
0.0
  0
LINE
  5
30D6
  8
1
 10
81.79286025144836
 20
211.47810720838399
 30
0.0
 11
136.5928602514476
 21
211.47810720838399
 31
0.0
  0
ARC
  5
30D7
  8
1
 10
136.5928602514476
 20
212.97810720838399
 30
0.0
 40
1.5
 50
270.0
 51
0.0
  0
LINE
  5
30D8
  8
1
 10
64.192860251447996
 20
233.47810720838399
 30
0.0
 11
64.192860251447996
 21
203.4781072083839
 31
0.0
  0
ARC
  5
30D9
  8
1
 10
81.79286025144836
 20
212.97810720838399
 30
0.0
 40
1.5
 50
180.0
 51
270.0
  0
LINE
  5
30DA
  8
1
 10
138.0928602514476
 20
212.97810720838399
 30
0.0
 11
138.0928602514476
 21
223.97810720838399
 31
0.0
  0
ARC
  5
30DB
  8
1
 10
136.5928602514476
 20
223.97810720838399
 30
0.0
 40
1.5
 50
0.0
 51
90.0
  0
LINE
  5
30DC
  8
1
 10
136.5928602514476
 20
225.47810720838399
 30
0.0
 11
81.79286025144836
 21
225.47810720838399
 31
0.0
  0
ARC
  5
30DD
  8
1
 10
81.79286025144836
 20
223.97810720838399
 30
0.0
 40
1.5
 50
90.0
 51
180.0
  0
LINE
  5
30DE
  8
1
 10
78.79286025144836
 20
212.97810720838399
 30
0.0
 11
78.79286025144836
 21
223.97810720838399
 31
0.0
  0
ARC
  5
30DF
  8
1
 10
81.79286025144836
 20
223.97810720838399
 30
0.0
 40
3.0
 50
90.0
 51
180.0
  0
LINE
  5
30E0
  8
1
 10
139.5928602514476
 20
212.97810720838399
 30
0.0
 11
139.5928602514476
 21
223.97810720838399
 31
0.0
  0
ARC
  5
30E1
  8
1
 10
136.5928602514476
 20
223.97810720838399
 30
0.0
 40
3.0
 50
0.0
 51
90.0
  0
ARC
  5
30E2
  8
1
 10
136.5928602514476
 20
212.97810720838399
 30
0.0
 40
3.0
 50
270.0
 51
0.0
  0
LINE
  5
30E3
  8
1
 10
81.79286025144836
 20
226.97810720838399
 30
0.0
 11
136.5928602514476
 21
226.97810720838399
 31
0.0
  0
ARC
  5
30E4
  8
1
 10
81.79286025144836
 20
212.97810720838399
 30
0.0
 40
3.0
 50
180.0
 51
270.0
  0
LINE
  5
30E5
  8
1
 10
64.192860251447996
 20
233.47810720838399
 30
0.0
 11
66.192860251447996
 21
233.47810720838399
 31
0.0
  0
LINE
  5
30E6
  8
1
 10
66.192860251447996
 20
233.97810720838399
 30
0.0
 11
66.192860251447996
 21
203.4781072083839
 31
0.0
  0
LINE
  5
30E7
  8
1
 10
154.192860251448
 20
233.47810720838399
 30
0.0
 11
154.192860251448
 21
203.4781072083839
 31
0.0
  0
LINE
  5
30E8
  8
1
 10
152.192860251448
 20
233.47810720838399
 30
0.0
 11
154.192860251448
 21
233.47810720838399
 31
0.0
  0
LINE
  5
30E9
  8
1
 10
81.29286025144836
 20
234.9781072083839
 30
0.0
 11
82.292860251448346
 21
233.97810720838399
 31
0.0
  0
LINE
  5
30EA
  8
1
 10
154.192860251448
 20
203.4781072083839
 30
0.0
 11
152.192860251448
 21
203.4781072083839
 31
0.0
  0
LINE
  5
30EB
  8
1
 10
71.29286025144836
 20
234.9781072083839
 30
0.0
 11
70.29286025144836
 21
233.97810720838399
 31
0.0
  0
LINE
  5
30EC
  8
1
 10
66.192860251447996
 20
203.4781072083839
 30
0.0
 11
64.192860251447996
 21
203.4781072083839
 31
0.0
  0
LINE
  5
30ED
  8
1
 10
152.192860251448
 20
233.97810720838399
 30
0.0
 11
152.192860251448
 21
202.97810720838399
 31
0.0
  0
LINE
  5
30EE
  8
1
 10
66.192860251447996
 20
233.97810720838399
 30
0.0
 11
70.29286025144836
 21
233.97810720838399
 31
0.0
  0
LINE
  5
30EF
  8
1
 10
82.292860251448346
 20
233.97810720838399
 30
0.0
 11
152.192860251448
 21
233.97810720838399
 31
0.0
  0
LINE
  5
30F0
  8
1
 10
84.192860251447968
 20
202.97810720838399
 30
0.0
 11
152.19286025144709
 21
202.97810720838399
 31
0.0
  0
LINE
  5
30F1
  8
1
 10
151.2928602514483
 20
202.97810720838399
 30
0.0
 11
151.2928602514483
 21
233.97810720838399
 31
0.0
  0
LINE
  5
30F2
  8
1
 10
67.092860251436718
 20
203.4781072083839
 30
0.0
 11
67.092860251435809
 21
233.97810720838399
 31
0.0
  0
LINE
  5
30F3
  8
1
 10
147.0928602514476
 20
229.47810720838211
 30
0.0
 11
147.09286025144581
 21
207.47810720838581
 31
0.0
  0
LINE
  5
30F4
  8
1
 10
145.0928602514476
 20
229.47810720838211
 30
0.0
 11
145.09286025144581
 21
207.47810720838581
 31
0.0
  0
LINE
  5
30F6
  8
1
 10
152.192860251448
 20
223.72012313113439
 30
0.0
 11
152.192860251448
 21
226.28433853911221
 31
0.0
  0
CIRCLE
  5
30F7
  8
1
 10
152.192860251448
 20
224.97810720838399
 30
0.0
 40
1.0
  0
LINE
  5
30F9
  8
1
 10
152.192860251448
 20
213.23609128563359
 30
0.0
 11
152.192860251448
 21
210.67187587765571
 31
0.0
  0
CIRCLE
  5
30FA
  8
1
 10
152.192860251448
 20
211.9781072083839
 30
0.0
 40
1.0
  0
LINE
  5
30FC
  8
1
 10
66.192860251447996
 20
223.72012313113439
 30
0.0
 11
66.192860251447996
 21
226.28433853911221
 31
0.0
  0
CIRCLE
  5
30FD
  8
1
 10
66.192860251447996
 20
224.97810720838399
 30
0.0
 40
1.0
  0
LINE
  5
30FF
  8
1
 10
66.192860251447996
 20
213.23609128563359
 30
0.0
 11
66.192860251447996
 21
210.67187587765571
 31
0.0
  0
CIRCLE
  5
3100
  8
1
 10
66.192860251447996
 20
211.9781072083839
 30
0.0
 40
1.0
  0
ARC
  5
3101
  8
1
 10
146.0928602514476
 20
229.47810720838211
 30
0.0
 40
1.0
 50
0.0
 51
180.0
  0
ARC
  5
3102
  8
1
 10
146.0928602514476
 20
207.47810720838581
 30
0.0
 40
1.0
 50
180.0
 51
0.0
  0
LINE
  5
3103
  8
1
 10
71.29286025144836
 20
229.47810720838211
 30
0.0
 11
71.292860251450179
 21
207.47810720838581
 31
0.0
  0
LINE
  5
3104
  8
1
 10
73.29286025144836
 20
229.47810720838211
 30
0.0
 11
73.292860251450179
 21
207.47810720838581
 31
0.0
  0
ARC
  5
3105
  8
1
 10
72.29286025144836
 20
229.47810720838211
 30
0.0
 40
1.0
 50
0.0
 51
180.0
  0
ARC
  5
3106
  8
1
 10
72.29286025144836
 20
207.47810720838581
 30
0.0
 40
1.0
 50
180.0
 51
0.0
  0
LINE
  5
3107
  8
1
 10
71.29286025144836
 20
234.9781072083839
 30
0.0
 11
81.29286025144836
 21
234.9781072083839
 31
0.0
  0
LINE
  5
3108
  8
1
 10
66.192860251447996
 20
160.48200060326201
 30
0.0
 11
68.692860251447996
 21
160.4820006032611
 31
0.0
  0
LINE
  5
3109
  8
1
 10
84.192860251447968
 20
160.48200060326201
 30
0.0
 11
152.19286025144709
 21
160.48200060326201
 31
0.0
  0
LINE
  5
310A
  8
1
 10
138.0928602514476
 20
164.4820006032611
 30
0.0
 11
139.5928602514476
 21
162.98200060326201
 31
0.0
  0
LINE
  5
310B
  8
1
 10
71.29286025144927
 20
164.73200060326209
 30
0.0
 11
71.29286025144836
 21
164.9820006032611
 31
0.0
  0
LINE
  5
310C
  8
1
 10
71.29286025144836
 20
164.9820006032611
 30
0.0
 11
73.29286025144836
 21
164.9820006032611
 31
0.0
  0
LINE
  5
310D
  8
1
 10
73.29286025144836
 20
164.9820006032611
 30
0.0
 11
73.29286025144836
 21
164.7320006032611
 31
0.0
  0
LINE
  5
310E
  8
1
 10
67.192860251447996
 20
162.98200060326201
 30
0.0
 11
66.192860251447996
 21
161.98200060326201
 31
0.0
  0
LINE
  5
310F
  8
1
 10
66.192860251447996
 20
161.98200060326201
 30
0.0
 11
66.192860251447996
 21
160.48200060326201
 31
0.0
  0
LINE
  5
3110
  8
1
 10
66.192860251447996
 20
161.98200060326201
 30
0.0
 11
64.29286025144836
 21
161.98200060326201
 31
0.0
  0
LINE
  5
3111
  8
1
 10
83.854298079214345
 20
164.4820006032611
 30
0.0
 11
138.0928602514476
 21
164.4820006032611
 31
0.0
  0
LINE
  5
3112
  8
1
 10
147.0928602514476
 20
162.9820006032611
 30
0.0
 11
147.0928602514476
 21
164.9820006032611
 31
0.0
  0
LINE
  5
3113
  8
1
 10
147.0928602514476
 20
164.9820006032611
 30
0.0
 11
145.0928602514476
 21
164.9820006032611
 31
0.0
  0
LINE
  5
3114
  8
1
 10
145.0928602514476
 20
164.9820006032611
 30
0.0
 11
145.0928602514476
 21
162.98200060326201
 31
0.0
  0
LINE
  5
3115
  8
1
 10
67.192860251447996
 20
162.98200060326201
 30
0.0
 11
68.692860251447996
 21
162.98200060326201
 31
0.0
  0
LINE
  5
3116
  8
1
 10
84.192860251447968
 20
162.98200060326201
 30
0.0
 11
151.19286025144709
 21
162.98200060326201
 31
0.0
  0
LINE
  5
3117
  8
CENTER
 10
66.192860251447101
 20
154.099168091872
 30
0.0
 11
66.192860251447101
 21
165.48586697261061
 31
0.0
  0
LINE
  5
3118
  8
1
 10
64.292860251447451
 20
161.98200060328199
 30
0.0
 11
64.192860251447996
 21
161.98200060328199
 31
0.0
  0
LINE
  5
3119
  8
1
 10
279.31226097556453
 20
164.9820006032611
 30
0.0
 11
255.3122609755645
 21
164.9820006032611
 31
0.0
  0
LINE
  5
311A
  8
1
 10
279.31226097556453
 20
164.9820006032611
 30
0.0
 11
279.31226097556453
 21
162.9820006032611
 31
0.0
  0
LINE
  5
311B
  8
1
 10
255.3122609755645
 20
164.9820006032611
 30
0.0
 11
255.3122609755645
 21
162.9820006032611
 31
0.0
  0
LINE
  5
311C
  8
1
 10
282.81226097556453
 20
162.9820006032611
 30
0.0
 11
251.8122609755645
 21
162.9820006032611
 31
0.0
  0
LINE
  5
311D
  8
1
 10
282.81226097556453
 20
162.9820006032611
 30
0.0
 11
282.81226097556453
 21
159.4820006032611
 31
0.0
  0
LINE
  5
311E
  8
1
 10
282.81226097556453
 20
159.4820006032611
 30
0.0
 11
282.31226097556453
 21
159.48200060326201
 31
0.0
  0
LINE
  5
311F
  8
1
 10
80.29286025144836
 20
53.446957301268121
 30
0.0
 11
80.29286025144836
 21
42.446957301268128
 31
0.0
  0
LINE
  5
3120
  8
1
 10
81.79286025144836
 20
39.446957301268128
 30
0.0
 11
136.5928602514476
 21
39.446957301268128
 31
0.0
  0
LINE
  5
3121
  8
1
 10
81.79286025144836
 20
40.9469573012681
 30
0.0
 11
136.5928602514476
 21
40.9469573012681
 31
0.0
  0
ARC
  5
3122
  8
1
 10
136.5928602514476
 20
42.446957301268128
 30
0.0
 40
1.5
 50
270.0
 51
0.0
  0
LINE
  5
3123
  8
1
 10
64.192860251447996
 20
62.946957301268128
 30
0.0
 11
64.192860251447996
 21
32.946957301268128
 31
0.0
  0
ARC
  5
3124
  8
1
 10
81.79286025144836
 20
42.446957301268128
 30
0.0
 40
1.5
 50
180.0
 51
270.0
  0
LINE
  5
3125
  8
1
 10
138.0928602514476
 20
42.446957301268128
 30
0.0
 11
138.0928602514476
 21
53.446957301268121
 31
0.0
  0
ARC
  5
3126
  8
1
 10
136.5928602514476
 20
53.446957301268121
 30
0.0
 40
1.5
 50
0.0
 51
90.0
  0
LINE
  5
3127
  8
1
 10
136.5928602514476
 20
54.946957301268128
 30
0.0
 11
81.79286025144836
 21
54.946957301268128
 31
0.0
  0
ARC
  5
3128
  8
1
 10
81.79286025144836
 20
53.446957301268121
 30
0.0
 40
1.5
 50
90.0
 51
180.0
  0
LINE
  5
3129
  8
1
 10
78.79286025144836
 20
42.446957301268128
 30
0.0
 11
78.79286025144836
 21
53.446957301268121
 31
0.0
  0
ARC
  5
312A
  8
1
 10
81.79286025144836
 20
53.446957301268121
 30
0.0
 40
3.0
 50
90.0
 51
180.0
  0
LINE
  5
312B
  8
1
 10
139.5928602514476
 20
42.446957301268128
 30
0.0
 11
139.5928602514476
 21
53.446957301268121
 31
0.0
  0
ARC
  5
312C
  8
1
 10
136.5928602514476
 20
53.446957301268121
 30
0.0
 40
3.0
 50
0.0
 51
90.0
  0
ARC
  5
312D
  8
1
 10
136.5928602514476
 20
42.446957301268128
 30
0.0
 40
3.0
 50
270.0
 51
0.0
  0
LINE
  5
312E
  8
1
 10
81.79286025144836
 20
56.446957301268121
 30
0.0
 11
136.5928602514476
 21
56.446957301268121
 31
0.0
  0
ARC
  5
312F
  8
1
 10
81.79286025144836
 20
42.446957301268128
 30
0.0
 40
3.0
 50
180.0
 51
270.0
  0
LINE
  5
3130
  8
1
 10
64.192860251447996
 20
62.946957301268128
 30
0.0
 11
66.192860251447996
 21
62.946957301268128
 31
0.0
  0
LINE
  5
3131
  8
1
 10
66.192860251447996
 20
62.946957301268128
 30
0.0
 11
66.192860251447996
 21
32.446957301268128
 31
0.0
  0
LINE
  5
3132
  8
1
 10
154.192860251448
 20
62.946957301268128
 30
0.0
 11
154.192860251448
 21
32.946957301268128
 31
0.0
  0
LINE
  5
3133
  8
1
 10
152.192860251448
 20
62.946957301268128
 30
0.0
 11
154.192860251448
 21
62.946957301268128
 31
0.0
  0
LINE
  5
3134
  8
1
 10
154.192860251448
 20
32.946957301268128
 30
0.0
 11
152.192860251448
 21
32.946957301268128
 31
0.0
  0
LINE
  5
3135
  8
1
 10
66.192860251447996
 20
32.946957301268128
 30
0.0
 11
64.192860251447996
 21
32.946957301268128
 31
0.0
  0
LINE
  5
3136
  8
1
 10
152.192860251448
 20
63.446957301268121
 30
0.0
 11
152.192860251448
 21
32.446957301268128
 31
0.0
  0
LINE
  5
3137
  8
1
 10
84.192860251447968
 20
63.446957301268121
 30
0.0
 11
152.192860251448
 21
63.446957301268121
 31
0.0
  0
LINE
  5
3138
  8
1
 10
66.192860251447996
 20
32.446957301268128
 30
0.0
 11
70.29286025144836
 21
32.446957301268128
 31
0.0
  0
LINE
  5
3139
  8
1
 10
82.292860251446541
 20
32.446957301268128
 30
0.0
 11
152.19286025144709
 21
32.446957301268128
 31
0.0
  0
LINE
  5
313A
  8
1
 10
151.2928602514483
 20
32.446957301268128
 30
0.0
 11
151.2928602514483
 21
63.446957301268121
 31
0.0
  0
LINE
  5
313B
  8
1
 10
67.092860251435809
 20
32.446957301268128
 30
0.0
 11
67.092860251436718
 21
62.946957301268128
 31
0.0
  0
LINE
  5
313C
  8
1
 10
147.0928602514476
 20
58.946957301266309
 30
0.0
 11
147.09286025144581
 21
36.946957301269947
 31
0.0
  0
LINE
  5
313D
  8
1
 10
145.0928602514476
 20
58.946957301266309
 30
0.0
 11
145.09286025144581
 21
36.946957301269947
 31
0.0
  0
LINE
  5
313F
  8
1
 10
152.192860251448
 20
53.188973224018518
 30
0.0
 11
152.192860251448
 21
55.753188631996352
 31
0.0
  0
CIRCLE
  5
3140
  8
1
 10
152.192860251448
 20
54.446957301268128
 30
0.0
 40
1.0
  0
LINE
  5
3142
  8
1
 10
152.192860251448
 20
42.704941378517717
 30
0.0
 11
152.192860251448
 21
40.140725970539883
 31
0.0
  0
CIRCLE
  5
3143
  8
1
 10
152.192860251448
 20
41.4469573012681
 30
0.0
 40
1.0
  0
LINE
  5
3145
  8
1
 10
66.192860251447996
 20
53.188973224018518
 30
0.0
 11
66.192860251447996
 21
55.753188631996352
 31
0.0
  0
CIRCLE
  5
3146
  8
1
 10
66.192860251447996
 20
54.446957301268128
 30
0.0
 40
1.0
  0
LINE
  5
3148
  8
1
 10
66.192860251447996
 20
42.704941378517717
 30
0.0
 11
66.192860251447996
 21
40.140725970539883
 31
0.0
  0
CIRCLE
  5
3149
  8
1
 10
66.192860251447996
 20
41.4469573012681
 30
0.0
 40
1.0
  0
ARC
  5
314A
  8
1
 10
146.0928602514476
 20
58.946957301266309
 30
0.0
 40
1.0
 50
0.0
 51
180.0
  0
ARC
  5
314B
  8
1
 10
146.0928602514476
 20
36.946957301269947
 30
0.0
 40
1.0
 50
180.0
 51
0.0
  0
LINE
  5
314C
  8
1
 10
71.29286025144836
 20
58.946957301266309
 30
0.0
 11
71.292860251450179
 21
36.946957301269947
 31
0.0
  0
LINE
  5
314D
  8
1
 10
73.29286025144836
 20
58.946957301266309
 30
0.0
 11
73.292860251450179
 21
36.946957301269947
 31
0.0
  0
ARC
  5
314E
  8
1
 10
72.29286025144836
 20
58.946957301266309
 30
0.0
 40
1.0
 50
0.0
 51
180.0
  0
ARC
  5
314F
  8
1
 10
72.29286025144836
 20
36.946957301269947
 30
0.0
 40
1.0
 50
180.0
 51
0.0
  0
LINE
  5
3150
  8
1
 10
81.292860251445646
 20
31.446957301268132
 30
0.0
 11
82.292860251446541
 21
32.446957301268128
 31
0.0
  0
LINE
  5
3151
  8
1
 10
71.292860251445632
 20
31.446957301268132
 30
0.0
 11
70.292860251446541
 21
32.446957301268128
 31
0.0
  0
LINE
  5
3152
  8
1
 10
71.292860251445632
 20
31.446957301268132
 30
0.0
 11
81.292860251445646
 21
31.446957301268132
 31
0.0
  0
LINE
  5
3153
  8
1
 10
64.192860251447996
 20
161.98200060328199
 30
0.0
 11
64.192860251447996
 21
158.9820006032611
 31
0.0
  0
ARC
  5
3154
  8
1
 10
152.192860251448
 20
158.9820006032611
 30
0.0
 40
2.0
 50
180.0
 51
0.0
  0
LINE
  5
3155
  8
1
 10
150.192860251448
 20
158.9820006032611
 30
0.0
 11
150.19286025144709
 21
160.48200060326201
 31
0.0
  0
LINE
  5
3156
  8
1
 10
154.192860251448
 20
161.98200060326201
 30
0.0
 11
154.192860251448
 21
162.4820006032611
 31
0.0
  0
LINE
  5
3157
  8
1
 10
151.192860251448
 20
162.98200060326201
 30
0.0
 11
152.192860251448
 21
161.98200060326201
 31
0.0
  0
LINE
  5
3158
  8
1
 10
152.192860251448
 20
161.98200060326201
 30
0.0
 11
152.192860251448
 21
160.48200060326201
 31
0.0
  0
LINE
  5
3159
  8
1
 10
152.192860251448
 20
161.98200060326201
 30
0.0
 11
154.0928602514476
 21
161.98200060326201
 31
0.0
  0
LINE
  5
315A
  8
CENTER
 10
152.19286025144891
 20
154.099168091872
 30
0.0
 11
152.19286025144891
 21
165.48586697261061
 31
0.0
  0
LINE
  5
315B
  8
1
 10
154.09286025144851
 20
161.98200060328199
 30
0.0
 11
154.192860251448
 21
161.98200060328199
 31
0.0
  0
LINE
  5
315C
  8
1
 10
154.192860251448
 20
161.98200060328199
 30
0.0
 11
154.192860251448
 21
158.9820006032611
 31
0.0
  0
ARC
  5
315D
  8
1
 10
66.192860251447996
 20
125.9820006032611
 30
0.0
 40
2.0
 50
0.0
 51
180.0
  0
LINE
  5
315E
  8
1
 10
68.192860251447996
 20
125.9820006032611
 30
0.0
 11
68.192860251448892
 21
124.4820006032602
 31
0.0
  0
LINE
  5
315F
  8
1
 10
64.192860251447996
 20
122.9820006032602
 30
0.0
 11
64.192860251447996
 21
122.4820006032611
 31
0.0
  0
LINE
  5
3160
  8
1
 10
66.192860251447996
 20
124.4820006032602
 30
0.0
 11
68.692860251447996
 21
124.4820006032602
 31
0.0
  0
LINE
  5
3161
  8
1
 10
84.192860251447968
 20
124.4820006032602
 30
0.0
 11
152.19286025144709
 21
124.4820006032602
 31
0.0
  0
LINE
  5
3162
  8
1
 10
138.0928602514476
 20
120.4820006032611
 30
0.0
 11
139.5928602514476
 21
121.9820006032602
 31
0.0
  0
LINE
  5
3163
  8
1
 10
71.29286025144927
 20
120.23200060326199
 30
0.0
 11
71.29286025144836
 21
119.9820006032611
 31
0.0
  0
LINE
  5
3164
  8
1
 10
71.29286025144836
 20
119.9820006032611
 30
0.0
 11
73.29286025144836
 21
119.9820006032611
 31
0.0
  0
LINE
  5
3165
  8
1
 10
73.29286025144836
 20
119.9820006032611
 30
0.0
 11
73.29286025144836
 21
120.2320006032611
 31
0.0
  0
LINE
  5
3166
  8
1
 10
67.192860251447996
 20
121.9820006032602
 30
0.0
 11
66.192860251447996
 21
122.9820006032602
 31
0.0
  0
LINE
  5
3167
  8
1
 10
66.192860251447996
 20
122.9820006032602
 30
0.0
 11
66.192860251447996
 21
124.4820006032602
 31
0.0
  0
LINE
  5
3168
  8
1
 10
66.192860251447996
 20
122.9820006032602
 30
0.0
 11
64.29286025144836
 21
122.9820006032602
 31
0.0
  0
LINE
  5
3169
  8
1
 10
83.854298079213422
 20
120.4820006032602
 30
0.0
 11
138.0928602514476
 21
120.4820006032611
 31
0.0
  0
LINE
  5
316A
  8
1
 10
147.0928602514476
 20
121.9820006032611
 30
0.0
 11
147.0928602514476
 21
119.9820006032611
 31
0.0
  0
LINE
  5
316B
  8
1
 10
147.0928602514476
 20
119.9820006032611
 30
0.0
 11
145.0928602514476
 21
119.9820006032611
 31
0.0
  0
LINE
  5
316C
  8
1
 10
145.0928602514476
 20
119.9820006032611
 30
0.0
 11
145.0928602514476
 21
121.9820006032602
 31
0.0
  0
LINE
  5
316D
  8
1
 10
67.192860251447996
 20
121.9820006032602
 30
0.0
 11
68.692860251447996
 21
121.9820006032611
 31
0.0
  0
LINE
  5
316E
  8
1
 10
84.192860251447968
 20
121.9820006032602
 30
0.0
 11
151.19286025144709
 21
121.9820006032602
 31
0.0
  0
LINE
  5
316F
  8
CENTER
 10
66.192860251447101
 20
130.8648331146502
 30
0.0
 11
66.192860251447101
 21
119.4781342339117
 31
0.0
  0
LINE
  5
3170
  8
1
 10
64.292860251447451
 20
122.98200060324019
 30
0.0
 11
64.192860251447996
 21
122.98200060324019
 31
0.0
  0
LINE
  5
3171
  8
1
 10
64.192860251447996
 20
122.98200060324019
 30
0.0
 11
64.192860251447996
 21
125.9820006032611
 31
0.0
  0
ARC
  5
3172
  8
1
 10
152.192860251448
 20
125.9820006032611
 30
0.0
 40
2.0
 50
0.0
 51
180.0
  0
LINE
  5
3173
  8
1
 10
150.192860251448
 20
125.9820006032611
 30
0.0
 11
150.19286025144709
 21
124.4820006032602
 31
0.0
  0
LINE
  5
3174
  8
1
 10
154.192860251448
 20
122.9820006032602
 30
0.0
 11
154.192860251448
 21
122.4820006032611
 31
0.0
  0
LINE
  5
3175
  8
1
 10
151.192860251448
 20
121.9820006032602
 30
0.0
 11
152.192860251448
 21
122.9820006032602
 31
0.0
  0
LINE
  5
3176
  8
1
 10
152.192860251448
 20
122.9820006032602
 30
0.0
 11
152.192860251448
 21
124.4820006032602
 31
0.0
  0
LINE
  5
3177
  8
1
 10
152.192860251448
 20
122.9820006032602
 30
0.0
 11
154.0928602514476
 21
122.9820006032602
 31
0.0
  0
LINE
  5
3178
  8
CENTER
 10
152.19286025144891
 20
130.8648331146502
 30
0.0
 11
152.19286025144891
 21
119.4781342339117
 31
0.0
  0
LINE
  5
3179
  8
1
 10
154.09286025144851
 20
122.98200060324019
 30
0.0
 11
154.192860251448
 21
122.98200060324019
 31
0.0
  0
LINE
  5
317A
  8
1
 10
154.192860251448
 20
122.98200060324019
 30
0.0
 11
154.192860251448
 21
125.9820006032611
 31
0.0
  0
LINE
  5
317B
  8
1
 10
80.192860251447996
 20
156.4820006032611
 30
0.0
 11
56.192860251447982
 21
156.4820006032611
 31
0.0
  0
ARC
  5
317C
  8
1
 10
66.692860251447996
 20
158.4820006032611
 30
0.0
 40
2.0
 50
270.0
 51
0.0
  0
ARC
  5
317D
  8
1
 10
80.192860251447996
 20
154.4820006032611
 30
0.0
 40
2.0
 50
0.0
 51
90.0
  0
LINE
  5
317E
  8
1
 10
54.192860251447989
 20
154.4820006032611
 30
0.0
 11
54.192860251447989
 21
130.4820006032611
 31
0.0
  0
ARC
  5
317F
  8
1
 10
56.192860251447982
 20
130.4820006032611
 30
0.0
 40
2.0
 50
180.0
 51
270.0
  0
ARC
  5
3180
  8
1
 10
56.192860251447982
 20
154.4820006032611
 30
0.0
 40
2.0
 50
90.0
 51
180.0
  0
LINE
  5
3181
  8
1
 10
56.192860251447982
 20
128.4820006032611
 30
0.0
 11
80.192860251447996
 21
128.4820006032611
 31
0.0
  0
ARC
  5
3182
  8
1
 10
80.192860251447996
 20
130.4820006032611
 30
0.0
 40
2.0
 50
270.0
 51
0.0
  0
LINE
  5
3183
  8
1
 10
82.192860251447982
 20
130.4820006032611
 30
0.0
 11
82.192860251447982
 21
154.4820006032611
 31
0.0
  0
LINE
  5
318C
  8
1
 10
68.692860251447996
 20
158.4820006032611
 30
0.0
 11
68.692860251447996
 21
163.7320006032611
 31
0.0
  0
ARC
  5
318D
  8
1
 10
69.692860251447996
 20
163.7320006032611
 30
0.0
 40
1.0
 50
90.0
 51
180.0
  0
LINE
  5
318E
  8
1
 10
69.692860251447996
 20
164.7320006032611
 30
0.0
 11
83.192860251447982
 21
164.7320006032611
 31
0.0
  0
ARC
  5
318F
  8
1
 10
83.192860251447982
 20
163.7320006032611
 30
0.0
 40
1.0
 50
0.0
 51
90.0
  0
LINE
  5
3190
  8
1
 10
84.192860251447968
 20
163.7320006032611
 30
0.0
 11
84.192860251447968
 21
159.7320006032611
 31
0.0
  0
LINE
  5
3191
  8
1
 10
84.192860251447968
 20
159.7320006032611
 30
0.0
 11
82.192860251447982
 21
152.2678989881239
 31
0.0
  0
ARC
  5
3192
  8
1
 10
66.692860251447996
 20
126.4820006032611
 30
0.0
 40
2.0
 50
0.0
 51
90.0
  0
LINE
  5
3193
  8
1
 10
68.692860251447996
 20
126.4820006032611
 30
0.0
 11
68.692860251447996
 21
121.2320006032611
 31
0.0
  0
LINE
  5
3194
  8
1
 10
69.692860251447996
 20
120.2320006032611
 30
0.0
 11
83.192860251447982
 21
120.2320006032611
 31
0.0
  0
ARC
  5
3195
  8
1
 10
83.192860251447982
 20
121.2320006032611
 30
0.0
 40
1.0
 50
270.0
 51
0.0
  0
LINE
  5
3196
  8
1
 10
84.192860251447968
 20
121.2320006032611
 30
0.0
 11
84.192860251447968
 21
125.2320006032611
 31
0.0
  0
LINE
  5
3197
  8
1
 10
84.192860251447968
 20
125.2320006032611
 30
0.0
 11
82.192860251447982
 21
132.69610221839841
 31
0.0
  0
ARC
  5
3198
  8
1
 10
69.692860251447996
 20
121.2320006032611
 30
0.0
 40
1.0
 50
180.0
 51
270.0
  0
LINE
  5
319B
  8
1
 10
81.892860251447814
 20
197.4781072083839
 30
0.0
 11
54.492860251448171
 21
197.4781072083839
 31
0.0
  0
ARC
  5
319C
  8
1
 10
81.892860251447814
 20
197.77810720838411
 30
0.0
 40
0.3
 50
270.0
 51
0.0
  0
LINE
  5
319D
  8
1
 10
54.192860251447989
 20
197.77810720838411
 30
0.0
 11
54.192860251447989
 21
203.4781072083839
 31
0.0
  0
ARC
  5
319E
  8
1
 10
54.492860251448171
 20
197.77810720838411
 30
0.0
 40
0.3
 50
180.0
 51
270.0
  0
LINE
  5
319F
  8
1
 10
54.192860251447989
 20
203.4781072083839
 30
0.0
 11
68.692860251447996
 21
203.4781072083839
 31
0.0
  0
LINE
  5
31A0
  8
1
 10
84.192860251447968
 20
201.47810720838311
 30
0.0
 11
84.192860251447968
 21
204.47810720838291
 31
0.0
  0
ARC
  5
31A1
  8
1
 10
83.192860251447982
 20
201.47810720838311
 30
0.0
 40
1.0
 50
270.0
 51
0.0
  0
LINE
  5
31A2
  8
1
 10
83.192860251447982
 20
205.47810720838311
 30
0.0
 11
69.692860251447996
 21
205.47810720838311
 31
0.0
  0
ARC
  5
31A3
  8
1
 10
83.192860251447982
 20
204.47810720838291
 30
0.0
 40
1.0
 50
0.0
 51
90.0
  0
LINE
  5
31A4
  8
1
 10
68.692860251447996
 20
204.47810720838291
 30
0.0
 11
68.692860251447996
 21
201.47810720838311
 31
0.0
  0
ARC
  5
31A5
  8
1
 10
69.692860251447996
 20
204.47810720838291
 30
0.0
 40
1.0
 50
90.0
 51
180.0
  0
ARC
  5
31A6
  8
1
 10
69.692860251447996
 20
201.47810720838311
 30
0.0
 40
1.0
 50
180.0
 51
270.0
  0
LINE
  5
31A7
  8
1
 10
69.692860251447996
 20
200.47810720838291
 30
0.0
 11
83.192860251447982
 21
200.47810720838291
 31
0.0
  0
LINE
  5
31A8
  8
1
 10
82.192860251447982
 20
197.77810720838411
 30
0.0
 11
82.192860251447982
 21
200.47810720838291
 31
0.0
  0
LINE
  5
31A9
  8
1
 10
254.3122609755645
 20
121.7320006032611
 30
0.0
 11
254.3122609755645
 21
121.2320006032611
 31
0.0
  0
ARC
  5
31AA
  8
1
 10
253.3122609755645
 20
121.2320006032611
 30
0.0
 40
1.0
 50
270.0
 51
0.0
  0
LINE
  5
31AB
  8
1
 10
253.3122609755645
 20
120.2320006032611
 30
0.0
 11
250.3122609755645
 21
120.2320006032611
 31
0.0
  0
LINE
  5
31AC
  8
1
 10
249.3122609755645
 20
121.2320006032611
 30
0.0
 11
249.3122609755645
 21
128.4820006032611
 31
0.0
  0
ARC
  5
31AD
  8
1
 10
250.3122609755645
 20
121.2320006032611
 30
0.0
 40
1.0
 50
180.0
 51
270.0
  0
LINE
  5
31AE
  8
1
 10
254.3122609755645
 20
121.7320006032611
 30
0.0
 11
251.8122609755645
 21
121.7320006032611
 31
0.0
  0
LINE
  5
31AF
  8
1
 10
251.8122609755645
 20
121.7320006032611
 30
0.0
 11
251.8122609755645
 21
124.2320006032611
 31
0.0
  0
LINE
  5
31B0
  8
1
 10
251.8122609755645
 20
124.2320006032611
 30
0.0
 11
252.3122609755645
 21
124.2320006032611
 31
0.0
  0
LINE
  5
31B1
  8
1
 10
252.3122609755645
 20
124.2320006032611
 30
0.0
 11
252.3122609755645
 21
160.7320006032611
 31
0.0
  0
LINE
  5
31B2
  8
1
 10
254.3122609755645
 20
163.2320006032611
 30
0.0
 11
254.3122609755645
 21
163.7320006032611
 31
0.0
  0
ARC
  5
31B3
  8
1
 10
253.3122609755645
 20
163.7320006032611
 30
0.0
 40
1.0
 50
0.0
 51
90.0
  0
LINE
  5
31B4
  8
1
 10
253.3122609755645
 20
164.7320006032611
 30
0.0
 11
250.3122609755645
 21
164.7320006032611
 31
0.0
  0
LINE
  5
31B5
  8
1
 10
249.3122609755645
 20
163.7320006032611
 30
0.0
 11
249.3122609755645
 21
156.4820006032611
 31
0.0
  0
ARC
  5
31B6
  8
1
 10
250.3122609755645
 20
163.7320006032611
 30
0.0
 40
1.0
 50
90.0
 51
180.0
  0
LINE
  5
31B7
  8
1
 10
254.3122609755645
 20
163.2320006032611
 30
0.0
 11
251.8122609755645
 21
163.2320006032611
 31
0.0
  0
LINE
  5
31B8
  8
1
 10
251.8122609755645
 20
163.2320006032611
 30
0.0
 11
251.8122609755645
 21
160.7320006032611
 31
0.0
  0
LINE
  5
31B9
  8
1
 10
251.8122609755645
 20
160.7320006032611
 30
0.0
 11
252.3122609755645
 21
160.7320006032611
 31
0.0
  0
LINE
  5
31BA
  8
1
 10
246.3122609755645
 20
128.4820006032611
 30
0.0
 11
246.3122609755645
 21
156.4820006032611
 31
0.0
  0
LINE
  5
31BB
  8
1
 10
246.3122609755645
 20
128.4820006032611
 30
0.0
 11
252.3122609755645
 21
128.4820006032611
 31
0.0
  0
LINE
  5
31BC
  8
1
 10
246.3122609755645
 20
156.4820006032611
 30
0.0
 11
252.3122609755645
 21
156.4820006032611
 31
0.0
  0
LINE
  5
31BD
  8
1
 10
81.892860251447814
 20
68.946957301268114
 30
0.0
 11
54.492860251448171
 21
68.946957301268114
 31
0.0
  0
ARC
  5
31BE
  8
1
 10
81.892860251447814
 20
68.646957301267932
 30
0.0
 40
0.3
 50
0.0
 51
90.0
  0
LINE
  5
31BF
  8
1
 10
54.192860251447989
 20
68.646957301267932
 30
0.0
 11
54.192860251447989
 21
62.946957301268128
 31
0.0
  0
ARC
  5
31C0
  8
1
 10
54.492860251448171
 20
68.646957301267932
 30
0.0
 40
0.3
 50
90.0
 51
180.0
  0
LINE
  5
31C1
  8
1
 10
54.192860251447989
 20
62.946957301268128
 30
0.0
 11
68.692860251447996
 21
62.946957301268128
 31
0.0
  0
LINE
  5
31C2
  8
1
 10
84.192860251447968
 20
64.946957301269023
 30
0.0
 11
84.192860251447968
 21
61.946957301269038
 31
0.0
  0
ARC
  5
31C3
  8
1
 10
83.192860251447982
 20
64.946957301269023
 30
0.0
 40
1.0
 50
0.0
 51
90.0
  0
LINE
  5
31C4
  8
1
 10
83.192860251447982
 20
60.946957301269038
 30
0.0
 11
69.692860251447996
 21
60.946957301269038
 31
0.0
  0
ARC
  5
31C5
  8
1
 10
83.192860251447982
 20
61.946957301269038
 30
0.0
 40
1.0
 50
270.0
 51
0.0
  0
LINE
  5
31C6
  8
1
 10
68.692860251447996
 20
61.946957301269038
 30
0.0
 11
68.692860251447996
 21
64.946957301269023
 31
0.0
  0
ARC
  5
31C7
  8
1
 10
69.692860251447996
 20
61.946957301269038
 30
0.0
 40
1.0
 50
180.0
 51
270.0
  0
ARC
  5
31C8
  8
1
 10
69.692860251447996
 20
64.946957301269023
 30
0.0
 40
1.0
 50
90.0
 51
180.0
  0
LINE
  5
31C9
  8
1
 10
69.692860251447996
 20
65.946957301269038
 30
0.0
 11
83.192860251447982
 21
65.946957301269038
 31
0.0
  0
LINE
  5
31CA
  8
1
 10
82.192860251447982
 20
68.646957301267932
 30
0.0
 11
82.192860251447982
 21
65.946957301269038
 31
0.0
  0
LINE
  5
31CB
  8
1
 10
279.31226097556453
 20
119.9820006032611
 30
0.0
 11
255.3122609755645
 21
119.9820006032611
 31
0.0
  0
LINE
  5
31CC
  8
1
 10
279.31226097556453
 20
119.9820006032611
 30
0.0
 11
279.31226097556453
 21
121.9820006032611
 31
0.0
  0
LINE
  5
31CD
  8
1
 10
255.3122609755645
 20
119.9820006032611
 30
0.0
 11
255.3122609755645
 21
121.9820006032611
 31
0.0
  0
LINE
  5
31CE
  8
1
 10
282.81226097556453
 20
121.9820006032611
 30
0.0
 11
251.8122609755645
 21
121.9820006032611
 31
0.0
  0
LINE
  5
31CF
  8
1
 10
282.81226097556453
 20
121.9820006032611
 30
0.0
 11
282.81226097556453
 21
125.4820006032611
 31
0.0
  0
LINE
  5
31D0
  8
1
 10
282.81226097556453
 20
125.4820006032611
 30
0.0
 11
282.31226097556453
 21
125.4820006032602
 31
0.0
  0
LINE
  5
31D1
  8
1
 10
44.192860251447982
 20
144.4820006032611
 30
0.0
 11
24.923763084221601
 21
144.49159799382929
 31
0.0
  0
LINE
  5
31D2
  8
1
 10
44.192860251447982
 20
140.4820006032611
 30
0.0
 11
23.875453004979921
 21
140.4820006032611
 31
0.0
  0
LINE
  5
31D3
  8
1
 10
25.471863607824041
 20
146.58798385592371
 30
0.0
 11
23.32484324159747
 21
138.37601735059769
 31
0.0
  0
LINE
  5
31D4
  8
1
 10
24.925081116034441
 20
146.58798385592371
 30
0.0
 11
22.778060749807871
 21
138.37601735059769
 31
0.0
  0
ARC
  5
31D5
  8
1
 10
44.192860251447982
 20
142.4820006032611
 30
0.0
 40
2.0
 50
270.0
 51
89.999999994580534
  0
LINE
  5
31D6
  8
1
 10
46.192860251447982
 20
233.47810720838399
 30
0.0
 11
46.192860251447982
 21
235.47810720838399
 31
0.0
  0
LINE
  5
31D7
  8
1
 10
48.192860251447989
 20
237.47810720838399
 30
0.0
 11
58.192860251447989
 21
237.47810720838399
 31
0.0
  0
ARC
  5
31D8
  8
1
 10
48.192860251447989
 20
235.47810720838399
 30
0.0
 40
2.0
 50
90.0
 51
180.0
  0
LINE
  5
31D9
  8
1
 10
60.192860251447989
 20
235.47810720838399
 30
0.0
 11
60.192860251447989
 21
233.47810720838399
 31
0.0
  0
ARC
  5
31DA
  8
1
 10
58.192860251447989
 20
235.47810720838399
 30
0.0
 40
2.0
 50
0.0
 51
90.0
  0
LINE
  5
31DB
  8
1
 10
42.192860251447989
 20
233.47810720838399
 30
0.0
 11
42.192860251447989
 21
238.47810720838399
 31
0.0
  0
LINE
  5
31DC
  8
1
 10
64.192860251447996
 20
233.47810720838399
 30
0.0
 11
64.192860251447996
 21
238.47810720838399
 31
0.0
  0
ARC
  5
31DD
  8
1
 10
61.192860251447982
 20
238.47810720838399
 30
0.0
 40
3.0
 50
0.0
 51
90.0
  0
LINE
  5
31DE
  8
1
 10
45.192860251447989
 20
241.47810720838399
 30
0.0
 11
61.192860251447982
 21
241.47810720838399
 31
0.0
  0
ARC
  5
31DF
  8
1
 10
45.192860251447989
 20
238.47810720838399
 30
0.0
 40
3.0
 50
90.0
 51
180.0
  0
LINE
  5
31E0
  8
1
 10
42.192860251447073
 20
203.4781072083849
 30
0.0
 11
42.192860251447073
 21
196.47810720838481
 31
0.0
  0
LINE
  5
31E1
  8
1
 10
40.192860251447073
 20
194.47810720838481
 30
0.0
 11
28.262543162967511
 21
194.47810720838481
 31
0.0
  0
ARC
  5
31E2
  8
1
 10
40.192860251447073
 20
196.47810720838481
 30
0.0
 40
2.0
 50
270.0
 51
0.0
  0
LINE
  5
31E3
  8
1
 10
46.19286025144708
 20
203.4781072083849
 30
0.0
 11
46.19286025144708
 21
193.4781072083849
 31
0.0
  0
LINE
  5
31E4
  8
1
 10
43.19286025144708
 20
190.47810720838481
 30
0.0
 11
27.216742323505851
 21
190.47810720838481
 31
0.0
  0
ARC
  5
31E5
  8
1
 10
43.19286025144708
 20
193.4781072083849
 30
0.0
 40
3.0
 50
270.0
 51
0.0
  0
LINE
  5
31E6
  8
1
 10
28.813152926349961
 20
196.58409046104831
 30
0.0
 11
26.666132560123401
 21
188.37212395572229
 31
0.0
  0
LINE
  5
31E7
  8
1
 10
28.266370434560368
 20
196.58409046104831
 30
0.0
 11
26.119350068333791
 21
188.37212395572229
 31
0.0
  0
LINE
  5
31E8
  8
1
 10
46.192860251447982
 20
32.946957301268128
 30
0.0
 11
46.192860251447982
 21
30.946957301268132
 31
0.0
  0
LINE
  5
31E9
  8
1
 10
48.192860251447989
 20
28.946957301268132
 30
0.0
 11
58.192860251447989
 21
28.946957301268132
 31
0.0
  0
ARC
  5
31EA
  8
1
 10
48.192860251447989
 20
30.946957301268132
 30
0.0
 40
2.0
 50
180.0
 51
270.0
  0
LINE
  5
31EB
  8
1
 10
60.192860251447989
 20
30.946957301268132
 30
0.0
 11
60.192860251447989
 21
32.946957301268128
 31
0.0
  0
ARC
  5
31EC
  8
1
 10
58.192860251447989
 20
30.946957301268132
 30
0.0
 40
2.0
 50
270.0
 51
0.0
  0
LINE
  5
31ED
  8
1
 10
42.192860251447989
 20
32.946957301268128
 30
0.0
 11
42.192860251447989
 21
27.946957301268132
 31
0.0
  0
LINE
  5
31EE
  8
1
 10
64.192860251447996
 20
32.946957301268128
 30
0.0
 11
64.192860251447996
 21
27.946957301268132
 31
0.0
  0
ARC
  5
31EF
  8
1
 10
61.192860251447982
 20
27.946957301268132
 30
0.0
 40
3.0
 50
270.0
 51
0.0
  0
LINE
  5
31F0
  8
1
 10
45.192860251447989
 20
24.946957301268132
 30
0.0
 11
61.192860251447982
 21
24.946957301268132
 31
0.0
  0
ARC
  5
31F1
  8
1
 10
45.192860251447989
 20
27.946957301268132
 30
0.0
 40
3.0
 50
180.0
 51
270.0
  0
LINE
  5
31F2
  8
1
 10
42.192860251447073
 20
62.946957301267219
 30
0.0
 11
42.192860251447073
 21
69.946957301267204
 31
0.0
  0
LINE
  5
31F3
  8
1
 10
40.192860251447073
 20
71.946957301267219
 30
0.0
 11
27.763524815295451
 21
71.946957301267219
 31
0.0
  0
ARC
  5
31F4
  8
1
 10
40.192860251447073
 20
69.946957301267204
 30
0.0
 40
2.0
 50
0.0
 51
90.0
  0
LINE
  5
31F5
  8
1
 10
46.19286025144708
 20
62.946957301267219
 30
0.0
 11
46.19286025144708
 21
72.946957301267233
 31
0.0
  0
LINE
  5
31F6
  8
1
 10
43.19286025144708
 20
75.946957301267233
 30
0.0
 11
28.80932565475711
 21
75.946957301267233
 31
0.0
  0
ARC
  5
31F7
  8
1
 10
43.19286025144708
 20
72.946957301267233
 30
0.0
 40
3.0
 50
0.0
 51
90.0
  0
LINE
  5
31F8
  8
1
 10
26.666132560123401
 20
69.840974048603755
 30
0.0
 11
28.813152926349961
 21
78.052940553929773
 31
0.0
  0
LINE
  5
31F9
  8
1
 10
27.21291505191299
 20
69.840974048603755
 30
0.0
 11
29.359935418139571
 21
78.052940553929773
 31
0.0
  0
LINE
  5
31FA
  8
1
 10
282.31226097556453
 20
144.48200060326019
 30
0.0
 11
287.81226097556453
 21
144.48200060326019
 31
0.0
  0
LINE
  5
31FB
  8
1
 10
287.81226097556453
 20
144.48200060326019
 30
0.0
 11
287.81226097556453
 21
140.48200060326019
 31
0.0
  0
LINE
  5
31FC
  8
1
 10
287.81226097556453
 20
140.48200060326019
 30
0.0
 11
282.31226097556453
 21
140.48200060326019
 31
0.0
  0
LINE
  5
33D6
  8
1
 10
34.192860251447989
 20
140.4820006032611
 30
0.0
 11
34.192860251447989
 21
122.4820006032611
 31
0.0
  0
VIEWPORT
  5
1403
 67
     1
  8
0
 10
211.1125709216453
 20
189.23500069648171
 30
0.0
 40
520.69740825145118
 41
424.034607335028
 68
     1
 69
     1
1001
ACAD
1000
MVIEW
1002
{
1070
    16
1010
0.0
1020
0.0
1030
0.0
1010
0.0
1020
0.0
1030
1.0
1040
0.0
1040
424.034607335028
1040
211.1125709216453
1040
189.23500069648171
1040
50.0
1040
0.0
1040
0.0
1070
     0
1070
   100
1070
     1
1070
     0
1070
     0
1070
     0
1070
     0
1070
     0
1040
0.0
1040
0.0
1040
0.0
1040
1.0
1040
1.0
1040
10.0
1040
10.0
1070
     0
1002
{
1002
}
1002
}
  0
VIEWPORT
  5
1404
 67
     1
  8
DEFPOINTS
 10
212.5
 20
144.4999999999998
 30
0.0
 40
385.0
 41
264.99999999999989
 68
     2
 69
     2
1001
ACAD
1000
MVIEW
1002
{
1070
    16
1010
0.0
1020
0.0
1030
0.0
1010
0.0
1020
0.0
1030
1.0
1040
0.0
1040
264.99999999999989
1040
5000.0
1040
5000.0
1040
50.0
1040
0.0
1040
0.0
1070
     0
1070
   100
1070
     1
1070
     0
1070
     0
1070
     0
1070
     0
1070
     1
1040
0.0
1040
0.0
1040
0.0
1040
168.0
1040
168.0
1040
0.0
1040
0.0
1070
     0
1002
{
1002
}
1002
}
  0
VIEWPORT
  5
1462
 67
     1
  8
DEFPOINTS
 10
212.49999999999989
 20
144.4999999999998
 30
0.0
 40
384.99999999999977
 41
265.0
 68
     3
 69
     3
1001
ACAD
1000
MVIEW
1002
{
1070
    16
1010
0.0
1020
0.0
1030
0.0
1010
0.0
1020
0.0
1030
1.0
1040
0.0
1040
215.2989965031114
1040
120.6987180836561
1040
92.318345776788505
1040
50.0
1040
0.0
1040
0.0
1070
     0
1070
   100
1070
     1
1070
     0
1070
     0
1070
     0
1070
     0
1070
     1
1040
0.0
1040
0.0
1040
0.0
1040
168.0
1040
168.0
1040
0.0
1040
0.0
1070
     0
1002
{
1002
}
1002
}
  0
ENDSEC
  0
EOF
