  0
SECTION
  2
HEADER
  9
$ACADVER
  1
AC1014
  9
$ACADMAINTVER
 70
     9
  9
$DWGCODEPAGE
  3
ANSI_932
  9
$INSBASE
 10
0.0
 20
0.0
 30
0.0
  9
$EXTMIN
 10
26.51237789625139
 20
39.71529064245759
 30
0.0
  9
$EXTMAX
 10
281.8101179070225
 20
189.8492693719123
 30
0.0
  9
$LIMMIN
 10
0.0
 20
0.0
  9
$LIMMAX
 10
10000.0
 20
10000.0
  9
$ORTHOMODE
 70
     0
  9
$REGENMODE
 70
     1
  9
$FILLMODE
 70
     1
  9
$QTEXTMODE
 70
     0
  9
$MIRRTEXT
 70
     1
  9
$DRAGMODE
 70
     2
  9
$LTSCALE
 40
5.0
  9
$OSMODE
 70
    32
  9
$ATTMODE
 70
     1
  9
$TEXTSIZE
 40
3.5
  9
$TRACEWID
 40
1.0
  9
$TEXTSTYLE
  7
AD-STANDARD
  9
$CLAYER
  8
1
  9
$CELTYPE
  6
BYLAYER
  9
$CECOLOR
 62
   256
  9
$CELTSCALE
 40
1.0
  9
$DELOBJ
 70
     1
  9
$DISPSILH
 70
     0
  9
$DIMSCALE
 40
1.0
  9
$DIMASZ
 40
0.18
  9
$DIMEXO
 40
0.0625
  9
$DIMDLI
 40
0.38
  9
$DIMRND
 40
0.0
  9
$DIMDLE
 40
0.0
  9
$DIMEXE
 40
0.18
  9
$DIMTP
 40
0.0
  9
$DIMTM
 40
0.0
  9
$DIMTXT
 40
0.18
  9
$DIMCEN
 40
0.09
  9
$DIMTSZ
 40
0.0
  9
$DIMTOL
 70
     0
  9
$DIMLIM
 70
     0
  9
$DIMTIH
 70
     1
  9
$DIMTOH
 70
     1
  9
$DIMSE1
 70
     0
  9
$DIMSE2
 70
     0
  9
$DIMTAD
 70
     0
  9
$DIMZIN
 70
     0
  9
$DIMBLK
  1

  9
$DIMASO
 70
     1
  9
$DIMSHO
 70
     1
  9
$DIMPOST
  1

  9
$DIMAPOST
  1

  9
$DIMALT
 70
     0
  9
$DIMALTD
 70
     2
  9
$DIMALTF
 40
25.4
  9
$DIMLFAC
 40
1.0
  9
$DIMTOFL
 70
     0
  9
$DIMTVP
 40
0.0
  9
$DIMTIX
 70
     0
  9
$DIMSOXD
 70
     0
  9
$DIMSAH
 70
     0
  9
$DIMBLK1
  1

  9
$DIMBLK2
  1

  9
$DIMSTYLE
  2
STANDARD
  9
$DIMCLRD
 70
     0
  9
$DIMCLRE
 70
     0
  9
$DIMCLRT
 70
     0
  9
$DIMTFAC
 40
1.0
  9
$DIMGAP
 40
0.09
  9
$DIMJUST
 70
     0
  9
$DIMSD1
 70
     0
  9
$DIMSD2
 70
     0
  9
$DIMTOLJ
 70
     1
  9
$DIMTZIN
 70
     0
  9
$DIMALTZ
 70
     0
  9
$DIMALTTZ
 70
     0
  9
$DIMFIT
 70
     3
  9
$DIMUPT
 70
     0
  9
$DIMUNIT
 70
     2
  9
$DIMDEC
 70
     4
  9
$DIMTDEC
 70
     4
  9
$DIMALTU
 70
     2
  9
$DIMALTTD
 70
     2
  9
$DIMTXSTY
  7
STANDARD
  9
$DIMAUNIT
 70
     0
  9
$LUNITS
 70
     2
  9
$LUPREC
 70
     4
  9
$SKETCHINC
 40
1.0
  9
$FILLETRAD
 40
3.0
  9
$AUNITS
 70
     0
  9
$AUPREC
 70
     0
  9
$MENU
  1
.
  9
$ELEVATION
 40
0.0
  9
$PELEVATION
 40
0.0
  9
$THICKNESS
 40
0.0
  9
$LIMCHECK
 70
     0
  9
$BLIPMODE
 70
     0
  9
$CHAMFERA
 40
1.0
  9
$CHAMFERB
 40
1.0
  9
$CHAMFERC
 40
673.4006734006733
  9
$CHAMFERD
 40
0.0
  9
$SKPOLY
 70
     0
  9
$TDCREATE
 40
2451430.616412153
  9
$TDUPDATE
 40
2453991.829162569
  9
$TDINDWG
 40
0.3159510069
  9
$TDUSRTIMER
 40
0.3159510069
  9
$USRTIMER
 70
     1
  9
$ANGBASE
 50
0.0
  9
$ANGDIR
 70
     0
  9
$PDMODE
 70
     0
  9
$PDSIZE
 40
0.0
  9
$PLINEWID
 40
0.0
  9
$COORDS
 70
     1
  9
$SPLFRAME
 70
     0
  9
$SPLINETYPE
 70
     6
  9
$SPLINESEGS
 70
     8
  9
$ATTDIA
 70
     0
  9
$ATTREQ
 70
     1
  9
$HANDLING
 70
 10241
  9
$HANDSEED
  5
1EDA
  9
$SURFTAB1
 70
     6
  9
$SURFTAB2
 70
     6
  9
$SURFTYPE
 70
     6
  9
$SURFU
 70
     6
  9
$SURFV
 70
     6
  9
$UCSNAME
  2

  9
$UCSORG
 10
0.0
 20
0.0
 30
0.0
  9
$UCSXDIR
 10
1.0
 20
0.0
 30
0.0
  9
$UCSYDIR
 10
0.0
 20
1.0
 30
0.0
  9
$PUCSNAME
  2

  9
$PUCSORG
 10
0.0
 20
0.0
 30
0.0
  9
$PUCSXDIR
 10
1.0
 20
0.0
 30
0.0
  9
$PUCSYDIR
 10
0.0
 20
1.0
 30
0.0
  9
$USERI1
 70
     0
  9
$USERI2
 70
     0
  9
$USERI3
 70
     0
  9
$USERI4
 70
     0
  9
$USERI5
 70
     0
  9
$USERR1
 40
0.0
  9
$USERR2
 40
0.0
  9
$USERR3
 40
0.0
  9
$USERR4
 40
0.0
  9
$USERR5
 40
0.0
  9
$WORLDVIEW
 70
     1
  9
$SHADEDGE
 70
     3
  9
$SHADEDIF
 70
    70
  9
$TILEMODE
 70
     1
  9
$MAXACTVP
 70
    16
  9
$PINSBASE
 10
0.0
 20
0.0
 30
0.0
  9
$PLIMCHECK
 70
     0
  9
$PEXTMIN
 10
20.0
 20
11.99999999999994
 30
0.0
  9
$PEXTMAX
 10
405.0
 20
276.9999999999999
 30
0.0
  9
$PLIMMIN
 10
0.0
 20
0.0
  9
$PLIMMAX
 10
409.8899999999999
 20
282.8899999999999
  9
$UNITMODE
 70
     0
  9
$VISRETAIN
 70
     0
  9
$PLINEGEN
 70
     0
  9
$PSLTSCALE
 70
     1
  9
$TREEDEPTH
 70
  3020
  9
$PICKSTYLE
 70
     1
  9
$CMLSTYLE
  2
STANDARD
  9
$CMLJUST
 70
     0
  9
$CMLSCALE
 40
1.0
  9
$PROXYGRAPHICS
 70
     1
  9
$MEASUREMENT
 70
     1
  0
ENDSEC
  0
SECTION
  2
CLASSES
  0
CLASS
  1
LWPOLYLINE
  2
AcDbPolyline
  3
AutoCAD 2000
 90
        0
280
     0
281
     1
  0
CLASS
  1
OLE2FRAME
  2
AcDbOle2Frame
  3
AutoCAD 2000
 90
        0
280
     0
281
     1
  0
CLASS
  1
DICTIONARYVAR
  2
AcDbDictionaryVar
  3
AutoCAD 2000
 90
        0
280
     0
281
     0
  0
CLASS
  1
HATCH
  2
AcDbHatch
  3
AutoCAD 2000
 90
        0
280
     0
281
     1
  0
CLASS
  1
ACDBDICTIONARYWDFLT
  2
AcDbDictionaryWithDefault
  3
AutoCAD 2000
 90
        0
280
     0
281
     0
  0
CLASS
  1
ACDBPLACEHOLDER
  2
AcDbPlaceHolder
  3
AutoCAD 2000
 90
        0
280
     0
281
     0
  0
CLASS
  1
LAYOUT
  2
AcDbLayout
  3
AutoCAD 2000
 90
        0
280
     0
281
     0
  0
CLASS
  1
PLOTSETTINGS
  2
AcDbPlotSettings
  3
AutoCAD 2000
 90
        0
280
     0
281
     0
  0
CLASS
  1
LONG_TRANSACTION
  2
AcDbLongTransaction
  3
AutoCAD 2000
 90
        0
280
     0
281
     0
  0
CLASS
  1
LWPOLYLINE
  2
AcDbPolyline
  3
AutoCAD 2000
 90
        0
280
     0
281
     1
  0
CLASS
  1
HATCH
  2
AcDbHatch
  3
AutoCAD 2000
 90
        0
280
     0
281
     1
  0
CLASS
  1
XRECORD
  2
AcDbXrecord
  3
AutoCAD 2000
 90
        0
280
     0
281
     0
  0
CLASS
  1
LONG_TRANSACTION
  2
AcDbLongTransaction
  3
AutoCAD 2000
 90
        0
280
     0
281
     0
  0
CLASS
  1
LWPOLYLINE
  2
AcDbPolyline
  3
AutoCAD 2000
 90
        0
280
     0
281
     1
  0
CLASS
  1
HATCH
  2
AcDbHatch
  3
AutoCAD 2000
 90
        0
280
     0
281
     1
  0
CLASS
  1
XRECORD
  2
AcDbXrecord
  3
AutoCAD 2000
 90
        0
280
     0
281
     0
  0
CLASS
  1
LONG_TRANSACTION
  2
AcDbLongTransaction
  3
AutoCAD 2000
 90
        0
280
     0
281
     0
  0
CLASS
  1
LWPOLYLINE
  2
AcDbPolyline
  3
AutoCAD 2000
 90
        0
280
     0
281
     1
  0
CLASS
  1
HATCH
  2
AcDbHatch
  3
AutoCAD 2000
 90
        0
280
     0
281
     1
  0
CLASS
  1
XRECORD
  2
AcDbXrecord
  3
AutoCAD 2000
 90
        0
280
     0
281
     0
  0
CLASS
  1
LONG_TRANSACTION
  2
AcDbLongTransaction
  3
AutoCAD 2000
 90
        0
280
     0
281
     0
  0
CLASS
  1
LWPOLYLINE
  2
AcDbPolyline
  3
AutoCAD 2000
 90
        0
280
     0
281
     1
  0
CLASS
  1
HATCH
  2
AcDbHatch
  3
AutoCAD 2000
 90
        0
280
     0
281
     1
  0
CLASS
  1
XRECORD
  2
AcDbXrecord
  3
AutoCAD 2000
 90
        0
280
     0
281
     0
  0
CLASS
  1
LONG_TRANSACTION
  2
AcDbLongTransaction
  3
AutoCAD 2000
 90
        0
280
     0
281
     0
  0
CLASS
  1
LWPOLYLINE
  2
AcDbPolyline
  3
AutoCAD 2000
 90
        0
280
     0
281
     1
  0
CLASS
  1
HATCH
  2
AcDbHatch
  3
AutoCAD 2000
 90
        0
280
     0
281
     1
  0
CLASS
  1
XRECORD
  2
AcDbXrecord
  3
AutoCAD 2000
 90
        0
280
     0
281
     0
  0
CLASS
  1
LONG_TRANSACTION
  2
AcDbLongTransaction
  3
AutoCAD 2000
 90
        0
280
     0
281
     0
  0
CLASS
  1
LWPOLYLINE
  2
AcDbPolyline
  3
AutoCAD 2000
 90
        0
280
     0
281
     1
  0
CLASS
  1
HATCH
  2
AcDbHatch
  3
AutoCAD 2000
 90
        0
280
     0
281
     1
  0
CLASS
  1
XRECORD
  2
AcDbXrecord
  3
AutoCAD 2000
 90
        0
280
     0
281
     0
  0
CLASS
  1
LONG_TRANSACTION
  2
AcDbLongTransaction
  3
AutoCAD 2000
 90
        0
280
     0
281
     0
  0
CLASS
  1
LWPOLYLINE
  2
AcDbPolyline
  3
AutoCAD 2000
 90
        0
280
     0
281
     1
  0
CLASS
  1
HATCH
  2
AcDbHatch
  3
AutoCAD 2000
 90
        0
280
     0
281
     1
  0
CLASS
  1
XRECORD
  2
AcDbXrecord
  3
AutoCAD 2000
 90
        0
280
     0
281
     0
  0
CLASS
  1
LONG_TRANSACTION
  2
AcDbLongTransaction
  3
AutoCAD 2000
 90
        0
280
     0
281
     0
  0
CLASS
  1
LWPOLYLINE
  2
AcDbPolyline
  3
AutoCAD 2000
 90
        0
280
     0
281
     1
  0
CLASS
  1
HATCH
  2
AcDbHatch
  3
AutoCAD 2000
 90
        0
280
     0
281
     1
  0
CLASS
  1
XRECORD
  2
AcDbXrecord
  3
AutoCAD 2000
 90
        0
280
     0
281
     0
  0
CLASS
  1
LONG_TRANSACTION
  2
AcDbLongTransaction
  3
AutoCAD 2000
 90
        0
280
     0
281
     0
  0
CLASS
  1
LWPOLYLINE
  2
AcDbPolyline
  3
AutoCAD 2000
 90
        0
280
     0
281
     1
  0
CLASS
  1
HATCH
  2
AcDbHatch
  3
AutoCAD 2000
 90
        0
280
     0
281
     1
  0
CLASS
  1
XRECORD
  2
AcDbXrecord
  3
AutoCAD 2000
 90
        0
280
     0
281
     0
  0
CLASS
  1
LONG_TRANSACTION
  2
AcDbLongTransaction
  3
AutoCAD 2000
 90
        0
280
     0
281
     0
  0
CLASS
  1
LWPOLYLINE
  2
AcDbPolyline
  3
AutoCAD 2000
 90
        0
280
     0
281
     1
  0
CLASS
  1
HATCH
  2
AcDbHatch
  3
AutoCAD 2000
 90
        0
280
     0
281
     1
  0
CLASS
  1
XRECORD
  2
AcDbXrecord
  3
AutoCAD 2000
 90
        0
280
     0
281
     0
  0
CLASS
  1
LONG_TRANSACTION
  2
AcDbLongTransaction
  3
AutoCAD 2000
 90
        0
280
     0
281
     0
  0
CLASS
  1
LWPOLYLINE
  2
AcDbPolyline
  3
AutoCAD 2000
 90
        0
280
     0
281
     1
  0
CLASS
  1
HATCH
  2
AcDbHatch
  3
AutoCAD 2000
 90
        0
280
     0
281
     1
  0
CLASS
  1
XRECORD
  2
AcDbXrecord
  3
AutoCAD 2000
 90
        0
280
     0
281
     0
  0
CLASS
  1
LONG_TRANSACTION
  2
AcDbLongTransaction
  3
AutoCAD 2000
 90
        0
280
     0
281
     0
  0
CLASS
  1
LWPOLYLINE
  2
AcDbPolyline
  3
AutoCAD 2000
 90
        0
280
     0
281
     1
  0
CLASS
  1
HATCH
  2
AcDbHatch
  3
AutoCAD 2000
 90
        0
280
     0
281
     1
  0
CLASS
  1
XRECORD
  2
AcDbXrecord
  3
AutoCAD 2000
 90
        0
280
     0
281
     0
  0
CLASS
  1
LONG_TRANSACTION
  2
AcDbLongTransaction
  3
AutoCAD 2000
 90
        0
280
     0
281
     0
  0
CLASS
  1
LWPOLYLINE
  2
AcDbPolyline
  3
AutoCAD 2000
 90
        0
280
     0
281
     1
  0
CLASS
  1
HATCH
  2
AcDbHatch
  3
AutoCAD 2000
 90
        0
280
     0
281
     1
  0
CLASS
  1
XRECORD
  2
AcDbXrecord
  3
AutoCAD 2000
 90
        0
280
     0
281
     0
  0
CLASS
  1
LONG_TRANSACTION
  2
AcDbLongTransaction
  3
AutoCAD 2000
 90
        0
280
     0
281
     0
  0
CLASS
  1
LWPOLYLINE
  2
AcDbPolyline
  3
AutoCAD 2000
 90
        0
280
     0
281
     1
  0
CLASS
  1
HATCH
  2
AcDbHatch
  3
AutoCAD 2000
 90
        0
280
     0
281
     1
  0
CLASS
  1
XRECORD
  2
AcDbXrecord
  3
AutoCAD 2000
 90
        0
280
     0
281
     0
  0
CLASS
  1
LONG_TRANSACTION
  2
AcDbLongTransaction
  3
AutoCAD 2000
 90
        0
280
     0
281
     0
  0
CLASS
  1
LWPOLYLINE
  2
AcDbPolyline
  3
AutoCAD 2000
 90
        0
280
     0
281
     1
  0
CLASS
  1
HATCH
  2
AcDbHatch
  3
AutoCAD 2000
 90
        0
280
     0
281
     1
  0
CLASS
  1
XRECORD
  2
AcDbXrecord
  3
AutoCAD 2000
 90
        0
280
     0
281
     0
  0
ENDSEC
  0
SECTION
  2
TABLES
  0
TABLE
  2
VPORT
  5
8
330
0
100
AcDbSymbolTable
 70
     5
  0
VPORT
  5
1EB7
330
8
100
AcDbSymbolTableRecord
100
AcDbViewportTableRecord
  2
*ACTIVE
 70
     0
 10
0.0
 20
0.0
 11
1.0
 21
1.0
 12
149.1039336935696
 22
124.898171771672
 13
0.0
 23
0.0
 14
168.0
 24
168.0
 15
0.0
 25
0.0
 16
0.0
 26
0.0
 36
1.0
 17
0.0
 27
0.0
 37
0.0
 40
509.5904844009896
 41
1.602080624187256
 42
50.0
 43
0.0
 44
0.0
 50
0.0
 51
0.0
 71
     0
 72
   100
 73
     1
 74
     0
 75
     0
 76
     0
 77
     0
 78
     1
  0
ENDTAB
  0
TABLE
  2
LTYPE
  5
5
330
0
100
AcDbSymbolTable
 70
     2
  0
LTYPE
  5
14
330
5
100
AcDbSymbolTableRecord
100
AcDbLinetypeTableRecord
  2
BYBLOCK
 70
     0
  3

 72
    65
 73
     0
 40
0.0
  0
LTYPE
  5
15
330
5
100
AcDbSymbolTableRecord
100
AcDbLinetypeTableRecord
  2
BYLAYER
 70
     0
  3

 72
    65
 73
     0
 40
0.0
  0
LTYPE
  5
16
330
5
100
AcDbSymbolTableRecord
100
AcDbLinetypeTableRecord
  2
CONTINUOUS
 70
     0
  3
Solid line
 72
    65
 73
     0
 40
0.0
  0
LTYPE
  5
6E
330
5
100
AcDbSymbolTableRecord
100
AcDbLinetypeTableRecord
  2
CENTER
 70
     0
  3
____ _ ____ _ ____ _ ____ _ ____ _ ____ _ ____ 
 72
    65
 73
     4
 40
2.0
 49
1.25
 74
     0
 49
-0.25
 74
     0
 49
0.25
 74
     0
 49
-0.25
 74
     0
  0
ENDTAB
  0
TABLE
  2
LAYER
  5
2
330
0
100
AcDbSymbolTable
 70
     8
  0
LAYER
  5
F
330
2
100
AcDbSymbolTableRecord
100
AcDbLayerTableRecord
  2
0
 70
     0
 62
     7
  6
CONTINUOUS
  0
LAYER
  5
72
330
2
100
AcDbSymbolTableRecord
100
AcDbLayerTableRecord
  2
DEFPOINTS
 70
     0
 62
     7
  6
CONTINUOUS
  0
LAYER
  5
74
330
2
100
AcDbSymbolTableRecord
100
AcDbLayerTableRecord
  2
CENTER
 70
     0
 62
     9
  6
CENTER
  0
LAYER
  5
1E84
330
2
100
AcDbSymbolTableRecord
100
AcDbLayerTableRecord
  2
1
 70
     0
 62
     7
  6
CONTINUOUS
  0
ENDTAB
  0
TABLE
  2
STYLE
  5
3
330
0
100
AcDbSymbolTable
 70
     7
  0
STYLE
  5
10
330
3
100
AcDbSymbolTableRecord
100
AcDbTextStyleTableRecord
  2
STANDARD
 70
     0
 40
0.0
 41
0.8
 50
0.0
 71
     0
 42
84.17508417508416
  3
TXT
  4
bigfont.shx
  0
STYLE
  5
63
330
3
100
AcDbSymbolTableRecord
100
AcDbTextStyleTableRecord
  2
AD-STANDARD
 70
     0
 40
0.0
 41
0.8
 50
0.0
 71
     0
 42
3.5
  3
C:\Program Files\AutoCAD LT\romans.shx
  4
bigfont.shx
  0
ENDTAB
  0
TABLE
  2
VIEW
  5
6
330
0
100
AcDbSymbolTable
 70
     0
  0
ENDTAB
  0
TABLE
  2
UCS
  5
7
330
0
100
AcDbSymbolTable
 70
     0
  0
ENDTAB
  0
TABLE
  2
APPID
  5
9
330
0
100
AcDbSymbolTable
 70
     5
  0
APPID
  5
11
330
9
100
AcDbSymbolTableRecord
100
AcDbRegAppTableRecord
  2
ACAD
 70
     0
  0
APPID
  5
22A
330
9
100
AcDbSymbolTableRecord
100
AcDbRegAppTableRecord
  2
CONTENTTABDATA
 70
     0
  0
APPID
  5
22B
330
9
100
AcDbSymbolTableRecord
100
AcDbRegAppTableRecord
  2
CONTENTCURRENTTAB
 70
     0
  0
APPID
  5
232
330
9
100
AcDbSymbolTableRecord
100
AcDbRegAppTableRecord
  2
CONTENTBLOCKDESCRIPTION
 70
     0
  0
APPID
  5
233
330
9
100
AcDbSymbolTableRecord
100
AcDbRegAppTableRecord
  2
CONTENTBLOCKICON
 70
     0
  0
ENDTAB
  0
TABLE
  2
DIMSTYLE
  5
A
330
0
100
AcDbSymbolTable
 70
     3
  0
DIMSTYLE
105
1D
330
A
100
AcDbSymbolTableRecord
100
AcDbDimStyleTableRecord
  2
STANDARD
 70
     0
  3

  4

  5

  6

  7

 40
1.0
 41
0.18
 42
0.0625
 43
0.38
 44
0.18
 45
0.0
 46
0.0
 47
0.0
 48
0.0
140
0.18
141
0.09
142
0.0
143
25.4
144
1.0
145
0.0
146
1.0
147
0.09
 71
     0
 72
     0
 73
     1
 74
     1
 75
     0
 76
     0
 77
     0
 78
     0
170
     0
171
     2
172
     0
173
     0
174
     0
175
     0
176
     0
177
     0
178
     0
270
     2
271
     4
272
     4
273
     2
274
     2
340
10
275
     0
280
     0
281
     0
282
     0
283
     1
284
     0
285
     0
286
     0
287
     3
288
     0
  0
ENDTAB
  0
TABLE
  2
BLOCK_RECORD
  5
1
330
0
100
AcDbSymbolTable
 70
    20
  0
BLOCK_RECORD
  5
1A
102
{ACAD_XDICTIONARY
360
1439
102
}
330
1
100
AcDbSymbolTableRecord
100
AcDbBlockTableRecord
  2
*MODEL_SPACE
  0
BLOCK_RECORD
  5
1402
102
{ACAD_XDICTIONARY
360
1415
102
}
330
1
100
AcDbSymbolTableRecord
100
AcDbBlockTableRecord
  2
*PAPER_SPACE
  0
ENDTAB
  0
ENDSEC
  0
SECTION
  2
BLOCKS
  0
BLOCK
  5
1B
330
1A
100
AcDbEntity
  8
0
100
AcDbBlockBegin
  2
*MODEL_SPACE
 70
     0
 10
0.0
 20
0.0
 30
0.0
  3
*MODEL_SPACE
  1

  0
ENDBLK
  5
1C
330
1A
100
AcDbEntity
  8
0
100
AcDbBlockEnd
  0
BLOCK
  5
140F
330
1402
100
AcDbEntity
 67
     1
  8
0
100
AcDbBlockBegin
  2
*PAPER_SPACE
 70
     0
 10
0.0
 20
0.0
 30
0.0
  3
*PAPER_SPACE
  1

  0
ENDBLK
  5
1410
330
1402
100
AcDbEntity
 67
     1
  8
0
100
AcDbBlockEnd
  0
ENDSEC
  0
SECTION
  2
ENTITIES
  0
LINE
  5
16A2
330
1A
100
AcDbEntity
  8
1
100
AcDbLine
 10
85.15803798722799
 20
73.71529092026121
 30
0.0
 11
152.1580367988003
 21
73.71529092026121
 31
0.0
  0
LINE
  5
16A4
330
1A
100
AcDbEntity
  8
1
100
AcDbLine
 10
85.15803798722799
 20
39.71529092026121
 30
0.0
 11
152.1580367987996
 21
39.71529092026212
 31
0.0
  0
LINE
  5
16A5
330
1A
100
AcDbEntity
  8
1
100
AcDbLine
 10
89.158037987228
 20
71.71529092026121
 30
0.0
 11
148.1580347801905
 21
71.7152909202603
 31
0.0
  0
LINE
  5
16A6
330
1A
100
AcDbEntity
  8
1
100
AcDbLine
 10
148.1580367988003
 20
41.71529092026121
 30
0.0
 11
89.158037987228
 21
41.71529092026121
 31
0.0
  0
LINE
  5
16A8
330
1A
100
AcDbEntity
  8
CENTER
 48
4.0
100
AcDbLine
 10
34.50880238464606
 20
161.6971876508408
 30
0.0
 11
204.508802384646
 21
161.6971876508408
 31
0.0
  0
LINE
  5
16AA
330
1A
100
AcDbEntity
  8
1
100
AcDbLine
 10
194.5088026933164
 20
141.6971876508408
 30
0.0
 11
44.5088026933164
 21
141.6971876508408
 31
0.0
  0
LINE
  5
16AB
330
1A
100
AcDbEntity
  8
1
100
AcDbLine
 10
44.50880285073901
 20
181.6971876508408
 30
0.0
 11
194.508802850739
 21
181.6971876508408
 31
0.0
  0
LINE
  5
16AC
330
1A
100
AcDbEntity
  8
CENTER
  6
CENTER
 62
     9
100
AcDbLine
 10
46.00880222722344
 20
152.6971876508408
 30
0.0
 11
55.00880222722344
 21
152.6971876508408
 31
0.0
  0
LINE
  5
16AD
330
1A
100
AcDbEntity
  8
CENTER
  6
CENTER
 62
     9
100
AcDbLine
 10
46.0088022871937
 20
170.6971876508408
 30
0.0
 11
55.0088022871937
 21
170.6971876508408
 31
0.0
  0
LINE
  5
16B2
330
1A
100
AcDbEntity
  8
1
100
AcDbLine
 10
43.65803637900762
 20
73.71529092026121
 30
0.0
 11
85.15803798722618
 21
73.71529092026303
 31
0.0
  0
CIRCLE
  5
16B3
330
1A
100
AcDbEntity
  8
1
100
AcDbCircle
 10
50.50880259586404
 20
170.6971876508408
 30
0.0
 40
2.6
  0
CIRCLE
  5
16B4
330
1A
100
AcDbEntity
  8
1
100
AcDbCircle
 10
50.50880253589378
 20
152.6971876508408
 30
0.0
 40
2.6
  0
LINE
  5
16B5
330
1A
100
AcDbEntity
  8
1
100
AcDbLine
 10
56.76237789625412
 20
186.6971878438965
 30
0.0
 11
26.51237789625139
 21
186.6971878438965
 31
0.0
  0
LINE
  5
16B6
330
1A
100
AcDbEntity
  8
1
100
AcDbLine
 10
73.86237789624994
 20
183.1971878438965
 30
0.0
 11
26.51237789625139
 21
183.1971878438965
 31
0.0
  0
LINE
  5
16B8
330
1A
100
AcDbEntity
  8
1
100
AcDbLine
 10
73.65803739301418
 20
39.7152909202603
 30
0.0
 11
43.65803616911171
 21
39.71529092026121
 31
0.0
  0
LINE
  5
16B9
330
1A
100
AcDbEntity
  8
1
100
AcDbLine
 10
43.65803618410382
 20
39.71529092026121
 30
0.0
 11
43.65803637900762
 21
73.71529092026121
 31
0.0
  0
LINE
  5
16BB
330
1A
100
AcDbEntity
  8
CENTER
  6
CENTER
 62
     9
100
AcDbLine
 10
50.5088022871937
 20
166.1971876508408
 30
0.0
 11
50.5088022871937
 21
175.1971876508408
 31
0.0
  0
LINE
  5
16BC
330
1A
100
AcDbEntity
  8
1
100
AcDbLine
 10
44.5088026933164
 20
141.6971876508408
 30
0.0
 11
44.50880285073901
 21
181.6971876508408
 31
0.0
  0
LINE
  5
16BD
330
1A
100
AcDbEntity
  8
CENTER
  6
CENTER
 62
     9
100
AcDbLine
 10
50.50880222722344
 20
148.1971876508408
 30
0.0
 11
50.50880222722344
 21
157.1971876508408
 31
0.0
  0
LINE
  5
16BE
330
1A
100
AcDbEntity
  8
1
100
AcDbLine
 10
96.00880184535084
 20
141.6971876508407
 30
0.0
 11
96.00880184535084
 21
136.1971876508408
 31
0.0
  0
LINE
  5
16BF
330
1A
100
AcDbEntity
  8
1
100
AcDbLine
 10
71.00880184534992
 20
136.1971876508407
 30
0.0
 11
71.00880184534992
 21
141.6971876508407
 31
0.0
  0
ARC
  5
16C0
330
1A
100
AcDbEntity
  8
1
100
AcDbCircle
 10
103.6580361691117
 20
58.21529092026121
 30
0.0
 40
8.0
100
AcDbArc
 50
25.94447977237156
 51
190.80692287486
  0
ARC
  5
16C1
330
1A
100
AcDbEntity
  8
1
100
AcDbCircle
 10
103.6580361691117
 20
55.21529092026121
 30
0.0
 40
8.0
100
AcDbArc
 50
169.1930771251399
 51
334.0555202276371
  0
LINE
  5
16C4
330
1A
100
AcDbEntity
  8
1
100
AcDbLine
 10
95.15803569155059
 20
66.21529092026451
 30
0.0
 11
95.15803569154968
 21
47.2152909202636
 31
0.0
  0
LINE
  5
16C5
330
1A
100
AcDbEntity
  8
1
100
AcDbLine
 10
70.15803569155059
 20
66.21529092026451
 30
0.0
 11
70.15803569154968
 21
47.2152909202645
 31
0.0
  0
ARC
  5
16C7
330
1A
100
AcDbEntity
  8
1
100
AcDbCircle
 10
77.65803739301418
 20
40.7152909202612
 30
0.0
 40
4.0
100
AcDbArc
 50
0.0
 51
180.0
  0
LINE
  5
16C9
330
1A
100
AcDbEntity
  8
1
100
AcDbLine
 10
93.15803569154969
 20
45.21529092026359
 30
0.0
 11
72.15803569154968
 21
45.2152909202645
 31
0.0
  0
LINE
  5
16CA
330
1A
100
AcDbEntity
  8
1
100
AcDbLine
 10
73.65803739301418
 20
40.7152909202612
 30
0.0
 11
73.65803739301418
 21
39.71529092026121
 31
0.0
  0
ARC
  5
16CB
330
1A
100
AcDbEntity
  8
1
100
AcDbCircle
 10
72.1580356915506
 20
47.21529092026485
 30
0.0
 40
2.0
100
AcDbArc
 50
180.0
 51
270.0
  0
ARC
  5
16CD
330
1A
100
AcDbEntity
  8
1
100
AcDbCircle
 10
89.158037987228
 20
36.71529092026121
 30
0.0
 40
5.0
100
AcDbArc
 50
90.0
 51
143.1301023541566
  0
ARC
  5
16CE
330
1A
100
AcDbEntity
  8
1
100
AcDbCircle
 10
89.158037987228
 20
36.71529092026121
 30
0.0
 40
5.0
100
AcDbArc
 50
90.0
 51
143.1301023541566
  0
LINE
  5
16CF
330
1A
100
AcDbEntity
  8
1
100
AcDbLine
 10
85.15803739301418
 20
39.71529092026121
 30
0.0
 11
81.65803739301418
 21
39.71529092026121
 31
0.0
  0
LINE
  5
16D0
330
1A
100
AcDbEntity
  8
1
100
AcDbLine
 10
81.65803739301418
 20
40.7152909202612
 30
0.0
 11
81.65803739301418
 21
39.71529092026121
 31
0.0
  0
ARC
  5
16D1
330
1A
100
AcDbEntity
  8
1
100
AcDbCircle
 10
93.15803569155059
 20
47.21529092026393
 30
0.0
 40
2.0
100
AcDbArc
 50
270.0
 51
359.9999999999983
  0
LINE
  5
16D3
330
1A
100
AcDbEntity
  8
1
100
AcDbLine
 10
72.00880184534992
 20
135.1971876508407
 30
0.0
 11
95.00880184535082
 21
135.1971876508408
 31
0.0
  0
LINE
  5
16D5
330
1A
100
AcDbEntity
  8
1
100
AcDbLine
 10
93.15803569155059
 20
68.21529092026451
 30
0.0
 11
72.1580356915506
 21
68.21529092026451
 31
0.0
  0
ARC
  5
16D6
330
1A
100
AcDbEntity
  8
1
100
AcDbCircle
 10
72.1580356915506
 20
66.21529092026484
 30
0.0
 40
2.0
100
AcDbArc
 50
90.0
 51
180.0
  0
ARC
  5
16D8
330
1A
100
AcDbEntity
  8
1
100
AcDbCircle
 10
72.00880184534992
 20
136.1971876508407
 30
0.0
 40
1.0
100
AcDbArc
 50
180.0
 51
270.0
  0
ARC
  5
16D9
330
1A
100
AcDbEntity
  8
1
100
AcDbCircle
 10
89.158037987228
 20
76.71529092026121
 30
0.0
 40
5.0
100
AcDbArc
 50
216.8698976458433
 51
270.0
  0
ARC
  5
16DA
330
1A
100
AcDbEntity
  8
1
100
AcDbCircle
 10
93.15803569155059
 20
66.21529092026484
 30
0.0
 40
2.0
100
AcDbArc
 50
0.0
 51
90.0
  0
ARC
  5
16DC
330
1A
100
AcDbEntity
  8
1
100
AcDbCircle
 10
95.00880184535082
 20
136.1971876508408
 30
0.0
 40
1.0
100
AcDbArc
 50
270.0
 51
0.0
  0
ARC
  5
16DD
330
1A
100
AcDbEntity
  8
1
100
AcDbCircle
 10
133.658036775058
 20
58.21529120518771
 30
0.0
 40
8.0
100
AcDbArc
 50
349.1930782134797
 51
154.0555224969816
  0
LINE
  5
16DE
330
1A
100
AcDbEntity
  8
1
100
AcDbLine
 10
126.4642896857008
 20
51.71529092026121
 30
0.0
 11
110.8517834540812
 21
51.71529092026121
 31
0.0
  0
ARC
  5
16DF
330
1A
100
AcDbEntity
  8
1
100
AcDbCircle
 10
133.6580368320433
 20
55.21529120518771
 30
0.0
 40
8.0
100
AcDbArc
 50
205.9444820417131
 51
10.80692396319822
  0
LINE
  5
16E0
330
1A
100
AcDbEntity
  8
1
100
AcDbLine
 10
110.8517834540812
 20
61.71529092026121
 30
0.0
 11
126.4642893514624
 21
61.7152909202603
 31
0.0
  0
ARC
  5
16E1
330
1A
100
AcDbEntity
  8
1
100
AcDbCircle
 10
73.76237789624958
 20
181.6971878438965
 30
0.0
 40
5.0
100
AcDbArc
 50
359.9999977877441
 51
90.0
  0
ARC
  5
16E2
330
1A
100
AcDbEntity
  8
1
100
AcDbCircle
 10
73.86237789624994
 20
181.7971878438968
 30
0.0
 40
1.399999999999999
100
AcDbArc
 50
355.9039483206872
 51
90.0
  0
LINE
  5
16E3
330
1A
100
AcDbEntity
  8
1
100
AcDbLine
 10
71.00880184534992
 20
141.6971876508407
 30
0.0
 11
86.00880184535084
 21
141.6971876508408
 31
0.0
  0
LINE
  5
16E4
330
1A
100
AcDbEntity
  8
CENTER
  6
CENTER
 62
     9
100
AcDbLine
 10
68.50880238464606
 20
166.1971876508408
 30
0.0
 11
68.50880238464606
 21
175.1971876508408
 31
0.0
  0
CIRCLE
  5
16E5
330
1A
100
AcDbEntity
  8
1
100
AcDbCircle
 10
68.50880269331639
 20
170.6971876859236
 30
0.0
 40
2.6
  0
LINE
  5
16E6
330
1A
100
AcDbEntity
  8
CENTER
  6
CENTER
 62
     9
100
AcDbLine
 10
68.5088023246758
 20
148.1971876508408
 30
0.0
 11
68.5088023246758
 21
157.1971876508408
 31
0.0
  0
LINE
  5
16E7
330
1A
100
AcDbEntity
  8
CENTER
  6
CENTER
 62
     9
100
AcDbLine
 10
64.0088023246758
 20
152.6971876508408
 30
0.0
 11
73.0088023246758
 21
152.6971876508408
 31
0.0
  0
CIRCLE
  5
16E8
330
1A
100
AcDbEntity
  8
1
100
AcDbCircle
 10
68.50880263334613
 20
152.6971876859236
 30
0.0
 40
2.6
  0
LINE
  5
16E9
330
1A
100
AcDbEntity
  8
CENTER
  6
CENTER
 62
     9
100
AcDbLine
 10
64.00880238464606
 20
170.6971876508408
 30
0.0
 11
73.00880238464606
 21
170.6971876508408
 31
0.0
  0
LINE
  5
16EA
330
1A
100
AcDbEntity
  8
1
100
AcDbLine
 10
66.51237789625412
 20
184.6971878438965
 30
0.0
 11
56.51237789625321
 21
184.6971878438965
 31
0.0
  0
LINE
  5
16EB
330
1A
100
AcDbEntity
  8
1
100
AcDbLine
 10
66.51237789625412
 20
185.4971878438967
 30
0.0
 11
56.51237789625321
 21
185.4971878438967
 31
0.0
  0
LINE
  5
16EC
330
1A
100
AcDbEntity
  8
1
100
AcDbLine
 10
65.3123778962543
 20
186.4971878438966
 30
0.0
 11
57.71237789625394
 21
186.4971878438957
 31
0.0
  0
LINE
  5
16ED
330
1A
100
AcDbEntity
  8
1
100
AcDbLine
 10
56.76237789625412
 20
183.1971878438965
 30
0.0
 11
66.26237789625685
 21
183.1971878438965
 31
0.0
  0
LINE
  5
16EE
330
1A
100
AcDbEntity
  8
1
100
AcDbLine
 10
66.26237789625685
 20
184.6971878438965
 30
0.0
 11
56.76237789625321
 21
184.6971878438965
 31
0.0
  0
LINE
  5
16EF
330
1A
100
AcDbEntity
  8
1
100
AcDbLine
 10
63.61237789625175
 20
189.4971878438948
 30
0.0
 11
59.41237789625285
 21
189.4971878438939
 31
0.0
  0
LINE
  5
16F0
330
1A
100
AcDbEntity
  8
1
100
AcDbLine
 10
57.71237789625394
 20
187.7971878438941
 30
0.0
 11
57.71237789625394
 21
185.4971878438957
 31
0.0
  0
LINE
  5
16F1
330
1A
100
AcDbEntity
  8
1
100
AcDbLine
 10
56.76237789625412
 20
185.4971878438967
 30
0.0
 11
56.76237789625412
 21
188.1971878438983
 31
0.0
  0
LINE
  5
16F2
330
1A
100
AcDbEntity
  8
1
100
AcDbLine
 10
56.51237789625321
 20
185.4971878438967
 30
0.0
 11
56.51237789625321
 21
184.6971878438965
 31
0.0
  0
LINE
  5
16F3
330
1A
100
AcDbEntity
  8
1
100
AcDbLine
 10
56.76237789625412
 20
181.6971878438974
 30
0.0
 11
56.76237789625412
 21
184.6971878438965
 31
0.0
  0
LINE
  5
16F4
330
1A
100
AcDbEntity
  8
1
100
AcDbLine
 10
57.76010673206821
 20
188.1971878438974
 30
0.0
 11
56.76237789625321
 21
188.1971878438974
 31
0.0
  0
ARC
  5
16F5
330
1A
100
AcDbEntity
  8
1
100
AcDbCircle
 10
59.41237789625285
 20
187.7971878438941
 30
0.0
 40
1.7
100
AcDbArc
 50
90.00000000000651
 51
180.0
  0
LINE
  5
16F6
330
1A
100
AcDbEntity
  8
1
100
AcDbLine
 10
66.26237789625685
 20
185.4971878438967
 30
0.0
 11
66.26237789625685
 21
188.1971878438983
 31
0.0
  0
LINE
  5
16F7
330
1A
100
AcDbEntity
  8
1
100
AcDbLine
 10
65.31237789625248
 20
187.7971878438959
 30
0.0
 11
65.3123778962543
 21
185.4971878438967
 31
0.0
  0
LINE
  5
16F8
330
1A
100
AcDbEntity
  8
1
100
AcDbLine
 10
73.76237789624958
 20
186.6971878438965
 30
0.0
 11
66.26237789625685
 21
186.6971878438965
 31
0.0
  0
LINE
  5
16F9
330
1A
100
AcDbEntity
  8
1
100
AcDbLine
 10
66.51237789625321
 20
185.4971878438967
 30
0.0
 11
66.51237789625321
 21
184.6971878438965
 31
0.0
  0
LINE
  5
16FA
330
1A
100
AcDbEntity
  8
1
100
AcDbLine
 10
66.26237789625685
 20
181.6971878438974
 30
0.0
 11
66.26237789625685
 21
184.6971878438965
 31
0.0
  0
LINE
  5
16FB
330
1A
100
AcDbEntity
  8
1
100
AcDbLine
 10
66.26237789625685
 20
188.1971878438974
 30
0.0
 11
65.26464906043822
 21
188.1971878438974
 31
0.0
  0
ARC
  5
16FC
330
1A
100
AcDbEntity
  8
1
100
AcDbCircle
 10
63.61237789625358
 20
187.797187843895
 30
0.0
 40
1.7
100
AcDbArc
 50
0.0000000000195413
 51
90.00000000002605
  0
LINE
  5
16FD
330
1A
100
AcDbEntity
  8
1
100
AcDbLine
 10
86.0088047305445
 20
141.6971886913418
 30
0.0
 11
86.00880621216413
 21
181.6971886913418
 31
0.0
  0
LINE
  5
16FE
330
1A
100
AcDbEntity
  8
1
100
AcDbLine
 10
86.00880184535084
 20
141.3971876508408
 30
0.0
 11
95.42301540772417
 21
141.3971876508407
 31
0.0
  0
LINE
  5
16FF
330
1A
100
AcDbEntity
  8
1
100
AcDbLine
 10
86.00880184535084
 20
141.6971876508407
 30
0.0
 11
86.00880184535084
 21
141.3971876508407
 31
0.0
  0
LINE
  5
1700
330
1A
100
AcDbEntity
  8
1
100
AcDbLine
 10
94.42093387970738
 20
141.6971876508408
 30
0.0
 11
96.00880184535084
 21
141.6971876508407
 31
0.0
  0
LINE
  5
1701
330
1A
100
AcDbEntity
  8
1
100
AcDbLine
 10
94.42093387970738
 20
141.3971876508407
 30
0.0
 11
94.42093387970738
 21
141.6971876508407
 31
0.0
  0
LINE
  5
1702
330
1A
100
AcDbEntity
  8
1
100
AcDbLine
 10
95.42301540772417
 20
141.3971876508407
 30
0.0
 11
95.42301540772417
 21
141.6971876508407
 31
0.0
  0
LINE
  5
1703
330
1A
100
AcDbEntity
  8
1
100
AcDbLine
 10
78.76237789624958
 20
181.6971878438983
 30
0.0
 11
78.76237789624958
 21
181.6971878438965
 31
0.0
  0
LINE
  5
1704
330
1A
100
AcDbEntity
  8
1
100
AcDbLine
 10
233.6580363790076
 20
73.71529064245759
 30
0.0
 11
273.6580363790076
 21
73.71529064245759
 31
0.0
  0
LINE
  5
1706
330
1A
100
AcDbEntity
  8
1
100
AcDbLine
 10
273.6580363790076
 20
39.71529064245759
 30
0.0
 11
233.6580363790076
 21
39.71529064245759
 31
0.0
  0
LINE
  5
170B
330
1A
100
AcDbEntity
  8
1
100
AcDbLine
 10
193.6580361691117
 20
39.71529092026121
 30
0.0
 11
152.1580367988003
 21
39.71529092026212
 31
0.0
  0
LINE
  5
170C
330
1A
100
AcDbEntity
  8
1
100
AcDbLine
 10
163.6580373930141
 20
73.71529092026121
 30
0.0
 11
193.6580363790076
 21
73.71529092026121
 31
0.0
  0
ARC
  5
1712
330
1A
100
AcDbEntity
  8
1
100
AcDbCircle
 10
148.1580367988003
 20
36.71529092026121
 30
0.0
 40
5.0
100
AcDbArc
 50
36.86989764584337
 51
90.0
  0
ARC
  5
1714
330
1A
100
AcDbEntity
  8
1
100
AcDbCircle
 10
159.6580373930141
 20
72.71529092026121
 30
0.0
 40
4.0
100
AcDbArc
 50
180.0
 51
0.0
  0
ARC
  5
1715
330
1A
100
AcDbEntity
  8
1
100
AcDbCircle
 10
148.1580367988003
 20
76.71529092026121
 30
0.0
 40
5.0
100
AcDbArc
 50
270.0
 51
323.1301023541566
  0
LINE
  5
1716
330
1A
100
AcDbEntity
  8
1
100
AcDbLine
 10
155.6580373930141
 20
72.71529092026121
 30
0.0
 11
155.6580373930141
 21
73.71529092026121
 31
0.0
  0
LINE
  5
1717
330
1A
100
AcDbEntity
  8
1
100
AcDbLine
 10
152.1580373930141
 20
73.71529092026121
 30
0.0
 11
155.6580373930141
 21
73.71529092026121
 31
0.0
  0
LINE
  5
1718
330
1A
100
AcDbEntity
  8
1
100
AcDbLine
 10
163.6580373930141
 20
72.71529092026121
 30
0.0
 11
163.6580373930141
 21
73.71529092026121
 31
0.0
  0
LINE
  5
1720
330
1A
100
AcDbEntity
  8
1
100
AcDbLine
 10
227.1580373930141
 20
66.71529095112735
 30
0.0
 11
227.1580373930143
 21
46.71529095112735
 31
0.0
  0
LINE
  5
1721
330
1A
100
AcDbEntity
  8
1
100
AcDbLine
 10
233.6580363790076
 20
73.71529064245759
 30
0.0
 11
233.6580361691117
 21
39.71529064245759
 31
0.0
  0
LINE
  5
1722
330
1A
100
AcDbEntity
  8
1
100
AcDbLine
 10
193.6580363790076
 20
73.71529092026121
 30
0.0
 11
193.6580361691117
 21
39.71529092026121
 31
0.0
  0
ARC
  5
1723
330
1A
100
AcDbEntity
  8
1
100
AcDbCircle
 10
228.1580373930143
 20
46.71529095112735
 30
0.0
 40
1.0
100
AcDbArc
 50
180.0
 51
270.0
  0
LINE
  5
1724
330
1A
100
AcDbEntity
  8
1
100
AcDbLine
 10
233.6580373930142
 20
45.71529095112736
 30
0.0
 11
228.1580373930143
 21
45.71529095112736
 31
0.0
  0
ARC
  5
1726
330
1A
100
AcDbEntity
  8
1
100
AcDbCircle
 10
228.1580373930141
 20
66.71529095112735
 30
0.0
 40
1.0
100
AcDbArc
 50
90.0
 51
180.0
  0
LINE
  5
1727
330
1A
100
AcDbEntity
  8
1
100
AcDbLine
 10
233.6580373930142
 20
67.71529095112736
 30
0.0
 11
228.1580373930141
 21
67.71529095112736
 31
0.0
  0
LINE
  5
172D
330
1A
100
AcDbEntity
  8
CENTER
  6
CENTER
 62
     9
100
AcDbLine
 10
166.0088024446163
 20
170.6971876508408
 30
0.0
 11
175.0088024446163
 21
170.6971876508408
 31
0.0
  0
LINE
  5
172E
330
1A
100
AcDbEntity
  8
CENTER
  6
CENTER
 62
     9
100
AcDbLine
 10
166.008802384646
 20
152.6971876508408
 30
0.0
 11
175.008802384646
 21
152.6971876508408
 31
0.0
  0
CIRCLE
  5
172F
330
1A
100
AcDbEntity
  8
1
100
AcDbCircle
 10
170.5088026933164
 20
152.6971876508408
 30
0.0
 40
3.0
  0
CIRCLE
  5
1730
330
1A
100
AcDbEntity
  8
1
100
AcDbCircle
 10
170.5088026933164
 20
152.6971876508408
 30
0.0
 40
2.6
  0
CIRCLE
  5
1731
330
1A
100
AcDbEntity
  8
1
100
AcDbCircle
 10
170.5088027532866
 20
170.6971876508408
 30
0.0
 40
2.6
  0
CIRCLE
  5
1732
330
1A
100
AcDbEntity
  8
1
100
AcDbCircle
 10
170.5088027532866
 20
170.6971876508408
 30
0.0
 40
3.0
  0
LINE
  5
1733
330
1A
100
AcDbEntity
  8
1
100
AcDbLine
 10
164.508802850739
 20
181.6971876508408
 30
0.0
 11
164.508802850739
 21
141.6971876508408
 31
0.0
  0
LINE
  5
1734
330
1A
100
AcDbEntity
  8
1
100
AcDbLine
 10
156.508802850739
 20
181.6971876508408
 30
0.0
 11
156.508802850739
 21
141.6971876508408
 31
0.0
  0
LINE
  5
1735
330
1A
100
AcDbEntity
  8
1
100
AcDbLine
 10
153.008803323005
 20
141.6971876508408
 30
0.0
 11
153.008803323005
 21
181.6971876508408
 31
0.0
  0
LINE
  5
1736
330
1A
100
AcDbEntity
  8
CENTER
  6
CENTER
 62
     9
100
AcDbLine
 10
170.5088024446163
 20
166.1971876508408
 30
0.0
 11
170.5088024446163
 21
175.1971876508408
 31
0.0
  0
LINE
  5
1737
330
1A
100
AcDbEntity
  8
CENTER
  6
CENTER
 62
     9
100
AcDbLine
 10
170.508802384646
 20
148.1971876508408
 30
0.0
 11
170.508802384646
 21
157.1971876508408
 31
0.0
  0
CIRCLE
  5
1738
330
1A
100
AcDbEntity
  8
1
100
AcDbCircle
 10
188.508802850739
 20
161.6971876508408
 30
0.0
 40
2.6
  0
CIRCLE
  5
1739
330
1A
100
AcDbEntity
  8
1
100
AcDbCircle
 10
188.508802850739
 20
161.6971876508408
 30
0.0
 40
3.0
  0
LINE
  5
173B
330
1A
100
AcDbEntity
  8
CENTER
  6
CENTER
 62
     9
100
AcDbLine
 10
188.5088024633573
 20
157.1971876508408
 30
0.0
 11
188.5088024633573
 21
166.1971876508408
 31
0.0
  0
LINE
  5
173D
330
1A
100
AcDbEntity
  8
1
100
AcDbLine
 10
194.508802850739
 20
181.6971876508408
 30
0.0
 11
194.5088026933164
 21
141.6971876508408
 31
0.0
  0
ARC
  5
173F
330
1A
100
AcDbEntity
  8
1
100
AcDbCircle
 10
276.9080363790067
 20
55.96529064245759
 30
0.0
 40
3.25
100
AcDbArc
 50
180.0
 51
72.96658983303558
  0
ARC
  5
1740
330
1A
100
AcDbEntity
  8
1
100
AcDbCircle
 10
278.1580363790067
 20
60.54786633741376
 30
0.0
 40
3.0
100
AcDbArc
 50
180.0
 51
254.7424767095482
  0
LINE
  5
1741
330
1A
100
AcDbEntity
  8
1
100
AcDbLine
 10
273.6580363790076
 20
73.71529064245759
 30
0.0
 11
273.6580363790076
 21
39.71529064245759
 31
0.0
  0
LINE
  5
1742
330
1A
100
AcDbEntity
  8
1
100
AcDbLine
 10
275.1580363790076
 20
73.21529064245668
 30
0.0
 11
275.1580363790067
 21
55.96529064245759
 31
0.0
  0
CIRCLE
  5
1746
330
1A
100
AcDbEntity
  8
1
100
AcDbCircle
 10
276.9080363790067
 20
55.96529064245759
 30
0.0
 40
1.75
  0
LINE
  5
1748
330
1A
100
AcDbEntity
  8
1
100
AcDbLine
 10
276.6580363790076
 20
73.21529064245668
 30
0.0
 11
273.6580363790076
 21
73.21529064245668
 31
0.0
  0
ARC
  5
1749
330
1A
100
AcDbEntity
  8
1
100
AcDbCircle
 10
279.7580363790043
 20
69.81529064245704
 30
0.0
 40
1.7
100
AcDbArc
 50
0.0000000000081422
 51
90.0
  0
ARC
  5
174A
330
1A
100
AcDbEntity
  8
1
100
AcDbCircle
 10
279.7580363790052
 20
65.61529064245814
 30
0.0
 40
1.7
100
AcDbArc
 50
270.0000000000195
 51
0.0000000000260551
  0
LINE
  5
174B
330
1A
100
AcDbEntity
  8
1
100
AcDbLine
 10
277.4580363790078
 20
62.71529064245668
 30
0.0
 11
277.4580363790078
 21
72.71529064245668
 31
0.0
  0
LINE
  5
174C
330
1A
100
AcDbEntity
  8
1
100
AcDbLine
 10
276.6580363790067
 20
62.71529064245668
 30
0.0
 11
276.6580363790067
 21
72.71529064245668
 31
0.0
  0
LINE
  5
174D
330
1A
100
AcDbEntity
  8
1
100
AcDbLine
 10
278.4580363790078
 20
63.91529064245741
 30
0.0
 11
278.4580363790059
 21
71.51529064245777
 31
0.0
  0
LINE
  5
174E
330
1A
100
AcDbEntity
  8
1
100
AcDbLine
 10
276.6580363790076
 20
73.21529064245668
 30
0.0
 11
276.6580363790067
 21
60.6981544686855
 31
0.0
  0
LINE
  5
174F
330
1A
100
AcDbEntity
  8
1
100
AcDbLine
 10
279.758036379007
 20
63.91529064245741
 30
0.0
 11
277.4580363790078
 21
63.91529064245741
 31
0.0
  0
LINE
  5
1750
330
1A
100
AcDbEntity
  8
1
100
AcDbLine
 10
277.4580363790078
 20
62.71529064245668
 30
0.0
 11
276.6580363790067
 21
62.71529064245668
 31
0.0
  0
ARC
  5
1751
330
1A
100
AcDbEntity
  8
1
100
AcDbCircle
 10
278.3580363790074
 20
60.6981544686855
 30
0.0
 40
1.7
100
AcDbArc
 50
180.0
 51
252.9665898330287
  0
LINE
  5
1752
330
1A
100
AcDbEntity
  8
1
100
AcDbLine
 10
279.7580363790052
 20
71.51529064245777
 30
0.0
 11
277.458036379006
 21
71.51529064245777
 31
0.0
  0
LINE
  5
1753
330
1A
100
AcDbEntity
  8
1
100
AcDbLine
 10
277.4580363790078
 20
72.71529064245668
 30
0.0
 11
276.6580363790067
 21
72.71529064245668
 31
0.0
  0
LINE
  5
1754
330
1A
100
AcDbEntity
  8
1
100
AcDbLine
 10
281.458036379006
 20
65.61529064245814
 30
0.0
 11
281.4580363790041
 21
69.81529064245795
 31
0.0
  0
LINE
  5
18E1
330
1A
100
AcDbEntity
  8
1
100
AcDbLine
 10
43.65803627725637
 20
57.71529064245759
 30
0.0
 11
26.51237789625139
 21
57.71529064245758
 31
0.0
  0
LINE
  5
18E2
330
1A
100
AcDbEntity
  8
1
100
AcDbLine
 10
43.65803626722464
 20
54.21529064245759
 30
0.0
 11
26.51237789625139
 21
54.21529064245759
 31
0.0
  0
LINE
  5
19AF
330
1A
100
AcDbEntity
  8
1
100
AcDbLine
 10
85.6580343592932
 20
68.21529092026394
 30
0.0
 11
89.15803394199384
 21
71.71529044786784
 31
0.0
  0
LINE
  5
19B0
330
1A
100
AcDbEntity
  8
1
100
AcDbLine
 10
94.29997653862756
 20
67.85723218041294
 30
0.0
 11
98.15803422775116
 21
71.71528986953744
 31
0.0
  0
LINE
  5
19B1
330
1A
100
AcDbEntity
  8
1
100
AcDbLine
 10
89.15803394199384
 20
41.71529139265458
 30
0.0
 11
85.65803435928591
 21
45.21529092026393
 31
0.0
  0
LINE
  5
19B2
330
1A
100
AcDbEntity
  8
1
100
AcDbLine
 10
94.29997582904116
 20
45.57334916661129
 30
0.0
 11
98.15803422775116
 21
41.71529076789993
 31
0.0
  0
VIEWPORT
  5
1403
330
1402
100
AcDbEntity
 67
     1
  8
0
100
AcDbViewport
 10
218.9028238273468
 20
146.9023111574992
 30
0.0
 40
527.0321358266472
 41
328.9672990671199
 68
     1
 69
     1
1001
ACAD
1000
MVIEW
1002
{
1070
    16
1010
0.0
1020
0.0
1030
0.0
1010
0.0
1020
0.0
1030
1.0
1040
0.0
1040
328.9672990671199
1040
218.9028238273468
1040
146.9023111574992
1040
50.0
1040
0.0
1040
0.0
1070
     0
1070
   100
1070
     1
1070
     0
1070
     0
1070
     0
1070
     0
1070
     0
1040
0.0
1040
0.0
1040
0.0
1040
1.0
1040
1.0
1040
10.0
1040
10.0
1070
     0
1002
{
1002
}
1002
}
  0
VIEWPORT
  5
1404
330
1402
100
AcDbEntity
 67
     1
  8
DEFPOINTS
100
AcDbViewport
 10
212.5
 20
144.4999999999999
 30
0.0
 40
385.0
 41
264.9999999999999
 68
     2
 69
     2
1001
ACAD
1000
MVIEW
1002
{
1070
    16
1010
0.0
1020
0.0
1030
0.0
1010
0.0
1020
0.0
1030
1.0
1040
0.0
1040
282.6251297226011
1040
143.2997906908659
1040
111.0206545327255
1040
50.0
1040
0.0
1040
0.0
1070
     0
1070
   100
1070
     1
1070
     0
1070
     0
1070
     0
1070
     0
1070
     1
1040
0.0
1040
0.0
1040
0.0
1040
168.0
1040
168.0
1040
0.0
1040
0.0
1070
     0
1002
{
1002
}
1002
}
  0
VIEWPORT
  5
1462
330
1402
100
AcDbEntity
 67
     1
  8
DEFPOINTS
100
AcDbViewport
 10
212.4999999999999
 20
144.4999999999999
 30
0.0
 40
384.9999999999998
 41
265.0
 68
     3
 69
     3
1001
ACAD
1000
MVIEW
1002
{
1070
    16
1010
0.0
1020
0.0
1030
0.0
1010
0.0
1020
0.0
1030
1.0
1040
0.0
1040
378.5714287360107
1040
656.3437092170121
1040
84.86782157153275
1040
50.0
1040
0.0
1040
0.0
1070
     0
1070
   100
1070
     1
1070
     0
1070
     0
1070
     0
1070
     0
1070
     1
1040
0.0
1040
0.0
1040
0.0
1040
168.0
1040
168.0
1040
0.0
1040
0.0
1070
     0
1002
{
1002
}
1002
}
  0
ENDSEC
  0
SECTION
  2
OBJECTS
  0
DICTIONARY
  5
C
330
0
100
AcDbDictionary
  3
ACAD_GROUP
350
D
  3
ACAD_LAYOUT
350
1384
  3
ACAD_MLINESTYLE
350
E
  3
ACAD_PLOTSETTINGS
350
1385
  3
ACAD_PLOTSTYLENAME
350
1382
  3
ACDBVARIABLEDICTIONARY
350
1044
  3
CONTENTDICTIONARY
350
234
  3
DWGPROPS
350
1B45
  3
ACDBHEADERROUNDTRIPXREC
350
1EB8
  0
DICTIONARY
  5
1439
330
1A
100
AcDbDictionary
280
     1
  3
ACAD_LAYOUTSELFREF
360
1ED8
  0
DICTIONARY
  5
1415
330
1402
100
AcDbDictionary
280
     1
  3
ACAD_LAYOUTSELFREF
360
1ED9
  0
DICTIONARY
  5
D
102
{ACAD_REACTORS
330
C
102
}
330
C
100
AcDbDictionary
  3
*A1
350
36C
  3
*A2
350
377
  3
*A3
350
419
  3
*A4
350
41A
  3
*A5
350
621
  3
*A6
350
630
  3
*A7
350
682
  3
*A8
350
84A
  0
DICTIONARY
  5
1384
102
{ACAD_REACTORS
330
C
102
}
330
C
100
AcDbDictionary
  0
DICTIONARY
  5
E
102
{ACAD_REACTORS
330
C
102
}
330
C
100
AcDbDictionary
  3
STANDARD
350
13
  0
DICTIONARY
  5
1385
102
{ACAD_REACTORS
330
C
102
}
330
C
100
AcDbDictionary
  0
ACDBDICTIONARYWDFLT
  5
1382
102
{ACAD_REACTORS
330
C
102
}
330
C
100
AcDbDictionary
281
     1
  3
Normal
350
1383
100
AcDbDictionaryWithDefault
340
1383
  0
DICTIONARY
  5
1044
102
{ACAD_REACTORS
330
C
102
}
330
C
100
AcDbDictionary
  3
SORTENTS
350
1045
  0
DICTIONARY
  5
234
102
{ACAD_REACTORS
330
C
102
}
330
C
100
AcDbDictionary
  0
XRECORD
  5
1B45
102
{ACAD_REACTORS
330
C
102
}
330
C
100
AcDbXrecord
  1
DWGPROPS COOKIE
  2

  3

  4

  6

  7

  8

  9

300
=
301
=
302
=
303
=
304
=
305
=
306
=
307
=
308
=
309
=
 40
0.2971875
 41
2451430.616412153
 42
2451856.484083565
  1

 90
        0
  0
DICTIONARY
  5
1EB8
102
{ACAD_REACTORS
330
C
102
}
330
C
100
AcDbDictionary
  3
TSTACKALIGN
350
1EB9
  3
TSTACKSIZE
350
1EBA
  3
HYPERLINKBASE
350
1EBB
  3
STYLESHEET
350
1EBC
  3
LAYOUTDICT
350
1EBD
  3
PLOTSETDICT
350
1EBE
  3
PLOTSTYLNAMDICT
350
1EBF
  3
LWETCUNION
350
1EC0
  3
INSUNITS
350
1EC1
  3
CEPSNTYPE
350
1EC2
  3
FINGERPRINTGUID
350
1EC3
  3
VERSIONGUID
350
1EC4
  3
PSVPSCALE
350
1EC5
  3
PUCSORTHOREF
350
1EC6
  3
PUCSORTHOVIEW
350
1EC7
  3
PUCSBASE
350
1EC8
  3
PUCSORGTOP
350
1EC9
  3
PUCSORGBOTTOM
350
1ECA
  3
PUCSORGLEFT
350
1ECB
  3
PUCSORGRIGHT
350
1ECC
  3
PUCSORGFRONT
350
1ECD
  3
PUCSORGBACK
350
1ECE
  3
UCSORTHOREF
350
1ECF
  3
UCSORTHOVIEW
350
1ED0
  3
UCSBASE
350
1ED1
  3
UCSORGTOP
350
1ED2
  3
UCSORGBOTTOM
350
1ED3
  3
UCSORGLEFT
350
1ED4
  3
UCSORGRIGHT
350
1ED5
  3
UCSORGFRONT
350
1ED6
  3
UCSORGBACK
350
1ED7
  0
XRECORD
  5
1ED8
102
{ACAD_REACTORS
330
1439
102
}
330
1439
100
AcDbXrecord
340
1A
  0
XRECORD
  5
1ED9
102
{ACAD_REACTORS
330
1415
102
}
330
1415
100
AcDbXrecord
340
1402
  0
GROUP
  5
36C
102
{ACAD_REACTORS
330
D
102
}
330
D
100
AcDbGroup
300

 70
     1
 71
     1
  0
GROUP
  5
377
102
{ACAD_REACTORS
330
D
102
}
330
D
100
AcDbGroup
300

 70
     1
 71
     1
  0
GROUP
  5
419
102
{ACAD_REACTORS
330
D
102
}
330
D
100
AcDbGroup
300

 70
     1
 71
     1
  0
GROUP
  5
41A
102
{ACAD_REACTORS
330
D
102
}
330
D
100
AcDbGroup
300

 70
     1
 71
     1
  0
GROUP
  5
621
102
{ACAD_REACTORS
330
D
102
}
330
D
100
AcDbGroup
300

 70
     1
 71
     1
  0
GROUP
  5
630
102
{ACAD_REACTORS
330
D
102
}
330
D
100
AcDbGroup
300

 70
     1
 71
     1
  0
GROUP
  5
682
102
{ACAD_REACTORS
330
D
102
}
330
D
100
AcDbGroup
300

 70
     1
 71
     1
  0
GROUP
  5
84A
102
{ACAD_REACTORS
330
D
102
}
330
D
100
AcDbGroup
300

 70
     1
 71
     1
  0
MLINESTYLE
  5
13
102
{ACAD_REACTORS
330
E
102
}
330
E
100
AcDbMlineStyle
  2
STANDARD
 70
     0
  3

 62
     0
 51
90.0
 52
90.0
 71
     2
 49
0.5
 62
   256
  6
BYLAYER
 49
-0.5
 62
   256
  6
BYLAYER
  0
ACDBPLACEHOLDER
  5
1383
102
{ACAD_REACTORS
330
1382
102
}
330
1382
100
AcDbPlaceHolder
280
     0
  0
DICTIONARYVAR
  5
1045
102
{ACAD_REACTORS
330
1044
102
}
330
1044
100
DictionaryVariables
280
     0
  1
96
  0
XRECORD
  5
1EB9
102
{ACAD_REACTORS
330
1EB8
102
}
330
1EB8
100
AcDbXrecord
 90
        1
  0
XRECORD
  5
1EBA
102
{ACAD_REACTORS
330
1EB8
102
}
330
1EB8
100
AcDbXrecord
 90
       70
  0
XRECORD
  5
1EBB
102
{ACAD_REACTORS
330
1EB8
102
}
330
1EB8
100
AcDbXrecord
  1

  0
XRECORD
  5
1EBC
102
{ACAD_REACTORS
330
1EB8
102
}
330
1EB8
100
AcDbXrecord
  1

  0
XRECORD
  5
1EBD
102
{ACAD_REACTORS
330
1EB8
102
}
330
1EB8
100
AcDbXrecord
340
1384
  0
XRECORD
  5
1EBE
102
{ACAD_REACTORS
330
1EB8
102
}
330
1EB8
100
AcDbXrecord
340
1385
  0
XRECORD
  5
1EBF
102
{ACAD_REACTORS
330
1EB8
102
}
330
1EB8
100
AcDbXrecord
340
1382
  0
XRECORD
  5
1EC0
102
{ACAD_REACTORS
330
1EB8
102
}
330
1EB8
100
AcDbXrecord
 90
    14877
  0
XRECORD
  5
1EC1
102
{ACAD_REACTORS
330
1EB8
102
}
330
1EB8
100
AcDbXrecord
 90
        0
  0
XRECORD
  5
1EC2
102
{ACAD_REACTORS
330
1EB8
102
}
330
1EB8
100
AcDbXrecord
 90
        0
  0
XRECORD
  5
1EC3
102
{ACAD_REACTORS
330
1EB8
102
}
330
1EB8
100
AcDbXrecord
  1
{4530CFE0-B0D0-11D4-A139-00E02922560C}
  0
XRECORD
  5
1EC4
102
{ACAD_REACTORS
330
1EB8
102
}
330
1EB8
100
AcDbXrecord
  1
{ABFBE4BB-5CC2-42E8-96AF-6DF3B1B2E665}
  0
XRECORD
  5
1EC5
102
{ACAD_REACTORS
330
1EB8
102
}
330
1EB8
100
AcDbXrecord
 40
0.0
  0
XRECORD
  5
1EC6
102
{ACAD_REACTORS
330
1EB8
102
}
330
1EB8
100
AcDbXrecord
340
0
  0
XRECORD
  5
1EC7
102
{ACAD_REACTORS
330
1EB8
102
}
330
1EB8
100
AcDbXrecord
 70
     0
  0
XRECORD
  5
1EC8
102
{ACAD_REACTORS
330
1EB8
102
}
330
1EB8
100
AcDbXrecord
340
0
  0
XRECORD
  5
1EC9
102
{ACAD_REACTORS
330
1EB8
102
}
330
1EB8
100
AcDbXrecord
 10
0.0
 20
0.0
 30
0.0
  0
XRECORD
  5
1ECA
102
{ACAD_REACTORS
330
1EB8
102
}
330
1EB8
100
AcDbXrecord
 10
0.0
 20
0.0
 30
0.0
  0
XRECORD
  5
1ECB
102
{ACAD_REACTORS
330
1EB8
102
}
330
1EB8
100
AcDbXrecord
 10
0.0
 20
0.0
 30
0.0
  0
XRECORD
  5
1ECC
102
{ACAD_REACTORS
330
1EB8
102
}
330
1EB8
100
AcDbXrecord
 10
0.0
 20
0.0
 30
0.0
  0
XRECORD
  5
1ECD
102
{ACAD_REACTORS
330
1EB8
102
}
330
1EB8
100
AcDbXrecord
 10
0.0
 20
0.0
 30
0.0
  0
XRECORD
  5
1ECE
102
{ACAD_REACTORS
330
1EB8
102
}
330
1EB8
100
AcDbXrecord
 10
0.0
 20
0.0
 30
0.0
  0
XRECORD
  5
1ECF
102
{ACAD_REACTORS
330
1EB8
102
}
330
1EB8
100
AcDbXrecord
340
0
  0
XRECORD
  5
1ED0
102
{ACAD_REACTORS
330
1EB8
102
}
330
1EB8
100
AcDbXrecord
 70
     0
  0
XRECORD
  5
1ED1
102
{ACAD_REACTORS
330
1EB8
102
}
330
1EB8
100
AcDbXrecord
340
0
  0
XRECORD
  5
1ED2
102
{ACAD_REACTORS
330
1EB8
102
}
330
1EB8
100
AcDbXrecord
 10
0.0
 20
0.0
 30
0.0
  0
XRECORD
  5
1ED3
102
{ACAD_REACTORS
330
1EB8
102
}
330
1EB8
100
AcDbXrecord
 10
0.0
 20
0.0
 30
0.0
  0
XRECORD
  5
1ED4
102
{ACAD_REACTORS
330
1EB8
102
}
330
1EB8
100
AcDbXrecord
 10
0.0
 20
0.0
 30
0.0
  0
XRECORD
  5
1ED5
102
{ACAD_REACTORS
330
1EB8
102
}
330
1EB8
100
AcDbXrecord
 10
0.0
 20
0.0
 30
0.0
  0
XRECORD
  5
1ED6
102
{ACAD_REACTORS
330
1EB8
102
}
330
1EB8
100
AcDbXrecord
 10
0.0
 20
0.0
 30
0.0
  0
XRECORD
  5
1ED7
102
{ACAD_REACTORS
330
1EB8
102
}
330
1EB8
100
AcDbXrecord
 10
0.0
 20
0.0
 30
0.0
  0
ENDSEC
  0
EOF
