  0
SECTION
  2
HEADER
  9
$ACADVER
  1
AC1014
  9
$ACADMAINTVER
 70
     9
  9
$DWGCODEPAGE
  3
ANSI_932
  9
$INSBASE
 10
0.0
 20
0.0
 30
0.0
  9
$EXTMIN
 10
53.7217028248906
 20
34.22231143544468
 30
-0.00000001
  9
$EXTMAX
 10
254.2055426890792
 20
318.866893268947
 30
0.00000001
  9
$LIMMIN
 10
0.0
 20
0.0
  9
$LIMMAX
 10
10000.0
 20
10000.0
  9
$ORTHOMODE
 70
     1
  9
$REGENMODE
 70
     1
  9
$FILLMODE
 70
     1
  9
$QTEXTMODE
 70
     0
  9
$MIRRTEXT
 70
     1
  9
$DRAGMODE
 70
     2
  9
$LTSCALE
 40
5.0
  9
$OSMODE
 70
    32
  9
$ATTMODE
 70
     1
  9
$TEXTSIZE
 40
3.5
  9
$TRACEWID
 40
1.0
  9
$TEXTSTYLE
  7
AD-STANDARD
  9
$CLAYER
  8
1
  9
$CELTYPE
  6
BYLAYER
  9
$CECOLOR
 62
   256
  9
$CELTSCALE
 40
1.0
  9
$DELOBJ
 70
     1
  9
$DISPSILH
 70
     0
  9
$DIMSCALE
 40
1.0
  9
$DIMASZ
 40
0.18
  9
$DIMEXO
 40
0.0625
  9
$DIMDLI
 40
0.38
  9
$DIMRND
 40
0.0
  9
$DIMDLE
 40
0.0
  9
$DIMEXE
 40
0.18
  9
$DIMTP
 40
0.0
  9
$DIMTM
 40
0.0
  9
$DIMTXT
 40
0.18
  9
$DIMCEN
 40
0.09
  9
$DIMTSZ
 40
0.0
  9
$DIMTOL
 70
     0
  9
$DIMLIM
 70
     0
  9
$DIMTIH
 70
     1
  9
$DIMTOH
 70
     1
  9
$DIMSE1
 70
     0
  9
$DIMSE2
 70
     0
  9
$DIMTAD
 70
     0
  9
$DIMZIN
 70
     0
  9
$DIMBLK
  1

  9
$DIMASO
 70
     1
  9
$DIMSHO
 70
     1
  9
$DIMPOST
  1

  9
$DIMAPOST
  1

  9
$DIMALT
 70
     0
  9
$DIMALTD
 70
     2
  9
$DIMALTF
 40
25.4
  9
$DIMLFAC
 40
1.0
  9
$DIMTOFL
 70
     0
  9
$DIMTVP
 40
0.0
  9
$DIMTIX
 70
     0
  9
$DIMSOXD
 70
     0
  9
$DIMSAH
 70
     0
  9
$DIMBLK1
  1

  9
$DIMBLK2
  1

  9
$DIMSTYLE
  2
STANDARD
  9
$DIMCLRD
 70
     0
  9
$DIMCLRE
 70
     0
  9
$DIMCLRT
 70
     0
  9
$DIMTFAC
 40
1.0
  9
$DIMGAP
 40
0.09
  9
$DIMJUST
 70
     0
  9
$DIMSD1
 70
     0
  9
$DIMSD2
 70
     0
  9
$DIMTOLJ
 70
     1
  9
$DIMTZIN
 70
     0
  9
$DIMALTZ
 70
     0
  9
$DIMALTTZ
 70
     0
  9
$DIMFIT
 70
     3
  9
$DIMUPT
 70
     0
  9
$DIMUNIT
 70
     2
  9
$DIMDEC
 70
     4
  9
$DIMTDEC
 70
     4
  9
$DIMALTU
 70
     2
  9
$DIMALTTD
 70
     2
  9
$DIMTXSTY
  7
STANDARD
  9
$DIMAUNIT
 70
     0
  9
$LUNITS
 70
     2
  9
$LUPREC
 70
     4
  9
$SKETCHINC
 40
1.0
  9
$FILLETRAD
 40
1.5
  9
$AUNITS
 70
     0
  9
$AUPREC
 70
     0
  9
$MENU
  1
.
  9
$ELEVATION
 40
0.0
  9
$PELEVATION
 40
0.0
  9
$THICKNESS
 40
0.0
  9
$LIMCHECK
 70
     0
  9
$BLIPMODE
 70
     0
  9
$CHAMFERA
 40
0.5
  9
$CHAMFERB
 40
0.5
  9
$CHAMFERC
 40
673.4006734006733
  9
$CHAMFERD
 40
0.0
  9
$SKPOLY
 70
     0
  9
$TDCREATE
 40
2451428.386184838
  9
$TDUPDATE
 40
2453991.823031261
  9
$TDINDWG
 40
1.4788660995
  9
$TDUSRTIMER
 40
1.4788660995
  9
$USRTIMER
 70
     1
  9
$ANGBASE
 50
0.0
  9
$ANGDIR
 70
     0
  9
$PDMODE
 70
     0
  9
$PDSIZE
 40
0.0
  9
$PLINEWID
 40
0.0
  9
$COORDS
 70
     1
  9
$SPLFRAME
 70
     0
  9
$SPLINETYPE
 70
     6
  9
$SPLINESEGS
 70
     8
  9
$ATTDIA
 70
     0
  9
$ATTREQ
 70
     1
  9
$HANDLING
 70
 10241
  9
$HANDSEED
  5
2AE3
  9
$SURFTAB1
 70
     6
  9
$SURFTAB2
 70
     6
  9
$SURFTYPE
 70
     6
  9
$SURFU
 70
     6
  9
$SURFV
 70
     6
  9
$UCSNAME
  2

  9
$UCSORG
 10
0.0
 20
0.0
 30
0.0
  9
$UCSXDIR
 10
1.0
 20
0.0
 30
0.0
  9
$UCSYDIR
 10
0.0
 20
1.0
 30
0.0
  9
$PUCSNAME
  2

  9
$PUCSORG
 10
0.0
 20
0.0
 30
0.0
  9
$PUCSXDIR
 10
1.0
 20
0.0
 30
0.0
  9
$PUCSYDIR
 10
0.0
 20
1.0
 30
0.0
  9
$USERI1
 70
     0
  9
$USERI2
 70
     0
  9
$USERI3
 70
     0
  9
$USERI4
 70
     0
  9
$USERI5
 70
     0
  9
$USERR1
 40
0.0
  9
$USERR2
 40
0.0
  9
$USERR3
 40
0.0
  9
$USERR4
 40
0.0
  9
$USERR5
 40
0.0
  9
$WORLDVIEW
 70
     1
  9
$SHADEDGE
 70
     3
  9
$SHADEDIF
 70
    70
  9
$TILEMODE
 70
     1
  9
$MAXACTVP
 70
    16
  9
$PINSBASE
 10
0.0
 20
0.0
 30
0.0
  9
$PLIMCHECK
 70
     0
  9
$PEXTMIN
 10
20.0
 20
16.99999999999994
 30
0.0
  9
$PEXTMAX
 10
404.9999999999998
 20
281.9999999999999
 30
0.0
  9
$PLIMMIN
 10
15.55969551882102
 20
4.656297548292683
  9
$PLIMMAX
 10
414.2933966180392
 20
286.4296302300153
  9
$UNITMODE
 70
     0
  9
$VISRETAIN
 70
     0
  9
$PLINEGEN
 70
     0
  9
$PSLTSCALE
 70
     0
  9
$TREEDEPTH
 70
  3020
  9
$PICKSTYLE
 70
     1
  9
$CMLSTYLE
  2
STANDARD
  9
$CMLJUST
 70
     0
  9
$CMLSCALE
 40
1.0
  9
$PROXYGRAPHICS
 70
     1
  9
$MEASUREMENT
 70
     1
  0
ENDSEC
  0
SECTION
  2
CLASSES
  0
CLASS
  1
LWPOLYLINE
  2
AcDbPolyline
  3
AutoCAD 2000
 90
        0
280
     0
281
     1
  0
CLASS
  1
OLE2FRAME
  2
AcDbOle2Frame
  3
AutoCAD 2000
 90
        0
280
     0
281
     1
  0
CLASS
  1
ACDBDICTIONARYWDFLT
  2
AcDbDictionaryWithDefault
  3
AutoCAD 2000
 90
        0
280
     0
281
     0
  0
CLASS
  1
ACDBPLACEHOLDER
  2
AcDbPlaceHolder
  3
AutoCAD 2000
 90
        0
280
     0
281
     0
  0
CLASS
  1
LAYOUT
  2
AcDbLayout
  3
AutoCAD 2000
 90
        0
280
     0
281
     0
  0
CLASS
  1
LONG_TRANSACTION
  2
AcDbLongTransaction
  3
AutoCAD 2000
 90
        0
280
     0
281
     0
  0
CLASS
  1
LWPOLYLINE
  2
AcDbPolyline
  3
AutoCAD 2000
 90
        0
280
     0
281
     1
  0
CLASS
  1
HATCH
  2
AcDbHatch
  3
AutoCAD 2000
 90
        0
280
     0
281
     1
  0
CLASS
  1
XRECORD
  2
AcDbXrecord
  3
AutoCAD 2000
 90
        0
280
     0
281
     0
  0
CLASS
  1
PLOTSETTINGS
  2
AcDbPlotSettings
  3
AutoCAD 2000
 90
        0
280
     0
281
     0
  0
CLASS
  1
LONG_TRANSACTION
  2
AcDbLongTransaction
  3
AutoCAD 2000
 90
        0
280
     0
281
     0
  0
CLASS
  1
LWPOLYLINE
  2
AcDbPolyline
  3
AutoCAD 2000
 90
        0
280
     0
281
     1
  0
CLASS
  1
HATCH
  2
AcDbHatch
  3
AutoCAD 2000
 90
        0
280
     0
281
     1
  0
CLASS
  1
XRECORD
  2
AcDbXrecord
  3
AutoCAD 2000
 90
        0
280
     0
281
     0
  0
CLASS
  1
LONG_TRANSACTION
  2
AcDbLongTransaction
  3
AutoCAD 2000
 90
        0
280
     0
281
     0
  0
CLASS
  1
LWPOLYLINE
  2
AcDbPolyline
  3
AutoCAD 2000
 90
        0
280
     0
281
     1
  0
CLASS
  1
HATCH
  2
AcDbHatch
  3
AutoCAD 2000
 90
        0
280
     0
281
     1
  0
CLASS
  1
XRECORD
  2
AcDbXrecord
  3
AutoCAD 2000
 90
        0
280
     0
281
     0
  0
CLASS
  1
LONG_TRANSACTION
  2
AcDbLongTransaction
  3
AutoCAD 2000
 90
        0
280
     0
281
     0
  0
CLASS
  1
LWPOLYLINE
  2
AcDbPolyline
  3
AutoCAD 2000
 90
        0
280
     0
281
     1
  0
CLASS
  1
HATCH
  2
AcDbHatch
  3
AutoCAD 2000
 90
        0
280
     0
281
     1
  0
CLASS
  1
XRECORD
  2
AcDbXrecord
  3
AutoCAD 2000
 90
        0
280
     0
281
     0
  0
CLASS
  1
LONG_TRANSACTION
  2
AcDbLongTransaction
  3
AutoCAD 2000
 90
        0
280
     0
281
     0
  0
CLASS
  1
LWPOLYLINE
  2
AcDbPolyline
  3
AutoCAD 2000
 90
        0
280
     0
281
     1
  0
CLASS
  1
HATCH
  2
AcDbHatch
  3
AutoCAD 2000
 90
        0
280
     0
281
     1
  0
CLASS
  1
XRECORD
  2
AcDbXrecord
  3
AutoCAD 2000
 90
        0
280
     0
281
     0
  0
CLASS
  1
DICTIONARYVAR
  2
AcDbDictionaryVar
  3
AutoCAD 2000
 90
        0
280
     0
281
     0
  0
CLASS
  1
LONG_TRANSACTION
  2
AcDbLongTransaction
  3
AutoCAD 2000
 90
        0
280
     0
281
     0
  0
CLASS
  1
LWPOLYLINE
  2
AcDbPolyline
  3
AutoCAD 2000
 90
        0
280
     0
281
     1
  0
CLASS
  1
HATCH
  2
AcDbHatch
  3
AutoCAD 2000
 90
        0
280
     0
281
     1
  0
CLASS
  1
XRECORD
  2
AcDbXrecord
  3
AutoCAD 2000
 90
        0
280
     0
281
     0
  0
CLASS
  1
LONG_TRANSACTION
  2
AcDbLongTransaction
  3
AutoCAD 2000
 90
        0
280
     0
281
     0
  0
CLASS
  1
LWPOLYLINE
  2
AcDbPolyline
  3
AutoCAD 2000
 90
        0
280
     0
281
     1
  0
CLASS
  1
HATCH
  2
AcDbHatch
  3
AutoCAD 2000
 90
        0
280
     0
281
     1
  0
CLASS
  1
XRECORD
  2
AcDbXrecord
  3
AutoCAD 2000
 90
        0
280
     0
281
     0
  0
CLASS
  1
LONG_TRANSACTION
  2
AcDbLongTransaction
  3
AutoCAD 2000
 90
        0
280
     0
281
     0
  0
CLASS
  1
LWPOLYLINE
  2
AcDbPolyline
  3
AutoCAD 2000
 90
        0
280
     0
281
     1
  0
CLASS
  1
HATCH
  2
AcDbHatch
  3
AutoCAD 2000
 90
        0
280
     0
281
     1
  0
CLASS
  1
XRECORD
  2
AcDbXrecord
  3
AutoCAD 2000
 90
        0
280
     0
281
     0
  0
CLASS
  1
LONG_TRANSACTION
  2
AcDbLongTransaction
  3
AutoCAD 2000
 90
        0
280
     0
281
     0
  0
CLASS
  1
LWPOLYLINE
  2
AcDbPolyline
  3
AutoCAD 2000
 90
        0
280
     0
281
     1
  0
CLASS
  1
HATCH
  2
AcDbHatch
  3
AutoCAD 2000
 90
        0
280
     0
281
     1
  0
CLASS
  1
XRECORD
  2
AcDbXrecord
  3
AutoCAD 2000
 90
        0
280
     0
281
     0
  0
CLASS
  1
LONG_TRANSACTION
  2
AcDbLongTransaction
  3
AutoCAD 2000
 90
        0
280
     0
281
     0
  0
CLASS
  1
LWPOLYLINE
  2
AcDbPolyline
  3
AutoCAD 2000
 90
        0
280
     0
281
     1
  0
CLASS
  1
HATCH
  2
AcDbHatch
  3
AutoCAD 2000
 90
        0
280
     0
281
     1
  0
CLASS
  1
XRECORD
  2
AcDbXrecord
  3
AutoCAD 2000
 90
        0
280
     0
281
     0
  0
CLASS
  1
LONG_TRANSACTION
  2
AcDbLongTransaction
  3
AutoCAD 2000
 90
        0
280
     0
281
     0
  0
CLASS
  1
LWPOLYLINE
  2
AcDbPolyline
  3
AutoCAD 2000
 90
        0
280
     0
281
     1
  0
CLASS
  1
HATCH
  2
AcDbHatch
  3
AutoCAD 2000
 90
        0
280
     0
281
     1
  0
CLASS
  1
XRECORD
  2
AcDbXrecord
  3
AutoCAD 2000
 90
        0
280
     0
281
     0
  0
CLASS
  1
LONG_TRANSACTION
  2
AcDbLongTransaction
  3
AutoCAD 2000
 90
        0
280
     0
281
     0
  0
CLASS
  1
LWPOLYLINE
  2
AcDbPolyline
  3
AutoCAD 2000
 90
        0
280
     0
281
     1
  0
CLASS
  1
HATCH
  2
AcDbHatch
  3
AutoCAD 2000
 90
        0
280
     0
281
     1
  0
CLASS
  1
XRECORD
  2
AcDbXrecord
  3
AutoCAD 2000
 90
        0
280
     0
281
     0
  0
CLASS
  1
LONG_TRANSACTION
  2
AcDbLongTransaction
  3
AutoCAD 2000
 90
        0
280
     0
281
     0
  0
CLASS
  1
LWPOLYLINE
  2
AcDbPolyline
  3
AutoCAD 2000
 90
        0
280
     0
281
     1
  0
CLASS
  1
HATCH
  2
AcDbHatch
  3
AutoCAD 2000
 90
        0
280
     0
281
     1
  0
CLASS
  1
XRECORD
  2
AcDbXrecord
  3
AutoCAD 2000
 90
        0
280
     0
281
     0
  0
ENDSEC
  0
SECTION
  2
TABLES
  0
TABLE
  2
VPORT
  5
8
330
0
100
AcDbSymbolTable
 70
     5
  0
VPORT
  5
2AC0
330
8
100
AcDbSymbolTableRecord
100
AcDbViewportTableRecord
  2
*ACTIVE
 70
     0
 10
0.0
 20
0.0
 11
1.0
 21
1.0
 12
157.9950362109921
 22
168.9406640218551
 13
0.0
 23
0.0
 14
168.0
 24
168.0
 15
0.0
 25
0.0
 16
0.0
 26
0.0
 36
1.0
 17
0.0
 27
0.0
 37
0.0
 40
459.9532424045104
 41
1.602080624187256
 42
50.0
 43
0.0
 44
0.0
 50
0.0
 51
0.0
 71
     0
 72
   100
 73
     1
 74
     0
 75
     0
 76
     0
 77
     0
 78
     1
  0
ENDTAB
  0
TABLE
  2
LTYPE
  5
5
330
0
100
AcDbSymbolTable
 70
     4
  0
LTYPE
  5
14
330
5
100
AcDbSymbolTableRecord
100
AcDbLinetypeTableRecord
  2
BYBLOCK
 70
     0
  3

 72
    65
 73
     0
 40
0.0
  0
LTYPE
  5
15
330
5
100
AcDbSymbolTableRecord
100
AcDbLinetypeTableRecord
  2
BYLAYER
 70
     0
  3

 72
    65
 73
     0
 40
0.0
  0
LTYPE
  5
16
330
5
100
AcDbSymbolTableRecord
100
AcDbLinetypeTableRecord
  2
CONTINUOUS
 70
     0
  3
Solid line
 72
    65
 73
     0
 40
0.0
  0
LTYPE
  5
6E
330
5
100
AcDbSymbolTableRecord
100
AcDbLinetypeTableRecord
  2
CENTER
 70
     0
  3
____ _ ____ _ ____ _ ____ _ ____ _ ____ _ ____ 
 72
    65
 73
     4
 40
2.0
 49
1.25
 74
     0
 49
-0.25
 74
     0
 49
0.25
 74
     0
 49
-0.25
 74
     0
  0
LTYPE
  5
6F
330
5
100
AcDbSymbolTableRecord
100
AcDbLinetypeTableRecord
  2
HIDDEN
 70
     0
  3
__ __ __ __ __ __ __ __ __ __ __ __ __ __ __ __
 72
    65
 73
     2
 40
0.375
 49
0.25
 74
     0
 49
-0.125
 74
     0
  0
ENDTAB
  0
TABLE
  2
LAYER
  5
2
330
0
100
AcDbSymbolTable
 70
    10
  0
LAYER
  5
F
330
2
100
AcDbSymbolTableRecord
100
AcDbLayerTableRecord
  2
0
 70
     0
 62
     7
  6
CONTINUOUS
  0
LAYER
  5
72
330
2
100
AcDbSymbolTableRecord
100
AcDbLayerTableRecord
  2
DEFPOINTS
 70
     0
 62
     7
  6
CONTINUOUS
  0
LAYER
  5
74
330
2
100
AcDbSymbolTableRecord
100
AcDbLayerTableRecord
  2
CENTER
 70
     0
 62
     9
  6
CENTER
  0
LAYER
  5
1803
330
2
100
AcDbSymbolTableRecord
100
AcDbLayerTableRecord
  2
1
 70
     0
 62
     7
  6
CONTINUOUS
  0
ENDTAB
  0
TABLE
  2
STYLE
  5
3
330
0
100
AcDbSymbolTable
 70
     5
  0
STYLE
  5
10
330
3
100
AcDbSymbolTableRecord
100
AcDbTextStyleTableRecord
  2
STANDARD
 70
     0
 40
0.0
 41
0.8
 50
0.0
 71
     0
 42
84.17508417508416
  3
TXT
  4
bigfont.shx
  0
STYLE
  5
63
330
3
100
AcDbSymbolTableRecord
100
AcDbTextStyleTableRecord
  2
AD-STANDARD
 70
     0
 40
0.0
 41
0.8
 50
0.0
 71
     0
 42
3.5
  3
C:\Program Files\AutoCAD LT\romans.shx
  4
bigfont.shx
  0
ENDTAB
  0
TABLE
  2
VIEW
  5
6
330
0
100
AcDbSymbolTable
 70
     0
  0
ENDTAB
  0
TABLE
  2
UCS
  5
7
330
0
100
AcDbSymbolTable
 70
     0
  0
ENDTAB
  0
TABLE
  2
APPID
  5
9
330
0
100
AcDbSymbolTable
 70
     5
  0
APPID
  5
11
330
9
100
AcDbSymbolTableRecord
100
AcDbRegAppTableRecord
  2
ACAD
 70
     0
  0
APPID
  5
22A
330
9
100
AcDbSymbolTableRecord
100
AcDbRegAppTableRecord
  2
CONTENTTABDATA
 70
     0
  0
APPID
  5
22B
330
9
100
AcDbSymbolTableRecord
100
AcDbRegAppTableRecord
  2
CONTENTCURRENTTAB
 70
     0
  0
APPID
  5
232
330
9
100
AcDbSymbolTableRecord
100
AcDbRegAppTableRecord
  2
CONTENTBLOCKDESCRIPTION
 70
     0
  0
APPID
  5
233
330
9
100
AcDbSymbolTableRecord
100
AcDbRegAppTableRecord
  2
CONTENTBLOCKICON
 70
     0
  0
ENDTAB
  0
TABLE
  2
DIMSTYLE
  5
A
330
0
100
AcDbSymbolTable
 70
     8
  0
DIMSTYLE
105
1D
330
A
100
AcDbSymbolTableRecord
100
AcDbDimStyleTableRecord
  2
STANDARD
 70
     0
  3

  4

  5

  6

  7

 40
1.0
 41
0.18
 42
0.0625
 43
0.38
 44
0.18
 45
0.0
 46
0.0
 47
0.0
 48
0.0
140
0.18
141
0.09
142
0.0
143
25.4
144
1.0
145
0.0
146
1.0
147
0.09
 71
     0
 72
     0
 73
     1
 74
     1
 75
     0
 76
     0
 77
     0
 78
     0
170
     0
171
     2
172
     0
173
     0
174
     0
175
     0
176
     0
177
     0
178
     0
270
     2
271
     4
272
     4
273
     2
274
     2
340
10
275
     0
280
     0
281
     0
282
     0
283
     1
284
     0
285
     0
286
     0
287
     3
288
     0
  0
ENDTAB
  0
TABLE
  2
BLOCK_RECORD
  5
1
330
0
100
AcDbSymbolTable
 70
    28
  0
BLOCK_RECORD
  5
1A
102
{ACAD_XDICTIONARY
360
1E6D
102
}
330
1
100
AcDbSymbolTableRecord
100
AcDbBlockTableRecord
  2
*MODEL_SPACE
  0
BLOCK_RECORD
  5
17
102
{ACAD_XDICTIONARY
360
1E6B
102
}
330
1
100
AcDbSymbolTableRecord
100
AcDbBlockTableRecord
  2
*PAPER_SPACE
  0
ENDTAB
  0
ENDSEC
  0
SECTION
  2
BLOCKS
  0
BLOCK
  5
1B
330
1A
100
AcDbEntity
  8
0
100
AcDbBlockBegin
  2
*MODEL_SPACE
 70
     0
 10
0.0
 20
0.0
 30
0.0
  3
*MODEL_SPACE
  1

  0
ENDBLK
  5
1C
330
1A
100
AcDbEntity
  8
0
100
AcDbBlockEnd
  0
BLOCK
  5
18
330
17
100
AcDbEntity
 67
     1
  8
0
100
AcDbBlockBegin
  2
*PAPER_SPACE
 70
     0
 10
0.0
 20
0.0
 30
0.0
  3
*PAPER_SPACE
  1

  0
ENDBLK
  5
19
330
17
100
AcDbEntity
 67
     1
  8
0
100
AcDbBlockEnd
  0
ENDSEC
  0
SECTION
  2
ENTITIES
  0
LINE
  5
19D2
330
1A
100
AcDbEntity
  8
CENTER
 48
1.5
100
AcDbLine
 10
254.2055426890792
 20
298.8668932689461
 30
0.0
 11
53.7217028248906
 21
298.8668932689843
 31
0.0
  0
LINE
  5
19D5
330
1A
100
AcDbEntity
  8
1
100
AcDbLine
 10
132.4450155696667
 20
204.4909240489778
 30
0.0
 11
139.4450155696667
 21
204.4909240489778
 31
0.0
  0
LINE
  5
19D6
330
1A
100
AcDbEntity
  8
1
100
AcDbLine
 10
132.9646308119372
 20
204.790924048978
 30
0.0
 11
138.9254003273963
 21
204.790924048978
 31
0.0
  0
LINE
  5
19D7
330
1A
100
AcDbEntity
  8
1
100
AcDbLine
 10
133.9450155696668
 20
200.790924048978
 30
0.0
 11
132.4450155696667
 21
200.790924048978
 31
0.0
  0
LINE
  5
19D8
330
1A
100
AcDbEntity
  8
CENTER
 48
1.5
100
AcDbLine
 10
254.2055426890792
 20
54.22231143544377
 30
0.0
 11
53.7217028248906
 21
54.22231143548106
 31
0.0
  0
LINE
  5
19DA
330
1A
100
AcDbEntity
  8
1
100
AcDbLine
 10
131.9450155696686
 20
175.1909240489785
 30
0.0
 11
170.9450155696677
 21
175.1909240489785
 31
0.0
  0
LINE
  5
19DB
330
1A
100
AcDbEntity
  8
1
100
AcDbLine
 10
170.9450155696677
 20
175.290924048978
 30
0.0
 11
131.9450155696677
 21
175.290924048978
 31
0.0
  0
LINE
  5
19DC
330
1A
100
AcDbEntity
  8
1
100
AcDbLine
 10
104.9450155696677
 20
280.3668932689461
 30
0.0
 11
140.9450155696695
 21
280.3668932689461
 31
0.0
  0
LINE
  5
19DD
330
1A
100
AcDbEntity
  8
1
100
AcDbLine
 10
104.9450155696704
 20
317.3668932689461
 30
0.0
 11
140.9450155696686
 21
317.3668932689461
 31
0.0
  0
LINE
  5
19DE
330
1A
100
AcDbEntity
  8
1
100
AcDbLine
 10
140.4450155696677
 20
200.790924048978
 30
0.0
 11
105.4450155696676
 21
200.790924048978
 31
0.0
  0
LINE
  5
19DF
330
1A
100
AcDbEntity
  8
1
100
AcDbLine
 10
105.4450155696676
 20
199.2909240489789
 30
0.0
 11
140.4450155696677
 21
199.290924048978
 31
0.0
  0
LINE
  5
19E1
330
1A
100
AcDbEntity
  8
1
100
AcDbLine
 10
95.9450155696677
 20
74.22231143544468
 30
0.0
 11
245.9450155696677
 21
74.22231143544468
 31
0.0
  0
LINE
  5
19E2
330
1A
100
AcDbEntity
  8
1
100
AcDbLine
 10
245.9450155696677
 20
34.22231143544468
 30
0.0
 11
95.9450155696677
 21
34.22231143544468
 31
0.0
  0
LINE
  5
19E3
330
1A
100
AcDbEntity
  8
1
100
AcDbLine
 10
95.9450155696677
 20
318.866893268947
 30
0.0
 11
245.9450155696677
 21
318.866893268947
 31
0.0
  0
LINE
  5
19E4
330
1A
100
AcDbEntity
  8
1
100
AcDbLine
 10
245.9450155696677
 20
278.866893268947
 30
0.0
 11
95.9450155696677
 21
278.866893268947
 31
0.0
  0
LINE
  5
19E5
330
1A
100
AcDbEntity
  8
1
100
AcDbLine
 10
204.0460360841016
 20
198.290924048978
 30
0.0
 11
95.9450155696677
 21
198.290924048978
 31
0.0
  0
LINE
  5
19E6
330
1A
100
AcDbEntity
  8
1
100
AcDbLine
 10
211.9450155696676
 20
175.290924048978
 30
0.0
 11
129.9450155696677
 21
175.290924048978
 31
0.0
  0
LINE
  5
19E8
330
1A
100
AcDbEntity
  8
1
100
AcDbLine
 10
95.9450155696677
 20
34.22231143544468
 30
0.0
 11
95.9450155696677
 21
74.22231143544468
 31
0.0
  0
CIRCLE
  5
19EA
330
1A
100
AcDbEntity
  8
1
100
AcDbCircle
 10
119.9450155696677
 20
63.22231143544468
 30
0.0
 40
2.458499999999999
  0
CIRCLE
  5
19EB
330
1A
100
AcDbEntity
  8
1
 62
     9
100
AcDbCircle
 10
119.9450155696677
 20
63.22231143544468
 30
0.0
 40
3.0
  0
CIRCLE
  5
19ED
330
1A
100
AcDbEntity
  8
1
 62
     9
100
AcDbCircle
 10
101.9450155696677
 20
63.22231143544468
 30
0.0
 40
3.0
  0
CIRCLE
  5
19EE
330
1A
100
AcDbEntity
  8
1
100
AcDbCircle
 10
101.9450155696677
 20
63.22231143544468
 30
0.0
 40
2.458499999999999
  0
LINE
  5
19EF
330
1A
100
AcDbEntity
  8
1
100
AcDbLine
 10
127.9450155696677
 20
74.22231143544468
 30
0.0
 11
127.9450155696677
 21
34.22231143544468
 31
0.0
  0
ARC
  5
19F2
330
1A
100
AcDbEntity
  8
1
100
AcDbCircle
 10
84.48091395450138
 20
54.22231143547105
 30
0.0
 40
11.46410161516606
100
AcDbArc
 50
342.4120462260363
 51
17.5879537736838
  0
ARC
  5
19F3
330
1A
100
AcDbEntity
  8
1
100
AcDbCircle
 10
97.40911718483131
 20
54.22231143546923
 30
0.0
 40
11.46410161516606
100
AcDbArc
 50
162.4120462262508
 51
197.5879537739636
  0
ARC
  5
19F4
330
1A
100
AcDbEntity
  8
1
100
AcDbCircle
 10
92.87802827156156
 20
59.4184638581728
 30
0.0
 40
3.066987298111351
100
AcDbArc
 50
325.6157525319683
 51
34.38424746788676
  0
ARC
  5
19F5
330
1A
100
AcDbEntity
  8
1
100
AcDbCircle
 10
89.01200286778204
 20
59.41846385817735
 30
0.0
 40
3.066987298111351
100
AcDbArc
 50
145.6157525320407
 51
214.3842474679591
  0
LINE
  5
19F6
330
1A
100
AcDbEntity
  8
1
100
AcDbLine
 10
86.48091395452956
 20
57.68641305061191
 30
0.0
 11
95.40911718480765
 21
57.68641305059919
 31
0.0
  0
LINE
  5
19F7
330
1A
100
AcDbEntity
  8
1
100
AcDbLine
 10
95.94501556966406
 20
60.22231143547651
 30
0.0
 11
95.94501556966589
 21
48.22231143547106
 31
0.0
  0
LINE
  5
19F8
330
1A
100
AcDbEntity
  8
1
100
AcDbLine
 10
85.94501556966589
 20
60.22231143547469
 30
0.0
 11
85.94501556966406
 21
48.22231143547196
 31
0.0
  0
LINE
  5
19F9
330
1A
100
AcDbEntity
  8
1
100
AcDbLine
 10
86.48091395452594
 20
61.1505146657455
 30
0.0
 11
95.40911718480675
 21
61.15051466574641
 31
0.0
  0
LINE
  5
19FA
330
1A
100
AcDbEntity
  8
1
100
AcDbLine
 10
86.48091395452411
 20
47.2941082051966
 30
0.0
 11
95.40911718480492
 21
47.29410820519752
 31
0.0
  0
LINE
  5
19FB
330
1A
100
AcDbEntity
  8
1
100
AcDbLine
 10
86.48091395452501
 20
50.75820982033201
 30
0.0
 11
95.40911718480311
 21
50.75820982033292
 31
0.0
  0
LINE
  5
19FC
330
1A
100
AcDbEntity
  8
1
100
AcDbLine
 10
85.94501556966497
 20
48.22231143547014
 30
0.0
 11
86.48091395452594
 21
47.2941082051957
 31
0.0
  0
LINE
  5
19FD
330
1A
100
AcDbEntity
  8
1
100
AcDbLine
 10
85.94501556966315
 20
60.22231143546924
 30
0.0
 11
86.4809139545232
 21
61.15051466574368
 31
0.0
  0
LINE
  5
19FE
330
1A
100
AcDbEntity
  8
1
100
AcDbLine
 10
95.9450155696668
 20
48.22231143547106
 30
0.0
 11
95.40911718480584
 21
47.2941082051966
 31
0.0
  0
LINE
  5
19FF
330
1A
100
AcDbEntity
  8
1
100
AcDbLine
 10
95.9450155696668
 20
60.22231143547014
 30
0.0
 11
95.40911718480675
 21
61.1505146657446
 31
0.0
  0
ARC
  5
1A00
330
1A
100
AcDbEntity
  8
1
100
AcDbCircle
 10
89.01200286777566
 20
49.02615901276295
 30
0.0
 40
3.066987298111351
100
AcDbArc
 50
145.6157525319978
 51
214.3842474679162
  0
ARC
  5
1A01
330
1A
100
AcDbEntity
  8
1
100
AcDbCircle
 10
92.8780282715552
 20
49.02615901276295
 30
0.0
 40
3.066987298111351
100
AcDbArc
 50
325.6157525320408
 51
34.3842474679592
  0
CIRCLE
  5
1A05
330
1A
100
AcDbEntity
  8
1
 62
     9
100
AcDbCircle
 10
119.9450155696677
 20
45.22231143544468
 30
0.0
 40
3.0
  0
CIRCLE
  5
1A06
330
1A
100
AcDbEntity
  8
1
100
AcDbCircle
 10
119.9450155696677
 20
45.22231143544468
 30
0.0
 40
2.458499999999999
  0
LINE
  5
1A07
330
1A
100
AcDbEntity
  8
CENTER
 62
     9
100
AcDbLine
 10
101.9450155696677
 20
41.22231143544468
 30
0.0
 11
101.9450155696677
 21
49.22231143544468
 31
0.0
  0
LINE
  5
1A08
330
1A
100
AcDbEntity
  8
CENTER
 62
     9
100
AcDbLine
 10
97.94501556966771
 20
45.22231143544468
 30
0.0
 11
105.9450155696677
 21
45.22231143544468
 31
0.0
  0
CIRCLE
  5
1A09
330
1A
100
AcDbEntity
  8
1
100
AcDbCircle
 10
101.9450155696677
 20
45.22231143544468
 30
0.0
 40
2.458499999999999
  0
CIRCLE
  5
1A0A
330
1A
100
AcDbEntity
  8
1
 62
     9
100
AcDbCircle
 10
101.9450155696677
 20
45.22231143544468
 30
0.0
 40
3.0
  0
LINE
  5
1A22
330
1A
100
AcDbEntity
  8
1
100
AcDbLine
 10
85.9450155696677
 20
190.0909240490036
 30
0.0
 11
62.0172605904072
 21
190.0909240490036
 31
0.0
  0
LINE
  5
1A23
330
1A
100
AcDbEntity
  8
1
100
AcDbLine
 10
85.94501556966589
 20
184.4909240490032
 30
0.0
 11
62.01726059040812
 21
184.4909240490032
 31
0.0
  0
LINE
  5
1A25
330
1A
100
AcDbEntity
  8
1
100
AcDbLine
 10
132.4450155696667
 20
204.4909240489778
 30
0.0
 11
132.9646308119372
 21
204.790924048978
 31
0.0
  0
LINE
  5
1A26
330
1A
100
AcDbEntity
  8
1
100
AcDbLine
 10
132.4450155696667
 20
200.790924048978
 30
0.0
 11
132.4450155696667
 21
204.4909240489778
 31
0.0
  0
LINE
  5
1A27
330
1A
100
AcDbEntity
  8
1
100
AcDbLine
 10
109.9450155696686
 20
200.790924048978
 30
0.0
 11
111.9450155696686
 21
200.790924048978
 31
0.0
  0
LINE
  5
1A28
330
1A
100
AcDbEntity
  8
1
100
AcDbLine
 10
111.9450155696686
 20
200.790924048978
 30
0.0
 11
113.4450155696686
 21
200.790924048978
 31
0.0
  0
LINE
  5
1A29
330
1A
100
AcDbEntity
  8
1
100
AcDbLine
 10
113.4450155696686
 20
200.790924048978
 30
0.0
 11
113.4450155696686
 21
204.4909240489778
 31
0.0
  0
LINE
  5
1A2A
330
1A
100
AcDbEntity
  8
1
100
AcDbLine
 10
113.4450155696686
 20
204.4909240489778
 30
0.0
 11
112.9254003273981
 21
204.790924048978
 31
0.0
  0
LINE
  5
1A2B
330
1A
100
AcDbEntity
  8
1
100
AcDbLine
 10
112.9254003273981
 20
204.790924048978
 30
0.0
 11
106.964630811939
 21
204.790924048978
 31
0.0
  0
LINE
  5
1A2C
330
1A
100
AcDbEntity
  8
1
100
AcDbLine
 10
106.964630811939
 20
204.790924048978
 30
0.0
 11
106.4450155696686
 21
204.4909240489778
 31
0.0
  0
LINE
  5
1A2D
330
1A
100
AcDbEntity
  8
1
100
AcDbLine
 10
106.4450155696686
 20
204.4909240489778
 30
0.0
 11
106.4450155696686
 21
200.790924048978
 31
0.0
  0
LINE
  5
1A2E
330
1A
100
AcDbEntity
  8
1
100
AcDbLine
 10
106.4450155696686
 20
200.790924048978
 30
0.0
 11
107.9450155696686
 21
200.790924048978
 31
0.0
  0
LINE
  5
1A2F
330
1A
100
AcDbEntity
  8
1
100
AcDbLine
 10
107.9450155696686
 20
200.790924048978
 30
0.0
 11
109.9450155696686
 21
200.790924048978
 31
0.0
  0
LINE
  5
1A30
330
1A
100
AcDbEntity
  8
1
100
AcDbLine
 10
113.4450155696686
 20
204.4909240489778
 30
0.0
 11
106.4450155696686
 21
204.4909240489778
 31
0.0
  0
LINE
  5
1A32
330
1A
100
AcDbEntity
  8
1
100
AcDbLine
 10
104.4450155696676
 20
280.8668932689461
 30
0.0
 11
104.9450155696677
 21
280.3668932689461
 31
0.0
  0
LINE
  5
1A33
330
1A
100
AcDbEntity
  8
1
100
AcDbLine
 10
104.9450155696704
 20
317.3668932689461
 30
0.0
 11
104.4450155696704
 21
316.8668932689461
 31
0.0
  0
LINE
  5
1A34
330
1A
100
AcDbEntity
  8
1
100
AcDbLine
 10
131.9450155696677
 20
175.290924048978
 30
0.0
 11
131.9450155696677
 21
175.1909240489785
 31
0.0
  0
ARC
  5
1A35
330
1A
100
AcDbEntity
  8
1
100
AcDbCircle
 10
87.27995205993284
 20
184.2909240489671
 30
0.0
 40
8.665063509736034
100
AcDbArc
 50
339.743842000168
 51
20.25615799983199
  0
ARC
  5
1A36
330
1A
100
AcDbEntity
  8
1
100
AcDbCircle
 10
87.27995205993284
 20
190.2909240489907
 30
0.0
 40
8.665063509736034
100
AcDbArc
 50
339.743842000168
 51
20.25615799983199
  0
ARC
  5
1A37
330
1A
100
AcDbEntity
  8
1
100
AcDbCircle
 10
94.61007907940256
 20
190.2909240489907
 30
0.0
 40
8.665063509736034
100
AcDbArc
 50
159.7438420000521
 51
200.2561579998319
  0
ARC
  5
1A38
330
1A
100
AcDbEntity
  8
1
100
AcDbCircle
 10
94.61007907940256
 20
184.2909240489671
 30
0.0
 40
8.665063509736034
100
AcDbArc
 50
159.743842000168
 51
200.2561579998319
  0
LINE
  5
1A39
330
1A
100
AcDbEntity
  8
1
100
AcDbLine
 10
86.44501556966678
 20
181.2909240489561
 30
0.0
 11
95.44501556966862
 21
181.2909240489552
 31
0.0
  0
LINE
  5
1A3A
330
1A
100
AcDbEntity
  8
1
100
AcDbLine
 10
86.44501556966861
 20
193.2909240489561
 30
0.0
 11
95.44501556966588
 21
193.2909240489543
 31
0.0
  0
LINE
  5
1A3B
330
1A
100
AcDbEntity
  8
1
100
AcDbLine
 10
86.48091395451501
 20
187.2909240489789
 30
0.0
 11
95.40911718482039
 21
187.2909240489789
 31
0.0
  0
LINE
  5
1A3C
330
1A
100
AcDbEntity
  8
1
100
AcDbLine
 10
95.94501556966589
 20
192.7909240489543
 30
0.0
 11
95.94501556966861
 21
181.7909240489552
 31
0.0
  0
LINE
  5
1A3D
330
1A
100
AcDbEntity
  8
1
100
AcDbLine
 10
85.94501556966861
 20
192.7909240489561
 30
0.0
 11
85.9450155696668
 21
181.7909240489561
 31
0.0
  0
ARC
  5
1A3E
330
1A
100
AcDbEntity
  8
1
100
AcDbCircle
 10
92.87802827156156
 20
304.0630456916751
 30
0.0
 40
3.066987298111351
100
AcDbArc
 50
325.6157525319683
 51
34.38424746788676
  0
ARC
  5
1A3F
330
1A
100
AcDbEntity
  8
1
100
AcDbCircle
 10
89.01200286778204
 20
304.0630456916797
 30
0.0
 40
3.066987298111351
100
AcDbArc
 50
145.6157525320407
 51
214.3842474679591
  0
LINE
  5
1A40
330
1A
100
AcDbEntity
  8
1
100
AcDbLine
 10
86.48091395452956
 20
302.3309948841142
 30
0.0
 11
95.40911718480765
 21
302.3309948841015
 31
0.0
  0
LINE
  5
1A41
330
1A
100
AcDbEntity
  8
1
100
AcDbLine
 10
95.94501556966406
 20
304.8668932689788
 30
0.0
 11
95.94501556966589
 21
292.8668932689733
 31
0.0
  0
ARC
  5
1A42
330
1A
100
AcDbEntity
  8
1
100
AcDbCircle
 10
84.48091395450138
 20
298.8668932689733
 30
0.0
 40
11.46410161516606
100
AcDbArc
 50
342.4120462260363
 51
17.5879537736838
  0
ARC
  5
1A43
330
1A
100
AcDbEntity
  8
1
100
AcDbCircle
 10
92.8780282715552
 20
293.6707408462652
 30
0.0
 40
3.066987298111351
100
AcDbArc
 50
325.6157525320408
 51
34.3842474679592
  0
ARC
  5
1A44
330
1A
100
AcDbEntity
  8
1
100
AcDbCircle
 10
89.01200286777566
 20
293.6707408462652
 30
0.0
 40
3.066987298111351
100
AcDbArc
 50
145.6157525319978
 51
214.3842474679162
  0
ARC
  5
1A45
330
1A
100
AcDbEntity
  8
1
100
AcDbCircle
 10
97.40911718483131
 20
298.8668932689715
 30
0.0
 40
11.46410161516606
100
AcDbArc
 50
162.4120462262508
 51
197.5879537739636
  0
LINE
  5
1A46
330
1A
100
AcDbEntity
  8
1
100
AcDbLine
 10
95.9450155696668
 20
304.8668932689725
 30
0.0
 11
95.40911718480675
 21
305.7950964992469
 31
0.0
  0
LINE
  5
1A47
330
1A
100
AcDbEntity
  8
1
100
AcDbLine
 10
95.9450155696668
 20
292.8668932689733
 30
0.0
 11
95.40911718480584
 21
291.9386900386989
 31
0.0
  0
LINE
  5
1A48
330
1A
100
AcDbEntity
  8
1
100
AcDbLine
 10
85.94501556966315
 20
304.8668932689715
 30
0.0
 11
86.4809139545232
 21
305.795096499246
 31
0.0
  0
LINE
  5
1A49
330
1A
100
AcDbEntity
  8
1
100
AcDbLine
 10
85.94501556966497
 20
292.8668932689724
 30
0.0
 11
86.48091395452594
 21
291.938690038698
 31
0.0
  0
LINE
  5
1A4A
330
1A
100
AcDbEntity
  8
1
100
AcDbLine
 10
86.48091395452501
 20
295.4027916538343
 30
0.0
 11
95.40911718480311
 21
295.4027916538352
 31
0.0
  0
LINE
  5
1A4B
330
1A
100
AcDbEntity
  8
1
100
AcDbLine
 10
86.48091395452411
 20
291.9386900386989
 30
0.0
 11
95.40911718480492
 21
291.9386900386998
 31
0.0
  0
LINE
  5
1A4C
330
1A
100
AcDbEntity
  8
1
100
AcDbLine
 10
86.48091395452594
 20
305.7950964992478
 30
0.0
 11
95.40911718480675
 21
305.7950964992487
 31
0.0
  0
LINE
  5
1A4D
330
1A
100
AcDbEntity
  8
1
100
AcDbLine
 10
85.94501556966589
 20
304.866893268977
 30
0.0
 11
85.94501556966406
 21
292.8668932689743
 31
0.0
  0
LINE
  5
1A4E
330
1A
100
AcDbEntity
  8
1
100
AcDbLine
 10
104.4450155696704
 20
316.8668932689461
 30
0.0
 11
104.4450155696676
 21
280.8668932689461
 31
0.0
  0
LINE
  5
1A4F
330
1A
100
AcDbEntity
  8
1
100
AcDbLine
 10
105.4450155696676
 20
200.790924048978
 30
0.0
 11
105.4450155696676
 21
198.290924048978
 31
0.0
  0
LINE
  5
1A50
330
1A
100
AcDbEntity
  8
1
  6
HIDDEN
 62
     8
 48
1.5
100
AcDbLine
 10
122.9450155696677
 20
180.2909240489789
 30
0.0
 11
122.9450155696677
 21
168.290924048978
 31
0.0
  0
LINE
  5
1A51
330
1A
100
AcDbEntity
  8
1
 62
     8
 48
1.5
100
AcDbLine
 10
122.4035155696674
 20
180.8324240489782
 30
0.0
 11
122.9450155696677
 21
180.290924048978
 31
0.0
  0
LINE
  5
1A52
330
1A
100
AcDbEntity
  8
1
  6
HIDDEN
 48
1.5
100
AcDbLine
 10
122.4035155696674
 20
168.290924048978
 30
0.0
 11
122.4035155696683
 21
184.290924048978
 31
0.0
  0
LINE
  5
1A53
330
1A
100
AcDbEntity
  8
1
  6
HIDDEN
 48
1.5
100
AcDbLine
 10
117.4865155696679
 20
184.290924048978
 30
0.0
 11
119.9450155696677
 21
185.7103396857801
 31
0.0
  0
LINE
  5
1A54
330
1A
100
AcDbEntity
  8
1
 62
     8
 48
1.5
100
AcDbLine
 10
116.9450155696676
 20
180.290924048978
 30
0.0
 11
117.4865155696679
 21
180.8324240489782
 31
0.0
  0
LINE
  5
1A55
330
1A
100
AcDbEntity
  8
1
  6
HIDDEN
 62
     8
 48
1.5
100
AcDbLine
 10
116.9450155696676
 20
168.290924048978
 30
0.0
 11
116.9450155696676
 21
180.290924048978
 31
0.0
  0
LINE
  5
1A56
330
1A
100
AcDbEntity
  8
CENTER
100
AcDbLine
 10
119.9450155696677
 20
166.9278062188896
 30
0.0
 11
119.9450155696677
 21
187.4637135179309
 31
0.0
  0
LINE
  5
1A57
330
1A
100
AcDbEntity
  8
1
  6
HIDDEN
 48
1.5
100
AcDbLine
 10
117.4865155696679
 20
168.290924048978
 30
0.0
 11
117.4865155696688
 21
184.290924048978
 31
0.0
  0
LINE
  5
1A58
330
1A
100
AcDbEntity
  8
1
  6
HIDDEN
 48
1.5
100
AcDbLine
 10
122.4035155696674
 20
184.290924048978
 30
0.0
 11
119.9450155696677
 21
185.7103396857801
 31
0.0
  0
LINE
  5
1A59
330
1A
100
AcDbEntity
  8
1
  6
HIDDEN
 62
     8
 48
1.5
100
AcDbLine
 10
117.4865155696679
 20
184.290924048978
 30
0.0
 11
122.4035155696674
 21
184.290924048978
 31
0.0
  0
LINE
  5
1A5A
330
1A
100
AcDbEntity
  8
1
  6
HIDDEN
 62
     8
 48
1.5
100
AcDbLine
 10
116.9450155696676
 20
180.290924048978
 30
0.0
 11
122.9450155696677
 21
180.290924048978
 31
0.0
  0
LINE
  5
1A5B
330
1A
100
AcDbEntity
  8
1
  6
HIDDEN
 62
     8
 48
1.5
100
AcDbLine
 10
117.4865155696679
 20
180.8324240489782
 30
0.0
 11
122.4035155696674
 21
180.8324240489782
 31
0.0
  0
LINE
  5
1A5C
330
1A
100
AcDbEntity
  8
1
100
AcDbLine
 10
95.9450155696677
 20
168.290924048978
 30
0.0
 11
127.9450155696677
 21
168.290924048978
 31
0.0
  0
LINE
  5
1A5D
330
1A
100
AcDbEntity
  8
1
100
AcDbLine
 10
95.9450155696677
 20
198.290924048978
 30
0.0
 11
95.9450155696677
 21
168.290924048978
 31
0.0
  0
LINE
  5
1A5E
330
1A
100
AcDbEntity
  8
1
100
AcDbLine
 10
95.9450155696677
 20
278.866893268947
 30
0.0
 11
95.9450155696677
 21
318.866893268947
 31
0.0
  0
LINE
  5
1A63
330
1A
100
AcDbEntity
  8
1
 62
     8
 48
1.5
100
AcDbLine
 10
104.4035155696674
 20
180.8324240489782
 30
0.0
 11
104.9450155696677
 21
180.290924048978
 31
0.0
  0
LINE
  5
1A64
330
1A
100
AcDbEntity
  8
1
  6
HIDDEN
 62
     8
 48
1.5
100
AcDbLine
 10
104.9450155696677
 20
180.2909240489789
 30
0.0
 11
104.9450155696677
 21
168.290924048978
 31
0.0
  0
LINE
  5
1A65
330
1A
100
AcDbEntity
  8
1
  6
HIDDEN
 48
1.5
100
AcDbLine
 10
104.4035155696674
 20
168.290924048978
 30
0.0
 11
104.4035155696683
 21
184.290924048978
 31
0.0
  0
LINE
  5
1A66
330
1A
100
AcDbEntity
  8
1
  6
HIDDEN
 48
1.5
100
AcDbLine
 10
99.48651556966797
 20
184.290924048978
 30
0.0
 11
101.9450155696677
 21
185.7103396857801
 31
0.0
  0
LINE
  5
1A67
330
1A
100
AcDbEntity
  8
1
 62
     8
 48
1.5
100
AcDbLine
 10
98.94501556966771
 20
180.290924048978
 30
0.0
 11
99.48651556966797
 21
180.8324240489782
 31
0.0
  0
LINE
  5
1A68
330
1A
100
AcDbEntity
  8
1
  6
HIDDEN
 62
     8
 48
1.5
100
AcDbLine
 10
98.94501556966771
 20
168.290924048978
 30
0.0
 11
98.94501556966771
 21
180.290924048978
 31
0.0
  0
LINE
  5
1A69
330
1A
100
AcDbEntity
  8
CENTER
100
AcDbLine
 10
101.9450155696677
 20
166.9278062188896
 30
0.0
 11
101.9450155696677
 21
187.4637135179309
 31
0.0
  0
LINE
  5
1A6A
330
1A
100
AcDbEntity
  8
1
  6
HIDDEN
 48
1.5
100
AcDbLine
 10
99.48651556966797
 20
168.290924048978
 30
0.0
 11
99.48651556966888
 21
184.290924048978
 31
0.0
  0
LINE
  5
1A6B
330
1A
100
AcDbEntity
  8
1
  6
HIDDEN
 48
1.5
100
AcDbLine
 10
104.4035155696674
 20
184.290924048978
 30
0.0
 11
101.9450155696677
 21
185.7103396857801
 31
0.0
  0
LINE
  5
1A6C
330
1A
100
AcDbEntity
  8
1
  6
HIDDEN
 62
     8
 48
1.5
100
AcDbLine
 10
99.48651556966797
 20
184.290924048978
 30
0.0
 11
104.4035155696674
 21
184.290924048978
 31
0.0
  0
LINE
  5
1A6D
330
1A
100
AcDbEntity
  8
1
  6
HIDDEN
 62
     8
 48
1.5
100
AcDbLine
 10
98.94501556966771
 20
180.290924048978
 30
0.0
 11
104.9450155696677
 21
180.290924048978
 31
0.0
  0
LINE
  5
1A6E
330
1A
100
AcDbEntity
  8
1
  6
HIDDEN
 62
     8
 48
1.5
100
AcDbLine
 10
99.48651556966797
 20
180.8324240489782
 30
0.0
 11
104.4035155696674
 21
180.8324240489782
 31
0.0
  0
ARC
  5
1A6F
330
1A
100
AcDbEntity
  8
1
100
AcDbCircle
 10
129.9450155696677
 20
173.290924048978
 30
0.0
 40
2.0
100
AcDbArc
 50
90.0
 51
180.0
  0
LINE
  5
1A70
330
1A
100
AcDbEntity
  8
1
100
AcDbLine
 10
127.9450155696677
 20
173.290924048978
 30
0.0
 11
127.9450155696677
 21
168.290924048978
 31
0.0
  0
LINE
  5
1AD5
330
1A
100
AcDbEntity
  8
1
100
AcDbLine
 10
245.9450155696677
 20
74.22231143544468
 30
0.0
 11
245.9450155696677
 21
34.22231143544468
 31
0.0
  0
CIRCLE
  5
1AD6
330
1A
100
AcDbEntity
  8
1
 62
     7
100
AcDbCircle
 10
221.9450155696677
 20
63.22231143544468
 30
0.0
 40
2.458499999999999
  0
LINE
  5
1AD7
330
1A
100
AcDbEntity
  8
1
100
AcDbLine
 10
213.9450155696676
 20
74.22231143544468
 30
0.0
 11
213.9450155696676
 21
34.22231143544468
 31
0.0
  0
ELLIPSE
  5
1AD8
330
1A
100
AcDbEntity
  8
1
100
AcDbEllipse
 10
190.4450155696667
 20
54.22231143545923
 30
0.0
 11
19.5
 21
-0.0000000000000083
 31
0.0
210
0.0
220
0.0
230
1.0
 40
0.4102564102564114
 41
7.439363577042453
 42
7.853981633974482
  0
ELLIPSE
  5
1AD9
330
1A
100
AcDbEntity
  8
1
100
AcDbEllipse
 10
151.4450155696668
 20
54.22231143545923
 30
0.0
 11
19.5
 21
0.0000000000000059
 31
0.0
210
0.0
220
0.0
230
1.0
 40
0.4102564102564113
 41
4.297770923452659
 42
4.712388980384689
  0
ELLIPSE
  5
1ADA
330
1A
100
AcDbEntity
  8
1
100
AcDbEllipse
 10
190.4450155696667
 20
54.22231143545923
 30
0.0
 11
19.5
 21
-0.0000000000000083
 31
0.0
210
0.0
220
0.0
230
1.0
 40
0.4102564102564114
 41
4.712388980384689
 42
5.127007037316808
  0
ELLIPSE
  5
1ADB
330
1A
100
AcDbEntity
  8
1
100
AcDbEllipse
 10
151.4450155696668
 20
54.22231143545923
 30
0.0
 11
19.5
 21
0.0000000000000059
 31
0.0
210
0.0
220
0.0
230
1.0
 40
0.4102564102564113
 41
1.570796326794896
 42
1.985414383726928
  0
LINE
  5
1ADC
330
1A
100
AcDbEntity
  8
1
100
AcDbLine
 10
142.0464946136344
 20
47.24178549497628
 30
0.0
 11
140.8942324795534
 21
46.15186531466133
 31
0.0
  0
LINE
  5
1ADD
330
1A
100
AcDbEntity
  8
1
100
AcDbLine
 10
142.0464946136344
 20
61.20283737594218
 30
0.0
 11
140.8942324795534
 21
62.29275755625713
 31
0.0
  0
LINE
  5
1ADE
330
1A
100
AcDbEntity
  8
1
100
AcDbLine
 10
141.9450155696667
 20
59.57630173861161
 30
0.0
 11
141.9450155696667
 21
48.86832113230593
 31
0.0
  0
LINE
  5
1ADF
330
1A
100
AcDbEntity
  8
1
100
AcDbLine
 10
199.8435365256991
 20
61.20283737594218
 30
0.0
 11
200.9957986597801
 21
62.29275755625713
 31
0.0
  0
LINE
  5
1AE0
330
1A
100
AcDbEntity
  8
1
100
AcDbLine
 10
199.8435365256991
 20
47.24178549497628
 30
0.0
 11
200.9957986597801
 21
46.15186531466133
 31
0.0
  0
ARC
  5
1AE1
330
1A
100
AcDbEntity
  8
1
100
AcDbCircle
 10
197.9450155696667
 20
48.86832113230685
 30
0.0
 40
2.0
100
AcDbArc
 50
280.2354526034772
 51
0.0
  0
ARC
  5
1AE2
330
1A
100
AcDbEntity
  8
1
100
AcDbCircle
 10
197.9450155696667
 20
59.57630173861253
 30
0.0
 40
2.0
100
AcDbArc
 50
0.0
 51
79.76454739646228
  0
LINE
  5
1AE3
330
1A
100
AcDbEntity
  8
1
100
AcDbLine
 10
151.4450155696668
 20
46.22231143545923
 30
0.0
 11
190.4450155696667
 21
46.22231143545923
 31
0.0
  0
LINE
  5
1AE4
330
1A
100
AcDbEntity
  8
1
100
AcDbLine
 10
190.4450155696667
 20
62.22231143545923
 30
0.0
 11
151.4450155696668
 21
62.22231143545923
 31
0.0
  0
LINE
  5
1AE5
330
1A
100
AcDbEntity
  8
1
100
AcDbLine
 10
199.9450155696667
 20
48.86832113230593
 30
0.0
 11
199.9450155696667
 21
59.57630173861161
 31
0.0
  0
ARC
  5
1AE6
330
1A
100
AcDbEntity
  8
1
100
AcDbCircle
 10
143.9450155696667
 20
59.57630173861253
 30
0.0
 40
2.0
100
AcDbArc
 50
100.2354526035377
 51
180.0
  0
ARC
  5
1AE7
330
1A
100
AcDbEntity
  8
1
100
AcDbCircle
 10
143.9450155696667
 20
48.86832113230685
 30
0.0
 40
2.0
100
AcDbArc
 50
180.0
 51
259.7645473964622
  0
CIRCLE
  5
1AE9
330
1A
100
AcDbEntity
  8
1
 62
     7
100
AcDbCircle
 10
221.9450155696677
 20
45.22231143544468
 30
0.0
 40
2.458499999999999
  0
CIRCLE
  5
1AEA
330
1A
100
AcDbEntity
  8
1
100
AcDbCircle
 10
239.9450155696677
 20
54.22231143544468
 30
0.0
 40
2.458499999999999
  0
CIRCLE
  5
1AEB
330
1A
100
AcDbEntity
  8
1
 62
     9
100
AcDbCircle
 10
239.9450155696677
 20
54.22231143544468
 30
0.0
 40
3.0
  0
LINE
  5
1AEC
330
1A
100
AcDbEntity
  8
CENTER
 62
     9
100
AcDbLine
 10
239.9450155696677
 20
50.22231143544468
 30
0.0
 11
239.9450155696677
 21
58.22231143544468
 31
0.0
  0
LINE
  5
1AF4
330
1A
100
AcDbEntity
  8
1
100
AcDbLine
 10
245.9450155696677
 20
198.290924048978
 30
0.0
 11
213.8439950552347
 21
198.290924048978
 31
0.0
  0
LINE
  5
1AF5
330
1A
100
AcDbEntity
  8
1
100
AcDbLine
 10
213.9450155696676
 20
168.290924048978
 30
0.0
 11
245.9450155696677
 21
168.290924048978
 31
0.0
  0
LINE
  5
1AF6
330
1A
100
AcDbEntity
  8
1
  6
HIDDEN
 62
     8
 48
1.5
100
AcDbLine
 10
224.4035155696683
 20
182.749432964023
 30
0.0
 11
219.4865155696688
 21
182.749432964023
 31
0.0
  0
LINE
  5
1AF7
330
1A
100
AcDbEntity
  8
1
  6
HIDDEN
 62
     8
 48
1.5
100
AcDbLine
 10
224.9450155696686
 20
183.2909329640233
 30
0.0
 11
218.9450155696686
 21
183.2909329640233
 31
0.0
  0
LINE
  5
1AF8
330
1A
100
AcDbEntity
  8
1
  6
HIDDEN
 48
1.5
100
AcDbLine
 10
224.4035155696683
 20
198.2909240489789
 30
0.0
 11
224.4035155696665
 21
168.290924048978
 31
0.0
  0
LINE
  5
1AF9
330
1A
100
AcDbEntity
  8
CENTER
 48
0.7
100
AcDbLine
 10
221.9450155696686
 20
199.6540418790673
 30
0.0
 11
221.9450155696686
 21
166.9278240489784
 31
0.0
  0
LINE
  5
1AFA
330
1A
100
AcDbEntity
  8
1
  6
HIDDEN
 62
     8
 48
1.5
100
AcDbLine
 10
224.9450155696686
 20
198.2909240489789
 30
0.0
 11
224.9450155696686
 21
183.2909329640233
 31
0.0
  0
LINE
  5
1AFB
330
1A
100
AcDbEntity
  8
1
 62
     8
 48
1.5
100
AcDbLine
 10
224.9450155696686
 20
183.2909329640233
 30
0.0
 11
224.4035155696683
 21
182.749432964023
 31
0.0
  0
LINE
  5
1AFC
330
1A
100
AcDbEntity
  8
1
  6
HIDDEN
 48
1.5
100
AcDbLine
 10
219.4865155696688
 20
198.2909240489789
 30
0.0
 11
219.486515569667
 21
168.290924048978
 31
0.0
  0
LINE
  5
1AFD
330
1A
100
AcDbEntity
  8
1
 62
     8
 48
1.5
100
AcDbLine
 10
219.4865155696688
 20
182.749432964023
 30
0.0
 11
218.9450155696686
 21
183.2909329640233
 31
0.0
  0
LINE
  5
1AFE
330
1A
100
AcDbEntity
  8
1
  6
HIDDEN
 62
     8
 48
1.5
100
AcDbLine
 10
218.9450155696686
 20
183.2909329640224
 30
0.0
 11
218.9450155696686
 21
198.2909240489789
 31
0.0
  0
LINE
  5
1AFF
330
1A
100
AcDbEntity
  8
1
100
AcDbLine
 10
137.9450155696668
 20
200.790924048978
 30
0.0
 11
135.9450155696668
 21
200.790924048978
 31
0.0
  0
LINE
  5
1B00
330
1A
100
AcDbEntity
  8
1
100
AcDbLine
 10
139.4450155696667
 20
200.790924048978
 30
0.0
 11
137.9450155696668
 21
200.790924048978
 31
0.0
  0
LINE
  5
1B01
330
1A
100
AcDbEntity
  8
1
100
AcDbLine
 10
138.9254003273963
 20
204.790924048978
 30
0.0
 11
139.4450155696667
 21
204.4909240489778
 31
0.0
  0
LINE
  5
1B02
330
1A
100
AcDbEntity
  8
1
100
AcDbLine
 10
139.4450155696667
 20
204.4909240489778
 30
0.0
 11
139.4450155696667
 21
200.790924048978
 31
0.0
  0
LINE
  5
1B03
330
1A
100
AcDbEntity
  8
1
100
AcDbLine
 10
135.9450155696668
 20
200.790924048978
 30
0.0
 11
133.9450155696668
 21
200.790924048978
 31
0.0
  0
LINE
  5
1B04
330
1A
100
AcDbEntity
  8
1
100
AcDbLine
 10
140.9450155696695
 20
280.3668932689461
 30
0.0
 11
141.4450155696695
 21
280.8668932689461
 31
0.0
  0
LINE
  5
1B05
330
1A
100
AcDbEntity
  8
1
100
AcDbLine
 10
141.4450155696686
 20
316.8668932689461
 30
0.0
 11
140.9450155696686
 21
317.3668932689461
 31
0.0
  0
ARC
  5
1B06
330
1A
100
AcDbEntity
  8
1
100
AcDbCircle
 10
139.1363055649389
 20
174.1909240489794
 30
0.0
 40
1.0
100
AcDbArc
 50
17.35402463627064
 51
90.0
  0
LINE
  5
1B07
330
1A
100
AcDbEntity
  8
1
100
AcDbLine
 10
141.4109894425737
 20
170.2645465633931
 30
0.0
 11
140.0907855429732
 21
174.4891990421147
 31
0.0
  0
LINE
  5
1B08
330
1A
100
AcDbEntity
  8
1
100
AcDbLine
 10
209.9450155696676
 20
175.1909240489785
 30
0.0
 11
170.9450155696677
 21
175.1909240489785
 31
0.0
  0
LINE
  5
1B09
330
1A
100
AcDbEntity
  8
1
100
AcDbLine
 10
209.9450155696676
 20
175.290924048978
 30
0.0
 11
209.9450155696676
 21
175.1909240489785
 31
0.0
  0
LINE
  5
1B0A
330
1A
100
AcDbEntity
  8
1
100
AcDbLine
 10
170.9450155696677
 20
175.290924048978
 30
0.0
 11
209.9450155696676
 21
175.290924048978
 31
0.0
  0
ARC
  5
1B0B
330
1A
100
AcDbEntity
  8
1
100
AcDbCircle
 10
198.4746337428878
 20
170.8909240489792
 30
0.0
 40
2.1
100
AcDbArc
 50
270.0
 51
342.6459753637293
  0
LINE
  5
1B0C
330
1A
100
AcDbEntity
  8
1
100
AcDbLine
 10
200.4790416967607
 20
170.2645465633931
 30
0.0
 11
201.7992455963613
 21
174.4891990421147
 31
0.0
  0
ARC
  5
1B0D
330
1A
100
AcDbEntity
  8
1
100
AcDbCircle
 10
202.7537255743964
 20
174.1909240489794
 30
0.0
 40
1.0
100
AcDbArc
 50
90.0
 51
162.6459753637293
  0
LINE
  5
1B0E
330
1A
100
AcDbEntity
  8
1
100
AcDbLine
 10
198.4746337428878
 20
168.790924048978
 30
0.0
 11
170.9450155696677
 21
168.790924048978
 31
0.0
  0
LINE
  5
1B0F
330
1A
100
AcDbEntity
  8
1
100
AcDbLine
 10
143.4153973964475
 20
168.790924048978
 30
0.0
 11
170.9450155696677
 21
168.790924048978
 31
0.0
  0
LINE
  5
1B10
330
1A
100
AcDbEntity
  8
1
100
AcDbLine
 10
209.9450155696676
 20
175.1909240489785
 30
0.0
 11
209.9450155696676
 21
175.290924048978
 31
0.0
  0
ARC
  5
1B11
330
1A
100
AcDbEntity
  8
1
100
AcDbCircle
 10
143.4153973964475
 20
170.8909240489792
 30
0.0
 40
2.1
100
AcDbArc
 50
197.3540246362706
 51
270.0
  0
LINE
  5
1B12
330
1A
100
AcDbEntity
  8
1
100
AcDbLine
 10
141.4450155696686
 20
316.8668932689461
 30
0.0
 11
141.4450155696695
 21
280.8668932689461
 31
0.0
  0
LINE
  5
1B13
330
1A
100
AcDbEntity
  8
1
100
AcDbLine
 10
140.4450155696677
 20
198.290924048978
 30
0.0
 11
140.4450155696677
 21
200.790924048978
 31
0.0
  0
LINE
  5
1B20
330
1A
100
AcDbEntity
  8
CENTER
 62
     9
100
AcDbLine
 10
221.9450155696677
 20
285.866893268947
 30
0.0
 11
221.9450155696677
 21
293.866893268947
 31
0.0
  0
LINE
  5
1B21
330
1A
100
AcDbEntity
  8
CENTER
 62
     9
100
AcDbLine
 10
217.9450155696676
 20
289.866893268947
 30
0.0
 11
225.9450155696677
 21
289.866893268947
 31
0.0
  0
CIRCLE
  5
1B22
330
1A
100
AcDbEntity
  8
1
 62
     9
100
AcDbCircle
 10
221.9450155696677
 20
289.866893268947
 30
0.0
 40
3.0
  0
CIRCLE
  5
1B23
330
1A
100
AcDbEntity
  8
1
100
AcDbCircle
 10
221.9450155696677
 20
289.866893268947
 30
0.0
 40
2.458499999999999
  0
LINE
  5
1B24
330
1A
100
AcDbEntity
  8
CENTER
 62
     9
100
AcDbLine
 10
221.9450155696677
 20
303.866893268947
 30
0.0
 11
221.9450155696677
 21
311.866893268947
 31
0.0
  0
LINE
  5
1B25
330
1A
100
AcDbEntity
  8
CENTER
 62
     9
100
AcDbLine
 10
217.9450155696676
 20
307.866893268947
 30
0.0
 11
225.9450155696677
 21
307.866893268947
 31
0.0
  0
CIRCLE
  5
1B26
330
1A
100
AcDbEntity
  8
1
100
AcDbCircle
 10
221.9450155696677
 20
307.866893268947
 30
0.0
 40
2.458499999999999
  0
CIRCLE
  5
1B27
330
1A
100
AcDbEntity
  8
1
 62
     9
100
AcDbCircle
 10
221.9450155696677
 20
307.866893268947
 30
0.0
 40
3.0
  0
ARC
  5
1B28
330
1A
100
AcDbEntity
  8
1
100
AcDbCircle
 10
208.9450155696677
 20
203.290924048978
 30
0.0
 40
7.0
100
AcDbArc
 50
225.5846914027929
 51
314.415308597207
  0
ARC
  5
1B29
330
1A
100
AcDbEntity
  8
1
100
AcDbCircle
 10
211.9450155696676
 20
173.290924048978
 30
0.0
 40
2.0
100
AcDbArc
 50
0.0
 51
90.0
  0
LINE
  5
1B2A
330
1A
100
AcDbEntity
  8
1
100
AcDbLine
 10
204.0460360841016
 20
318.866893268947
 30
0.0
 11
204.0460360841016
 21
278.866893268947
 31
0.0
  0
LINE
  5
1B2B
330
1A
100
AcDbEntity
  8
1
100
AcDbLine
 10
213.8439950552347
 20
318.866893268947
 30
0.0
 11
213.8439950552347
 21
278.866893268947
 31
0.0
  0
LINE
  5
1B2D
330
1A
100
AcDbEntity
  8
1
100
AcDbLine
 10
213.9450155696676
 20
168.290924048978
 30
0.0
 11
213.9450155696676
 21
173.290924048978
 31
0.0
  0
LINE
  5
1B31
330
1A
100
AcDbEntity
  8
1
100
AcDbLine
 10
239.9450155696686
 20
199.6540418790673
 30
0.0
 11
239.9450155696686
 21
198.290924048978
 31
0.0
  0
LINE
  5
1B32
330
1A
100
AcDbEntity
  8
1
  6
HIDDEN
 62
     8
 48
1.5
100
AcDbLine
 10
236.9450155696676
 20
168.290924048977
 30
0.0
 11
236.9450155696686
 21
198.2909240489789
 31
0.0
  0
LINE
  5
1B33
330
1A
100
AcDbEntity
  8
1
  6
HIDDEN
 48
1.5
100
AcDbLine
 10
237.4865155696688
 20
198.2909240489789
 30
0.0
 11
237.486515569667
 21
168.290924048978
 31
0.0
  0
LINE
  5
1B34
330
1A
100
AcDbEntity
  8
1
  6
HIDDEN
 62
     8
 48
1.5
100
AcDbLine
 10
242.9450155696686
 20
198.2909240489789
 30
0.0
 11
242.9450155696695
 21
168.290924048978
 31
0.0
  0
LINE
  5
1B35
330
1A
100
AcDbEntity
  8
CENTER
 48
0.7
100
AcDbLine
 10
239.9450155696686
 20
199.6540418790673
 30
0.0
 11
239.9450155696686
 21
166.9278240489784
 31
0.0
  0
LINE
  5
1B36
330
1A
100
AcDbEntity
  8
1
  6
HIDDEN
 48
1.5
100
AcDbLine
 10
242.4035155696683
 20
198.2909240489789
 30
0.0
 11
242.4035155696665
 21
168.290924048978
 31
0.0
  0
LINE
  5
1B37
330
1A
100
AcDbEntity
  8
1
100
AcDbLine
 10
245.9450155696677
 20
168.290924048978
 30
0.0
 11
245.9450155696677
 21
198.290924048978
 31
0.0
  0
LINE
  5
1B38
330
1A
100
AcDbEntity
  8
1
100
AcDbLine
 10
245.9450155696677
 20
318.866893268947
 30
0.0
 11
245.9450155696677
 21
278.866893268947
 31
0.0
  0
LINE
  5
1B39
330
1A
100
AcDbEntity
  8
CENTER
 62
     9
100
AcDbLine
 10
239.9450155696677
 20
294.866893268947
 30
0.0
 11
239.9450155696677
 21
302.866893268947
 31
0.0
  0
CIRCLE
  5
1B3B
330
1A
100
AcDbEntity
  8
1
 62
     9
100
AcDbCircle
 10
239.9450155696677
 20
298.866893268947
 30
0.0
 40
3.0
  0
CIRCLE
  5
1B3C
330
1A
100
AcDbEntity
  8
1
100
AcDbCircle
 10
239.9450155696677
 20
298.866893268947
 30
0.0
 40
2.458499999999999
  0
LINE
  5
1F94
330
1A
100
AcDbEntity
  8
1
100
AcDbLine
 10
86.44501556966861
 20
193.2909240489561
 30
0.0
 11
85.94501556966861
 21
192.7909240489561
 31
0.0
  0
LINE
  5
1F95
330
1A
100
AcDbEntity
  8
1
100
AcDbLine
 10
95.44501556966588
 20
193.2909240489543
 30
0.0
 11
95.94501556966589
 21
192.7909240489543
 31
0.0
  0
LINE
  5
1F96
330
1A
100
AcDbEntity
  8
1
100
AcDbLine
 10
85.9450155696668
 20
181.7909240489561
 30
0.0
 11
86.44501556966678
 21
181.2909240489561
 31
0.0
  0
LINE
  5
1F97
330
1A
100
AcDbEntity
  8
1
100
AcDbLine
 10
95.44501556966862
 20
181.2909240489552
 30
0.0
 11
95.94501556966861
 21
181.7909240489552
 31
0.0
  0
LINE
  5
22B0
330
1A
100
AcDbEntity
  8
CENTER
 48
1.5
100
AcDbLine
 10
97.94501556966679
 20
187.2909240489543
 30
0.0
 11
53.7217028248906
 21
187.2909240489543
 31
0.0
  0
SPLINE
  5
22C3
330
1A
100
AcDbEntity
  8
1
100
AcDbSpline
210
0.0
220
0.0
230
1.0
 70
     8
 71
     3
 72
    10
 73
     6
 74
     4
 42
0.0000000001
 43
0.0000000001
 44
0.0000000001
 40
0.0
 40
0.0
 40
0.0
 40
0.0
 40
1.9313207915829
 40
4.372631914729431
 40
6.303952706312661
 40
6.303952706312661
 40
6.303952706312661
 40
6.303952706312661
 10
62.0172605904072
 20
190.0909240490036
 30
0.0
 10
62.43518388188386
 20
189.4686817945066
 30
0.0
 10
63.38138853632699
 20
188.0598861389271
 30
0.0
 10
60.65313264448741
 20
186.5219619590807
 30
0.0
 10
61.59933729893054
 20
185.1131663035012
 30
0.0
 10
62.01726059040812
 20
184.4909240490032
 30
0.0
 11
62.0172605904072
 21
190.0909240490036
 31
0.0
 11
62.71726059040702
 21
188.2909240490034
 31
0.0
 11
61.31726059040738
 21
186.2909240490034
 31
0.0
 11
62.01726059040812
 21
184.4909240490032
 31
0.0
  0
LINE
  5
2321
330
1A
100
AcDbEntity
  8
CENTER
 62
     9
100
AcDbLine
 10
101.9450155696677
 20
59.22231143544468
 30
0.0
 11
101.9450155696677
 21
67.22231143544468
 31
0.0
  0
LINE
  5
2322
330
1A
100
AcDbEntity
  8
CENTER
 62
     9
100
AcDbLine
 10
97.94501556966771
 20
63.22231143544468
 30
0.0
 11
105.9450155696677
 21
63.22231143544468
 31
0.0
  0
LINE
  5
2323
330
1A
100
AcDbEntity
  8
CENTER
 62
     9
100
AcDbLine
 10
119.9450155696677
 20
41.22231143544468
 30
0.0
 11
119.9450155696677
 21
49.22231143544468
 31
0.0
  0
LINE
  5
2324
330
1A
100
AcDbEntity
  8
CENTER
 62
     9
100
AcDbLine
 10
115.9450155696676
 20
45.22231143544468
 30
0.0
 11
123.9450155696677
 21
45.22231143544468
 31
0.0
  0
LINE
  5
2325
330
1A
100
AcDbEntity
  8
CENTER
 62
     9
100
AcDbLine
 10
119.9450155696677
 20
59.22231143544468
 30
0.0
 11
119.9450155696677
 21
67.22231143544468
 31
0.0
  0
LINE
  5
2326
330
1A
100
AcDbEntity
  8
CENTER
 62
     9
100
AcDbLine
 10
115.9450155696676
 20
63.22231143544468
 30
0.0
 11
123.9450155696677
 21
63.22231143544468
 31
0.0
  0
SPLINE
  5
2554
330
1A
100
AcDbEntity
  8
1
100
AcDbSpline
210
0.0
220
0.0
230
1.0
 70
     8
 71
     3
 72
    10
 73
     6
 74
     4
 42
0.0000000001
 43
0.0000000001
 44
0.0000000001
 40
0.0
 40
0.0
 40
0.0
 40
0.0
 40
1.9313207915829
 40
4.372631914729431
 40
6.303952706312661
 40
6.303952706312661
 40
6.303952706312661
 40
6.303952706312661
 10
62.01726059040447
 20
301.666893268999
 30
0.0
 10
62.43518388188113
 20
301.0446510145011
 30
0.0
 10
63.38138853632426
 20
299.6358553589216
 30
0.0
 10
60.65313264448377
 20
298.097931179077
 30
0.0
 10
61.59933729892873
 20
296.6891355234965
 30
0.0
 10
62.01726059040538
 20
296.0668932689987
 30
0.0
 11
62.01726059040447
 21
301.666893268999
 31
0.0
 11
62.71726059040429
 21
299.8668932689988
 31
0.0
 11
61.31726059040466
 21
297.8668932689988
 31
0.0
 11
62.01726059040538
 21
296.0668932689987
 31
0.0
  0
LINE
  5
2555
330
1A
100
AcDbEntity
  8
1
100
AcDbLine
 10
85.94501556966315
 20
296.0668932689987
 30
0.0
 11
62.01726059040538
 21
296.0668932689987
 31
0.0
  0
LINE
  5
2556
330
1A
100
AcDbEntity
  8
1
100
AcDbLine
 10
85.94501556966497
 20
301.666893268999
 30
0.0
 11
62.01726059040447
 21
301.666893268999
 31
0.0
  0
SPLINE
  5
2557
330
1A
100
AcDbEntity
  8
1
100
AcDbSpline
210
0.0
220
0.0
230
1.0
 70
     8
 71
     3
 72
    10
 73
     6
 74
     4
 42
0.0000000001
 43
0.0000000001
 44
0.0000000001
 40
0.0
 40
0.0
 40
0.0
 40
0.0
 40
1.9313207915829
 40
4.372631914729431
 40
6.303952706312661
 40
6.303952706312661
 40
6.303952706312661
 40
6.303952706312661
 10
62.01726059040447
 20
57.02231143549671
 30
0.0
 10
62.43518388188113
 20
56.4000691809988
 30
0.0
 10
63.38138853632426
 20
54.99127352541927
 30
0.0
 10
60.65313264448377
 20
53.45334934557286
 30
0.0
 10
61.59933729892873
 20
52.04455368999425
 30
0.0
 10
62.01726059040538
 20
51.42231143549634
 30
0.0
 11
62.01726059040447
 21
57.02231143549671
 31
0.0
 11
62.71726059040429
 21
55.22231143549652
 31
0.0
 11
61.31726059040466
 21
53.22231143549652
 31
0.0
 11
62.01726059040538
 21
51.42231143549634
 31
0.0
  0
LINE
  5
2558
330
1A
100
AcDbEntity
  8
1
100
AcDbLine
 10
85.94501556966315
 20
51.42231143549634
 30
0.0
 11
62.01726059040538
 21
51.42231143549634
 31
0.0
  0
LINE
  5
2559
330
1A
100
AcDbEntity
  8
1
100
AcDbLine
 10
85.94501556966497
 20
57.02231143549671
 30
0.0
 11
62.01726059040447
 21
57.02231143549671
 31
0.0
  0
ARC
  5
2624
330
1A
100
AcDbEntity
  8
1
100
AcDbCircle
 10
185.9450155696677
 20
191.8909240489774
 30
0.0
 40
5.0
100
AcDbArc
 50
281.1665119761629
 51
148.7617657403507
  0
ARC
  5
262E
330
1A
100
AcDbEntity
  8
1
100
AcDbCircle
 10
155.9450155696677
 20
191.8909240489774
 30
0.0
 40
5.0
100
AcDbArc
 50
31.23823425964922
 51
258.833488023837
  0
ARC
  5
2632
330
1A
100
AcDbEntity
  8
1
100
AcDbCircle
 10
177.9450155696677
 20
186.290924048978
 30
0.0
 40
9.0
100
AcDbArc
 50
65.55127880002878
 51
141.0575587309858
  0
ARC
  5
2633
330
1A
100
AcDbEntity
  8
1
100
AcDbCircle
 10
163.9450155696676
 20
186.290924048978
 30
0.0
 40
9.0
100
AcDbArc
 50
38.94244126901418
 51
114.4487211999712
  0
ARC
  5
2634
330
1A
100
AcDbEntity
  8
1
100
AcDbCircle
 10
155.9450155696677
 20
181.0909240489781
 30
0.0
 40
5.0
100
AcDbArc
 50
101.5157533939612
 51
324.5692643871012
  0
ARC
  5
2635
330
1A
100
AcDbEntity
  8
1
100
AcDbCircle
 10
163.9450155696676
 20
186.290924048978
 30
0.0
 40
9.0
100
AcDbArc
 50
244.1375075852105
 51
321.0575587309858
  0
ARC
  5
2636
330
1A
100
AcDbEntity
  8
1
100
AcDbCircle
 10
177.9450155696677
 20
186.290924048978
 30
0.0
 40
9.0
100
AcDbArc
 50
218.9424412690141
 51
295.8624924147894
  0
ARC
  5
2637
330
1A
100
AcDbEntity
  8
1
100
AcDbCircle
 10
185.9450155696677
 20
181.0909240489781
 30
0.0
 40
5.0
100
AcDbArc
 50
215.4307356128987
 51
78.48424660603872
  0
ARC
  5
2638
330
1A
100
AcDbEntity
  8
1
100
AcDbCircle
 10
178.8274012722158
 20
186.2447170924069
 30
0.0
 40
8.119788713513939
100
AcDbArc
 50
358.2042707621417
 51
5.235052745329724
  0
ARC
  5
2639
330
1A
100
AcDbEntity
  8
1
100
AcDbCircle
 10
163.3420374928136
 20
186.2363285000546
 30
0.0
 40
8.398813744229112
100
AcDbArc
 50
174.8818749442328
 51
181.6788015483091
  0
LINE
  5
2680
330
1A
100
AcDbEntity
  8
CENTER
 62
     9
100
AcDbLine
 10
218.4865155696679
 20
63.22231143544468
 30
0.0
 11
225.4035155696674
 21
63.22231143544468
 31
0.0
  0
LINE
  5
2681
330
1A
100
AcDbEntity
  8
CENTER
 62
     9
100
AcDbLine
 10
221.9450155696677
 20
59.76381143544495
 30
0.0
 11
221.9450155696677
 21
66.68081143544441
 31
0.0
  0
LINE
  5
2682
330
1A
100
AcDbEntity
  8
CENTER
 62
     9
100
AcDbLine
 10
218.4865155696679
 20
45.22231143544468
 30
0.0
 11
225.4035155696674
 21
45.22231143544468
 31
0.0
  0
LINE
  5
2683
330
1A
100
AcDbEntity
  8
CENTER
 62
     9
100
AcDbLine
 10
221.9450155696677
 20
41.76381143544495
 30
0.0
 11
221.9450155696677
 21
48.68081143544441
 31
0.0
  0
LINE
  5
2A2D
330
1A
100
AcDbEntity
  8
1
 62
     8
100
AcDbLine
 10
201.9450155696667
 20
47.22231143545923
 30
0.0
 11
201.9450155696667
 21
61.22231143545923
 31
0.0
  0
ARC
  5
2A2E
330
1A
100
AcDbEntity
  8
1
 62
     8
100
AcDbCircle
 10
199.9450155696667
 20
61.22231143545923
 30
0.0
 40
2.0
100
AcDbArc
 50
0.0
 51
90.0
  0
LINE
  5
2A2F
330
1A
100
AcDbEntity
  8
1
 62
     8
100
AcDbLine
 10
199.9450155696667
 20
63.22231143545923
 30
0.0
 11
141.9450155696667
 21
63.22231143545923
 31
0.0
  0
ARC
  5
2A30
330
1A
100
AcDbEntity
  8
1
 62
     8
100
AcDbCircle
 10
141.9450155696667
 20
61.22231143545923
 30
0.0
 40
2.0
100
AcDbArc
 50
90.0
 51
180.0
  0
LINE
  5
2A31
330
1A
100
AcDbEntity
  8
1
 62
     8
100
AcDbLine
 10
139.9450155696667
 20
61.22231143545923
 30
0.0
 11
139.9450155696667
 21
47.22231143545923
 31
0.0
  0
ARC
  5
2A32
330
1A
100
AcDbEntity
  8
1
 62
     8
100
AcDbCircle
 10
141.9450155696667
 20
47.22231143545923
 30
0.0
 40
2.0
100
AcDbArc
 50
180.0
 51
270.0
  0
LINE
  5
2A33
330
1A
100
AcDbEntity
  8
1
 62
     8
100
AcDbLine
 10
141.9450155696667
 20
45.22231143545923
 30
0.0
 11
199.9450155696667
 21
45.22231143545923
 31
0.0
  0
ARC
  5
2A34
330
1A
100
AcDbEntity
  8
1
 62
     8
100
AcDbCircle
 10
199.9450155696667
 20
47.22231143545923
 30
0.0
 40
2.0
100
AcDbArc
 50
270.0
 51
0.0
  0
LINE
  5
2A35
330
1A
100
AcDbEntity
  8
1
100
AcDbLine
 10
209.9450155696668
 20
35.62231143545886
 30
0.0
 11
209.9450155696668
 21
72.82231143545868
 31
0.0
  0
ARC
  5
2A36
330
1A
100
AcDbEntity
  8
1
100
AcDbCircle
 10
209.5450155696653
 20
72.82231143545868
 30
0.0
 40
0.4000000000014552
100
AcDbArc
 50
0.0
 51
89.99999999986973
  0
LINE
  5
2A37
330
1A
100
AcDbEntity
  8
1
100
AcDbLine
 10
209.5450155696662
 20
73.22231143545923
 30
0.0
 11
132.3450155696664
 21
73.22231143545923
 31
0.0
  0
ARC
  5
2A38
330
1A
100
AcDbEntity
  8
1
100
AcDbCircle
 10
132.3450155696664
 20
72.8223114354596
 30
0.0
 40
0.3999999999996362
100
AcDbArc
 50
90.0
 51
180.0000000001302
  0
LINE
  5
2A39
330
1A
100
AcDbEntity
  8
1
100
AcDbLine
 10
131.9450155696668
 20
72.82231143545868
 30
0.0
 11
131.9450155696668
 21
35.62231143545886
 31
0.0
  0
ARC
  5
2A3A
330
1A
100
AcDbEntity
  8
1
100
AcDbCircle
 10
132.3450155696664
 20
35.62231143545886
 30
0.0
 40
0.3999999999996362
100
AcDbArc
 50
180.0
 51
270.0
  0
LINE
  5
2A3B
330
1A
100
AcDbEntity
  8
1
100
AcDbLine
 10
132.3450155696664
 20
35.22231143545923
 30
0.0
 11
209.5450155696662
 21
35.22231143545923
 31
0.0
  0
ARC
  5
2A3C
330
1A
100
AcDbEntity
  8
1
100
AcDbCircle
 10
209.5450155696662
 20
35.62231143545886
 30
0.0
 40
0.3999999999996362
100
AcDbArc
 50
270.0
 51
0.0
  0
CIRCLE
  5
2A3D
330
1A
100
AcDbEntity
  8
1
100
AcDbCircle
 10
109.9450155696686
 20
285.8668932689461
 30
0.0
 40
3.5
  0
CIRCLE
  5
2A3E
330
1A
100
AcDbEntity
  8
1
100
AcDbCircle
 10
109.9450155696686
 20
285.8668932689461
 30
0.0
 40
2.980384757729336
  0
LINE
  5
2A3F
330
1A
100
AcDbEntity
  8
1
100
AcDbLine
 10
111.4450155696686
 20
285.000867865162
 30
0.0
 11
111.4450155696686
 21
286.7329186727301
 31
0.0
  0
LINE
  5
2A40
330
1A
100
AcDbEntity
  8
1
100
AcDbLine
 10
109.9450155696686
 20
284.134842461377
 30
0.0
 11
111.4450155696686
 21
285.000867865162
 31
0.0
  0
LINE
  5
2A41
330
1A
100
AcDbEntity
  8
1
100
AcDbLine
 10
108.4450155696686
 20
285.000867865162
 30
0.0
 11
109.9450155696686
 21
284.134842461377
 31
0.0
  0
LINE
  5
2A42
330
1A
100
AcDbEntity
  8
1
100
AcDbLine
 10
108.4450155696686
 20
286.7329186727301
 30
0.0
 11
108.4450155696686
 21
285.000867865162
 31
0.0
  0
LINE
  5
2A43
330
1A
100
AcDbEntity
  8
1
100
AcDbLine
 10
109.9450155696686
 20
287.5989440765152
 30
0.0
 11
108.4450155696686
 21
286.7329186727301
 31
0.0
  0
LINE
  5
2A44
330
1A
100
AcDbEntity
  8
1
100
AcDbLine
 10
111.4450155696686
 20
286.7329186727301
 30
0.0
 11
109.9450155696686
 21
287.5989440765152
 31
0.0
  0
CIRCLE
  5
2A45
330
1A
100
AcDbEntity
  8
1
100
AcDbCircle
 10
135.9450155696677
 20
285.866893268947
 30
0.0
 40
3.5
  0
CIRCLE
  5
2A46
330
1A
100
AcDbEntity
  8
1
100
AcDbCircle
 10
135.9450155696677
 20
285.866893268947
 30
0.0
 40
2.980384757729336
  0
LINE
  5
2A47
330
1A
100
AcDbEntity
  8
1
100
AcDbLine
 10
137.4450155696677
 20
285.0008678651629
 30
0.0
 11
137.4450155696677
 21
286.7329186727311
 31
0.0
  0
LINE
  5
2A48
330
1A
100
AcDbEntity
  8
1
100
AcDbLine
 10
135.9450155696677
 20
284.1348424613779
 30
0.0
 11
137.4450155696677
 21
285.0008678651629
 31
0.0
  0
LINE
  5
2A49
330
1A
100
AcDbEntity
  8
1
100
AcDbLine
 10
134.4450155696677
 20
285.0008678651629
 30
0.0
 11
135.9450155696677
 21
284.1348424613779
 31
0.0
  0
LINE
  5
2A4A
330
1A
100
AcDbEntity
  8
1
100
AcDbLine
 10
134.4450155696677
 20
286.7329186727311
 30
0.0
 11
134.4450155696677
 21
285.0008678651629
 31
0.0
  0
LINE
  5
2A4B
330
1A
100
AcDbEntity
  8
1
100
AcDbLine
 10
135.9450155696677
 20
287.598944076516
 30
0.0
 11
134.4450155696677
 21
286.7329186727311
 31
0.0
  0
LINE
  5
2A4C
330
1A
100
AcDbEntity
  8
1
100
AcDbLine
 10
137.4450155696677
 20
286.7329186727311
 30
0.0
 11
135.9450155696677
 21
287.598944076516
 31
0.0
  0
CIRCLE
  5
2A4D
330
1A
100
AcDbEntity
  8
1
100
AcDbCircle
 10
109.9450155696677
 20
311.866893268947
 30
0.0
 40
3.5
  0
CIRCLE
  5
2A4E
330
1A
100
AcDbEntity
  8
1
100
AcDbCircle
 10
109.9450155696677
 20
311.866893268947
 30
0.0
 40
2.980384757729336
  0
LINE
  5
2A4F
330
1A
100
AcDbEntity
  8
1
100
AcDbLine
 10
111.4450155696677
 20
311.0008678651629
 30
0.0
 11
111.4450155696677
 21
312.732918672731
 31
0.0
  0
LINE
  5
2A50
330
1A
100
AcDbEntity
  8
1
100
AcDbLine
 10
109.9450155696677
 20
310.1348424613779
 30
0.0
 11
111.4450155696677
 21
311.0008678651629
 31
0.0
  0
LINE
  5
2A51
330
1A
100
AcDbEntity
  8
1
100
AcDbLine
 10
108.4450155696677
 20
311.0008678651629
 30
0.0
 11
109.9450155696677
 21
310.1348424613779
 31
0.0
  0
LINE
  5
2A52
330
1A
100
AcDbEntity
  8
1
100
AcDbLine
 10
108.4450155696677
 20
312.732918672731
 30
0.0
 11
108.4450155696677
 21
311.0008678651629
 31
0.0
  0
LINE
  5
2A53
330
1A
100
AcDbEntity
  8
1
100
AcDbLine
 10
109.9450155696677
 20
313.5989440765161
 30
0.0
 11
108.4450155696677
 21
312.732918672731
 31
0.0
  0
LINE
  5
2A54
330
1A
100
AcDbEntity
  8
1
100
AcDbLine
 10
111.4450155696677
 20
312.732918672731
 30
0.0
 11
109.9450155696677
 21
313.5989440765161
 31
0.0
  0
CIRCLE
  5
2A55
330
1A
100
AcDbEntity
  8
1
100
AcDbCircle
 10
135.9450155696677
 20
311.866893268947
 30
0.0
 40
3.5
  0
CIRCLE
  5
2A56
330
1A
100
AcDbEntity
  8
1
100
AcDbCircle
 10
135.9450155696677
 20
311.866893268947
 30
0.0
 40
2.980384757729336
  0
LINE
  5
2A57
330
1A
100
AcDbEntity
  8
1
100
AcDbLine
 10
137.4450155696677
 20
311.0008678651629
 30
0.0
 11
137.4450155696677
 21
312.732918672731
 31
0.0
  0
LINE
  5
2A58
330
1A
100
AcDbEntity
  8
1
100
AcDbLine
 10
135.9450155696677
 20
310.1348424613779
 30
0.0
 11
137.4450155696677
 21
311.0008678651629
 31
0.0
  0
LINE
  5
2A59
330
1A
100
AcDbEntity
  8
1
100
AcDbLine
 10
134.4450155696677
 20
311.0008678651629
 30
0.0
 11
135.9450155696677
 21
310.1348424613779
 31
0.0
  0
LINE
  5
2A5A
330
1A
100
AcDbEntity
  8
1
100
AcDbLine
 10
134.4450155696677
 20
312.732918672731
 30
0.0
 11
134.4450155696677
 21
311.0008678651629
 31
0.0
  0
LINE
  5
2A5B
330
1A
100
AcDbEntity
  8
1
100
AcDbLine
 10
135.9450155696677
 20
313.5989440765161
 30
0.0
 11
134.4450155696677
 21
312.732918672731
 31
0.0
  0
LINE
  5
2A5C
330
1A
100
AcDbEntity
  8
1
100
AcDbLine
 10
137.4450155696677
 20
312.732918672731
 30
0.0
 11
135.9450155696677
 21
313.5989440765161
 31
0.0
  0
VIEWPORT
  5
22
330
17
100
AcDbEntity
 67
     1
  8
0
100
AcDbViewport
 10
286.6808367230635
 20
116.3252199856101
 30
0.0
 40
572.5869305164202
 41
357.4020694538369
 68
     1
 69
     1
1001
ACAD
1000
MVIEW
1002
{
1070
    16
1010
0.0
1020
0.0
1030
0.0
1010
0.0
1020
0.0
1030
1.0
1040
0.0
1040
357.4020694538369
1040
286.6808367230635
1040
116.3252199856101
1040
50.0
1040
0.0
1040
0.0
1070
     0
1070
   100
1070
     1
1070
     0
1070
     0
1070
     0
1070
     0
1070
     0
1040
0.0
1040
0.0
1040
0.0
1040
1.0
1040
1.0
1040
10.0
1040
10.0
1070
     0
1002
{
1002
}
1002
}
  0
VIEWPORT
  5
2CF
330
17
100
AcDbEntity
 67
     1
  8
DEFPOINTS
100
AcDbViewport
 10
212.4999999999999
 20
149.4999999999999
 30
0.0
 40
384.9999999999998
 41
265.0
 68
     2
 69
     2
1001
ACAD
1000
MVIEW
1002
{
1070
    16
1010
0.0
1020
0.0
1030
0.0
1010
0.0
1020
0.0
1030
1.0
1040
0.0
1040
420.8726547988336
1040
169.299400100509
1040
189.1076382180927
1040
50.0
1040
0.0
1040
0.0
1070
     0
1070
   100
1070
     1
1070
     0
1070
     0
1070
     0
1070
     0
1070
     1
1040
0.0
1040
0.0
1040
0.0
1040
168.0
1040
168.0
1040
0.0
1040
0.0
1070
     0
1002
{
1002
}
1002
}
  0
ENDSEC
  0
SECTION
  2
OBJECTS
  0
DICTIONARY
  5
C
330
0
100
AcDbDictionary
  3
ACAD_GROUP
350
D
  3
ACAD_LAYOUT
350
1660
  3
ACAD_MLINESTYLE
350
E
  3
ACAD_PLOTSETTINGS
350
1661
  3
ACAD_PLOTSTYLENAME
350
165E
  3
ACADDIM
350
248F
  3
ACDBVARIABLEDICTIONARY
350
22AE
  3
CONTENTDICTIONARY
350
234
  3
ACDBHEADERROUNDTRIPXREC
350
2AC1
  0
DICTIONARY
  5
1E6D
330
1A
100
AcDbDictionary
280
     1
  3
ACAD_LAYOUTSELFREF
360
2AE2
  0
DICTIONARY
  5
1E6B
330
17
100
AcDbDictionary
280
     1
  3
ACAD_LAYOUTSELFREF
360
2AE1
  0
DICTIONARY
  5
D
102
{ACAD_REACTORS
330
C
102
}
330
C
100
AcDbDictionary
  3
*A1
350
36C
  3
*A2
350
377
  3
*A3
350
419
  3
*A4
350
41A
  3
*A5
350
621
  3
*A6
350
630
  3
*A7
350
682
  3
*A8
350
84A
  0
DICTIONARY
  5
1660
102
{ACAD_REACTORS
330
C
102
}
330
C
100
AcDbDictionary
  0
DICTIONARY
  5
E
102
{ACAD_REACTORS
330
C
102
}
330
C
100
AcDbDictionary
  3
STANDARD
350
13
  0
DICTIONARY
  5
1661
102
{ACAD_REACTORS
330
C
102
}
330
C
100
AcDbDictionary
  3
A3FORMNX710
350
1F2A
  0
ACDBDICTIONARYWDFLT
  5
165E
102
{ACAD_REACTORS
330
C
102
}
330
C
100
AcDbDictionary
281
     1
  3
Normal
350
165F
100
AcDbDictionaryWithDefault
340
165F
  0
XRECORD
  5
248F
102
{ACAD_REACTORS
330
C
102
}
330
C
100
AcDbXrecord
 90
   990106
  3

 60
     0
 61
     0
 62
     4
 63
     4
 64
     1
 65
     0
 66
     0
 67
     3
 68
     1
 69
     0
 70
     0
 71
     0
 72
     0
 40
0.0
170
     2
340
2551
  0
DICTIONARY
  5
22AE
102
{ACAD_REACTORS
330
C
102
}
330
C
100
AcDbDictionary
  3
SORTENTS
350
22AF
  0
DICTIONARY
  5
234
102
{ACAD_REACTORS
330
C
102
}
330
C
100
AcDbDictionary
  0
DICTIONARY
  5
2AC1
102
{ACAD_REACTORS
330
C
102
}
330
C
100
AcDbDictionary
  3
TSTACKALIGN
350
2AC2
  3
TSTACKSIZE
350
2AC3
  3
HYPERLINKBASE
350
2AC4
  3
STYLESHEET
350
2AC5
  3
LAYOUTDICT
350
2AC6
  3
PLOTSETDICT
350
2AC7
  3
PLOTSTYLNAMDICT
350
2AC8
  3
LWETCUNION
350
2AC9
  3
INSUNITS
350
2ACA
  3
CEPSNTYPE
350
2ACB
  3
FINGERPRINTGUID
350
2ACC
  3
VERSIONGUID
350
2ACD
  3
PSVPSCALE
350
2ACE
  3
PUCSORTHOREF
350
2ACF
  3
PUCSORTHOVIEW
350
2AD0
  3
PUCSBASE
350
2AD1
  3
PUCSORGTOP
350
2AD2
  3
PUCSORGBOTTOM
350
2AD3
  3
PUCSORGLEFT
350
2AD4
  3
PUCSORGRIGHT
350
2AD5
  3
PUCSORGFRONT
350
2AD6
  3
PUCSORGBACK
350
2AD7
  3
UCSORTHOREF
350
2AD8
  3
UCSORTHOVIEW
350
2AD9
  3
UCSBASE
350
2ADA
  3
UCSORGTOP
350
2ADB
  3
UCSORGBOTTOM
350
2ADC
  3
UCSORGLEFT
350
2ADD
  3
UCSORGRIGHT
350
2ADE
  3
UCSORGFRONT
350
2ADF
  3
UCSORGBACK
350
2AE0
  0
XRECORD
  5
2AE2
102
{ACAD_REACTORS
330
1E6D
102
}
330
1E6D
100
AcDbXrecord
340
1A
  0
XRECORD
  5
2AE1
102
{ACAD_REACTORS
330
1E6B
102
}
330
1E6B
100
AcDbXrecord
340
17
  0
GROUP
  5
36C
102
{ACAD_REACTORS
330
D
102
}
330
D
100
AcDbGroup
300

 70
     1
 71
     1
  0
GROUP
  5
377
102
{ACAD_REACTORS
330
D
102
}
330
D
100
AcDbGroup
300

 70
     1
 71
     1
  0
GROUP
  5
419
102
{ACAD_REACTORS
330
D
102
}
330
D
100
AcDbGroup
300

 70
     1
 71
     1
  0
GROUP
  5
41A
102
{ACAD_REACTORS
330
D
102
}
330
D
100
AcDbGroup
300

 70
     1
 71
     1
  0
GROUP
  5
621
102
{ACAD_REACTORS
330
D
102
}
330
D
100
AcDbGroup
300

 70
     1
 71
     1
  0
GROUP
  5
630
102
{ACAD_REACTORS
330
D
102
}
330
D
100
AcDbGroup
300

 70
     1
 71
     1
  0
GROUP
  5
682
102
{ACAD_REACTORS
330
D
102
}
330
D
100
AcDbGroup
300

 70
     1
 71
     1
  0
GROUP
  5
84A
102
{ACAD_REACTORS
330
D
102
}
330
D
100
AcDbGroup
300

 70
     1
 71
     1
  0
MLINESTYLE
  5
13
102
{ACAD_REACTORS
330
E
102
}
330
E
100
AcDbMlineStyle
  2
STANDARD
 70
     0
  3

 62
     0
 51
90.0
 52
90.0
 71
     2
 49
0.5
 62
   256
  6
BYLAYER
 49
-0.5
 62
   256
  6
BYLAYER
  0
PLOTSETTINGS
  5
1F2A
102
{ACAD_REACTORS
330
1661
102
}
330
1661
100
AcDbPlotSettings
  1
A3formNX710
  2
RICOH IPSiO NX710
  4
A3
  6

 40
5.831416606903076
 41
4.307413101196289
 42
8.244415283203125
 43
5.789093017578125
 44
296.9683227539062
 45
419.9889831542968
 46
0.0
 47
0.0
 48
0.0
 49
0.0
140
0.0
141
0.0
142
1.0
143
0.999993956865126
 70
   688
 72
     1
 73
     1
 74
     2
  7
monochrome.ctb
 75
     0
147
1.000006043171393
148
0.0
149
0.0
  0
ACDBPLACEHOLDER
  5
165F
102
{ACAD_REACTORS
330
165E
102
}
330
165E
100
AcDbPlaceHolder
280
     0
  0
DICTIONARYVAR
  5
22AF
102
{ACAD_REACTORS
330
22AE
102
}
330
22AE
100
DictionaryVariables
280
     0
  1
96
  0
XRECORD
  5
2AC2
102
{ACAD_REACTORS
330
2AC1
102
}
330
2AC1
100
AcDbXrecord
 90
        1
  0
XRECORD
  5
2AC3
102
{ACAD_REACTORS
330
2AC1
102
}
330
2AC1
100
AcDbXrecord
 90
       70
  0
XRECORD
  5
2AC4
102
{ACAD_REACTORS
330
2AC1
102
}
330
2AC1
100
AcDbXrecord
  1

  0
XRECORD
  5
2AC5
102
{ACAD_REACTORS
330
2AC1
102
}
330
2AC1
100
AcDbXrecord
  1

  0
XRECORD
  5
2AC6
102
{ACAD_REACTORS
330
2AC1
102
}
330
2AC1
100
AcDbXrecord
340
1660
  0
XRECORD
  5
2AC7
102
{ACAD_REACTORS
330
2AC1
102
}
330
2AC1
100
AcDbXrecord
340
1661
  0
XRECORD
  5
2AC8
102
{ACAD_REACTORS
330
2AC1
102
}
330
2AC1
100
AcDbXrecord
340
165E
  0
XRECORD
  5
2AC9
102
{ACAD_REACTORS
330
2AC1
102
}
330
2AC1
100
AcDbXrecord
 90
    31261
  0
XRECORD
  5
2ACA
102
{ACAD_REACTORS
330
2AC1
102
}
330
2AC1
100
AcDbXrecord
 90
        0
  0
XRECORD
  5
2ACB
102
{ACAD_REACTORS
330
2AC1
102
}
330
2AC1
100
AcDbXrecord
 90
        0
  0
XRECORD
  5
2ACC
102
{ACAD_REACTORS
330
2AC1
102
}
330
2AC1
100
AcDbXrecord
  1
{EE503B12-8F09-11D4-BE4C-00402655F364}
  0
XRECORD
  5
2ACD
102
{ACAD_REACTORS
330
2AC1
102
}
330
2AC1
100
AcDbXrecord
  1
{15E02BB6-9690-4509-9AB3-0CED56BDDEA7}
  0
XRECORD
  5
2ACE
102
{ACAD_REACTORS
330
2AC1
102
}
330
2AC1
100
AcDbXrecord
 40
0.0
  0
XRECORD
  5
2ACF
102
{ACAD_REACTORS
330
2AC1
102
}
330
2AC1
100
AcDbXrecord
340
0
  0
XRECORD
  5
2AD0
102
{ACAD_REACTORS
330
2AC1
102
}
330
2AC1
100
AcDbXrecord
 70
     0
  0
XRECORD
  5
2AD1
102
{ACAD_REACTORS
330
2AC1
102
}
330
2AC1
100
AcDbXrecord
340
0
  0
XRECORD
  5
2AD2
102
{ACAD_REACTORS
330
2AC1
102
}
330
2AC1
100
AcDbXrecord
 10
0.0
 20
0.0
 30
0.0
  0
XRECORD
  5
2AD3
102
{ACAD_REACTORS
330
2AC1
102
}
330
2AC1
100
AcDbXrecord
 10
0.0
 20
0.0
 30
0.0
  0
XRECORD
  5
2AD4
102
{ACAD_REACTORS
330
2AC1
102
}
330
2AC1
100
AcDbXrecord
 10
0.0
 20
0.0
 30
0.0
  0
XRECORD
  5
2AD5
102
{ACAD_REACTORS
330
2AC1
102
}
330
2AC1
100
AcDbXrecord
 10
0.0
 20
0.0
 30
0.0
  0
XRECORD
  5
2AD6
102
{ACAD_REACTORS
330
2AC1
102
}
330
2AC1
100
AcDbXrecord
 10
0.0
 20
0.0
 30
0.0
  0
XRECORD
  5
2AD7
102
{ACAD_REACTORS
330
2AC1
102
}
330
2AC1
100
AcDbXrecord
 10
0.0
 20
0.0
 30
0.0
  0
XRECORD
  5
2AD8
102
{ACAD_REACTORS
330
2AC1
102
}
330
2AC1
100
AcDbXrecord
340
0
  0
XRECORD
  5
2AD9
102
{ACAD_REACTORS
330
2AC1
102
}
330
2AC1
100
AcDbXrecord
 70
     0
  0
XRECORD
  5
2ADA
102
{ACAD_REACTORS
330
2AC1
102
}
330
2AC1
100
AcDbXrecord
340
0
  0
XRECORD
  5
2ADB
102
{ACAD_REACTORS
330
2AC1
102
}
330
2AC1
100
AcDbXrecord
 10
0.0
 20
0.0
 30
0.0
  0
XRECORD
  5
2ADC
102
{ACAD_REACTORS
330
2AC1
102
}
330
2AC1
100
AcDbXrecord
 10
0.0
 20
0.0
 30
0.0
  0
XRECORD
  5
2ADD
102
{ACAD_REACTORS
330
2AC1
102
}
330
2AC1
100
AcDbXrecord
 10
0.0
 20
0.0
 30
0.0
  0
XRECORD
  5
2ADE
102
{ACAD_REACTORS
330
2AC1
102
}
330
2AC1
100
AcDbXrecord
 10
0.0
 20
0.0
 30
0.0
  0
XRECORD
  5
2ADF
102
{ACAD_REACTORS
330
2AC1
102
}
330
2AC1
100
AcDbXrecord
 10
0.0
 20
0.0
 30
0.0
  0
XRECORD
  5
2AE0
102
{ACAD_REACTORS
330
2AC1
102
}
330
2AC1
100
AcDbXrecord
 10
0.0
 20
0.0
 30
0.0
  0
ENDSEC
  0
EOF
