  0
SECTION
  2
HEADER
  9
$ACADVER
  1
AC1014
  9
$ACADMAINTVER
 70
     9
  9
$DWGCODEPAGE
  3
ANSI_932
  9
$INSBASE
 10
0.0
 20
0.0
 30
0.0
  9
$EXTMIN
 10
118.4259781939126
 20
129.0011732300681
 30
-0.00000001
  9
$EXTMAX
 10
896.8576521950236
 20
518.0599678810777
 30
0.00000001
  9
$LIMMIN
 10
0.0
 20
0.0
  9
$LIMMAX
 10
10000.0
 20
10000.0
  9
$ORTHOMODE
 70
     1
  9
$REGENMODE
 70
     1
  9
$FILLMODE
 70
     1
  9
$QTEXTMODE
 70
     0
  9
$MIRRTEXT
 70
     1
  9
$DRAGMODE
 70
     2
  9
$LTSCALE
 40
10.0
  9
$OSMODE
 70
    32
  9
$ATTMODE
 70
     1
  9
$TEXTSIZE
 40
4.0
  9
$TRACEWID
 40
1.0
  9
$TEXTSTYLE
  7
AD-STANDARD
  9
$CLAYER
  8
0
  9
$CELTYPE
  6
BYLAYER
  9
$CECOLOR
 62
   256
  9
$CELTSCALE
 40
1.0
  9
$DELOBJ
 70
     1
  9
$DISPSILH
 70
     0
  9
$DIMSCALE
 40
1.0
  9
$DIMASZ
 40
0.18
  9
$DIMEXO
 40
0.0625
  9
$DIMDLI
 40
0.38
  9
$DIMRND
 40
0.0
  9
$DIMDLE
 40
0.0
  9
$DIMEXE
 40
0.18
  9
$DIMTP
 40
0.0
  9
$DIMTM
 40
0.0
  9
$DIMTXT
 40
0.18
  9
$DIMCEN
 40
0.09
  9
$DIMTSZ
 40
0.0
  9
$DIMTOL
 70
     0
  9
$DIMLIM
 70
     0
  9
$DIMTIH
 70
     1
  9
$DIMTOH
 70
     1
  9
$DIMSE1
 70
     0
  9
$DIMSE2
 70
     0
  9
$DIMTAD
 70
     0
  9
$DIMZIN
 70
     0
  9
$DIMBLK
  1

  9
$DIMASO
 70
     1
  9
$DIMSHO
 70
     1
  9
$DIMPOST
  1

  9
$DIMAPOST
  1

  9
$DIMALT
 70
     0
  9
$DIMALTD
 70
     2
  9
$DIMALTF
 40
25.4
  9
$DIMLFAC
 40
1.0
  9
$DIMTOFL
 70
     0
  9
$DIMTVP
 40
0.0
  9
$DIMTIX
 70
     0
  9
$DIMSOXD
 70
     0
  9
$DIMSAH
 70
     0
  9
$DIMBLK1
  1

  9
$DIMBLK2
  1

  9
$DIMSTYLE
  2
STANDARD
  9
$DIMCLRD
 70
     0
  9
$DIMCLRE
 70
     0
  9
$DIMCLRT
 70
     0
  9
$DIMTFAC
 40
1.0
  9
$DIMGAP
 40
0.09
  9
$DIMJUST
 70
     0
  9
$DIMSD1
 70
     0
  9
$DIMSD2
 70
     0
  9
$DIMTOLJ
 70
     1
  9
$DIMTZIN
 70
     0
  9
$DIMALTZ
 70
     0
  9
$DIMALTTZ
 70
     0
  9
$DIMFIT
 70
     3
  9
$DIMUPT
 70
     0
  9
$DIMUNIT
 70
     2
  9
$DIMDEC
 70
     4
  9
$DIMTDEC
 70
     4
  9
$DIMALTU
 70
     2
  9
$DIMALTTD
 70
     2
  9
$DIMTXSTY
  7
STANDARD
  9
$DIMAUNIT
 70
     0
  9
$LUNITS
 70
     2
  9
$LUPREC
 70
     4
  9
$SKETCHINC
 40
1.0
  9
$FILLETRAD
 40
1.0
  9
$AUNITS
 70
     0
  9
$AUPREC
 70
     0
  9
$MENU
  1
.
  9
$ELEVATION
 40
0.0
  9
$PELEVATION
 40
0.0
  9
$THICKNESS
 40
0.0
  9
$LIMCHECK
 70
     0
  9
$BLIPMODE
 70
     0
  9
$CHAMFERA
 40
0.5
  9
$CHAMFERB
 40
0.5
  9
$CHAMFERC
 40
673.4006734006733
  9
$CHAMFERD
 40
0.0
  9
$SKPOLY
 70
     0
  9
$TDCREATE
 40
2451428.386184838
  9
$TDUPDATE
 40
2453991.794488333
  9
$TDINDWG
 40
1.1521420370
  9
$TDUSRTIMER
 40
1.1521420370
  9
$USRTIMER
 70
     1
  9
$ANGBASE
 50
0.0
  9
$ANGDIR
 70
     0
  9
$PDMODE
 70
     0
  9
$PDSIZE
 40
0.0
  9
$PLINEWID
 40
0.0
  9
$COORDS
 70
     1
  9
$SPLFRAME
 70
     0
  9
$SPLINETYPE
 70
     6
  9
$SPLINESEGS
 70
     8
  9
$ATTDIA
 70
     0
  9
$ATTREQ
 70
     1
  9
$HANDLING
 70
 10241
  9
$HANDSEED
  5
2ABA
  9
$SURFTAB1
 70
     6
  9
$SURFTAB2
 70
     6
  9
$SURFTYPE
 70
     6
  9
$SURFU
 70
     6
  9
$SURFV
 70
     6
  9
$UCSNAME
  2

  9
$UCSORG
 10
0.0
 20
0.0
 30
0.0
  9
$UCSXDIR
 10
1.0
 20
0.0
 30
0.0
  9
$UCSYDIR
 10
0.0
 20
1.0
 30
0.0
  9
$PUCSNAME
  2

  9
$PUCSORG
 10
0.0
 20
0.0
 30
0.0
  9
$PUCSXDIR
 10
1.0
 20
0.0
 30
0.0
  9
$PUCSYDIR
 10
0.0
 20
1.0
 30
0.0
  9
$USERI1
 70
     0
  9
$USERI2
 70
     0
  9
$USERI3
 70
     0
  9
$USERI4
 70
     0
  9
$USERI5
 70
     0
  9
$USERR1
 40
0.0
  9
$USERR2
 40
0.0
  9
$USERR3
 40
0.0
  9
$USERR4
 40
0.0
  9
$USERR5
 40
0.0
  9
$WORLDVIEW
 70
     1
  9
$SHADEDGE
 70
     3
  9
$SHADEDIF
 70
    70
  9
$TILEMODE
 70
     1
  9
$MAXACTVP
 70
    16
  9
$PINSBASE
 10
0.0
 20
0.0
 30
0.0
  9
$PLIMCHECK
 70
     0
  9
$PEXTMIN
 10
20.0
 20
16.99999999999994
 30
0.0
  9
$PEXTMAX
 10
404.9999999999998
 20
281.9999999999999
 30
0.0
  9
$PLIMMIN
 10
13.31618283065029
 20
2.41278493518225
  9
$PLIMMAX
 10
418.1544263498966
 20
288.6731432318041
  9
$UNITMODE
 70
     0
  9
$VISRETAIN
 70
     0
  9
$PLINEGEN
 70
     0
  9
$PSLTSCALE
 70
     0
  9
$TREEDEPTH
 70
  3020
  9
$PICKSTYLE
 70
     1
  9
$CMLSTYLE
  2
STANDARD
  9
$CMLJUST
 70
     0
  9
$CMLSCALE
 40
1.0
  9
$PROXYGRAPHICS
 70
     1
  9
$MEASUREMENT
 70
     1
  0
ENDSEC
  0
SECTION
  2
CLASSES
  0
CLASS
  1
LWPOLYLINE
  2
AcDbPolyline
  3
AutoCAD 2000
 90
        0
280
     0
281
     1
  0
CLASS
  1
OLE2FRAME
  2
AcDbOle2Frame
  3
AutoCAD 2000
 90
        0
280
     0
281
     1
  0
CLASS
  1
ACDBDICTIONARYWDFLT
  2
AcDbDictionaryWithDefault
  3
AutoCAD 2000
 90
        0
280
     0
281
     0
  0
CLASS
  1
ACDBPLACEHOLDER
  2
AcDbPlaceHolder
  3
AutoCAD 2000
 90
        0
280
     0
281
     0
  0
CLASS
  1
LAYOUT
  2
AcDbLayout
  3
AutoCAD 2000
 90
        0
280
     0
281
     0
  0
CLASS
  1
PLOTSETTINGS
  2
AcDbPlotSettings
  3
AutoCAD 2000
 90
        0
280
     0
281
     0
  0
CLASS
  1
LONG_TRANSACTION
  2
AcDbLongTransaction
  3
AutoCAD 2000
 90
        0
280
     0
281
     0
  0
CLASS
  1
LWPOLYLINE
  2
AcDbPolyline
  3
AutoCAD 2000
 90
        0
280
     0
281
     1
  0
CLASS
  1
HATCH
  2
AcDbHatch
  3
AutoCAD 2000
 90
        0
280
     0
281
     1
  0
CLASS
  1
XRECORD
  2
AcDbXrecord
  3
AutoCAD 2000
 90
        0
280
     0
281
     0
  0
CLASS
  1
LONG_TRANSACTION
  2
AcDbLongTransaction
  3
AutoCAD 2000
 90
        0
280
     0
281
     0
  0
CLASS
  1
LWPOLYLINE
  2
AcDbPolyline
  3
AutoCAD 2000
 90
        0
280
     0
281
     1
  0
CLASS
  1
HATCH
  2
AcDbHatch
  3
AutoCAD 2000
 90
        0
280
     0
281
     1
  0
CLASS
  1
XRECORD
  2
AcDbXrecord
  3
AutoCAD 2000
 90
        0
280
     0
281
     0
  0
CLASS
  1
LONG_TRANSACTION
  2
AcDbLongTransaction
  3
AutoCAD 2000
 90
        0
280
     0
281
     0
  0
CLASS
  1
LWPOLYLINE
  2
AcDbPolyline
  3
AutoCAD 2000
 90
        0
280
     0
281
     1
  0
CLASS
  1
HATCH
  2
AcDbHatch
  3
AutoCAD 2000
 90
        0
280
     0
281
     1
  0
CLASS
  1
XRECORD
  2
AcDbXrecord
  3
AutoCAD 2000
 90
        0
280
     0
281
     0
  0
CLASS
  1
LONG_TRANSACTION
  2
AcDbLongTransaction
  3
AutoCAD 2000
 90
        0
280
     0
281
     0
  0
CLASS
  1
LWPOLYLINE
  2
AcDbPolyline
  3
AutoCAD 2000
 90
        0
280
     0
281
     1
  0
CLASS
  1
HATCH
  2
AcDbHatch
  3
AutoCAD 2000
 90
        0
280
     0
281
     1
  0
CLASS
  1
XRECORD
  2
AcDbXrecord
  3
AutoCAD 2000
 90
        0
280
     0
281
     0
  0
CLASS
  1
LONG_TRANSACTION
  2
AcDbLongTransaction
  3
AutoCAD 2000
 90
        0
280
     0
281
     0
  0
CLASS
  1
LWPOLYLINE
  2
AcDbPolyline
  3
AutoCAD 2000
 90
        0
280
     0
281
     1
  0
CLASS
  1
HATCH
  2
AcDbHatch
  3
AutoCAD 2000
 90
        0
280
     0
281
     1
  0
CLASS
  1
XRECORD
  2
AcDbXrecord
  3
AutoCAD 2000
 90
        0
280
     0
281
     0
  0
ENDSEC
  0
SECTION
  2
TABLES
  0
TABLE
  2
VPORT
  5
8
330
0
100
AcDbSymbolTable
 70
     9
  0
VPORT
  5
2A97
330
8
100
AcDbSymbolTableRecord
100
AcDbViewportTableRecord
  2
*ACTIVE
 70
     0
 10
0.0
 20
0.0
 11
1.0
 21
1.0
 12
486.762180927958
 22
321.4746118593579
 13
0.0
 23
0.0
 14
168.0
 24
168.0
 15
0.0
 25
0.0
 16
0.0
 26
0.0
 36
1.0
 17
0.0
 27
0.0
 37
0.0
 40
821.0788754196846
 41
1.602080624187256
 42
50.0
 43
0.0
 44
0.0
 50
0.0
 51
0.0
 71
     0
 72
   100
 73
     1
 74
     0
 75
     0
 76
     0
 77
     0
 78
     1
  0
ENDTAB
  0
TABLE
  2
LTYPE
  5
5
330
0
100
AcDbSymbolTable
 70
     4
  0
LTYPE
  5
14
330
5
100
AcDbSymbolTableRecord
100
AcDbLinetypeTableRecord
  2
BYBLOCK
 70
     0
  3

 72
    65
 73
     0
 40
0.0
  0
LTYPE
  5
15
330
5
100
AcDbSymbolTableRecord
100
AcDbLinetypeTableRecord
  2
BYLAYER
 70
     0
  3

 72
    65
 73
     0
 40
0.0
  0
LTYPE
  5
16
330
5
100
AcDbSymbolTableRecord
100
AcDbLinetypeTableRecord
  2
CONTINUOUS
 70
     0
  3
Solid line
 72
    65
 73
     0
 40
0.0
  0
LTYPE
  5
6E
330
5
100
AcDbSymbolTableRecord
100
AcDbLinetypeTableRecord
  2
CENTER
 70
     0
  3
____ _ ____ _ ____ _ ____ _ ____ _ ____ _ ____ 
 72
    65
 73
     4
 40
2.0
 49
1.25
 74
     0
 49
-0.25
 74
     0
 49
0.25
 74
     0
 49
-0.25
 74
     0
  0
ENDTAB
  0
TABLE
  2
LAYER
  5
2
330
0
100
AcDbSymbolTable
 70
     7
  0
LAYER
  5
F
330
2
100
AcDbSymbolTableRecord
100
AcDbLayerTableRecord
  2
0
 70
     0
 62
     7
  6
CONTINUOUS
  0
LAYER
  5
72
330
2
100
AcDbSymbolTableRecord
100
AcDbLayerTableRecord
  2
DEFPOINTS
 70
     0
 62
     7
  6
CONTINUOUS
  0
LAYER
  5
74
330
2
100
AcDbSymbolTableRecord
100
AcDbLayerTableRecord
  2
CENTER
 70
     0
 62
     9
  6
CENTER
  0
LAYER
  5
244
330
2
100
AcDbSymbolTableRecord
100
AcDbLayerTableRecord
  2
NOTE
 70
     0
 62
     2
  6
CONTINUOUS
  0
LAYER
  5
2A0B
330
2
100
AcDbSymbolTableRecord
100
AcDbLayerTableRecord
  2
1
 70
     0
 62
     7
  6
CONTINUOUS
  0
ENDTAB
  0
TABLE
  2
STYLE
  5
3
330
0
100
AcDbSymbolTable
 70
     5
  0
STYLE
  5
10
330
3
100
AcDbSymbolTableRecord
100
AcDbTextStyleTableRecord
  2
STANDARD
 70
     0
 40
0.0
 41
0.8
 50
0.0
 71
     0
 42
84.17508417508416
  3
TXT
  4
bigfont.shx
  0
STYLE
  5
63
330
3
100
AcDbSymbolTableRecord
100
AcDbTextStyleTableRecord
  2
AD-STANDARD
 70
     0
 40
0.0
 41
0.8
 50
0.0
 71
     0
 42
4.0
  3
C:\Program Files\AutoCAD LT\romans.shx
  4
bigfont.shx
  0
ENDTAB
  0
TABLE
  2
VIEW
  5
6
330
0
100
AcDbSymbolTable
 70
     0
  0
ENDTAB
  0
TABLE
  2
UCS
  5
7
330
0
100
AcDbSymbolTable
 70
     0
  0
ENDTAB
  0
TABLE
  2
APPID
  5
9
330
0
100
AcDbSymbolTable
 70
     5
  0
APPID
  5
11
330
9
100
AcDbSymbolTableRecord
100
AcDbRegAppTableRecord
  2
ACAD
 70
     0
  0
APPID
  5
22A
330
9
100
AcDbSymbolTableRecord
100
AcDbRegAppTableRecord
  2
CONTENTTABDATA
 70
     0
  0
APPID
  5
22B
330
9
100
AcDbSymbolTableRecord
100
AcDbRegAppTableRecord
  2
CONTENTCURRENTTAB
 70
     0
  0
APPID
  5
232
330
9
100
AcDbSymbolTableRecord
100
AcDbRegAppTableRecord
  2
CONTENTBLOCKDESCRIPTION
 70
     0
  0
APPID
  5
233
330
9
100
AcDbSymbolTableRecord
100
AcDbRegAppTableRecord
  2
CONTENTBLOCKICON
 70
     0
  0
ENDTAB
  0
TABLE
  2
DIMSTYLE
  5
A
330
0
100
AcDbSymbolTable
 70
     3
  0
DIMSTYLE
105
1D
330
A
100
AcDbSymbolTableRecord
100
AcDbDimStyleTableRecord
  2
STANDARD
 70
     0
  3

  4

  5

  6

  7

 40
1.0
 41
0.18
 42
0.0625
 43
0.38
 44
0.18
 45
0.0
 46
0.0
 47
0.0
 48
0.0
140
0.18
141
0.09
142
0.0
143
25.4
144
1.0
145
0.0
146
1.0
147
0.09
 71
     0
 72
     0
 73
     1
 74
     1
 75
     0
 76
     0
 77
     0
 78
     0
170
     0
171
     2
172
     0
173
     0
174
     0
175
     0
176
     0
177
     0
178
     0
270
     2
271
     4
272
     4
273
     2
274
     2
340
10
275
     0
280
     0
281
     0
282
     0
283
     1
284
     0
285
     0
286
     0
287
     3
288
     0
  0
ENDTAB
  0
TABLE
  2
BLOCK_RECORD
  5
1
330
0
100
AcDbSymbolTable
 70
    27
  0
BLOCK_RECORD
  5
1A
102
{ACAD_XDICTIONARY
360
1D68
102
}
330
1
100
AcDbSymbolTableRecord
100
AcDbBlockTableRecord
  2
*MODEL_SPACE
  0
BLOCK_RECORD
  5
17
102
{ACAD_XDICTIONARY
360
1D66
102
}
330
1
100
AcDbSymbolTableRecord
100
AcDbBlockTableRecord
  2
*PAPER_SPACE
  0
ENDTAB
  0
ENDSEC
  0
SECTION
  2
BLOCKS
  0
BLOCK
  5
1B
330
1A
100
AcDbEntity
  8
0
100
AcDbBlockBegin
  2
*MODEL_SPACE
 70
     0
 10
0.0
 20
0.0
 30
0.0
  3
*MODEL_SPACE
  1

  0
ENDBLK
  5
1C
330
1A
100
AcDbEntity
  8
0
100
AcDbBlockEnd
  0
BLOCK
  5
18
330
17
100
AcDbEntity
 67
     1
  8
0
100
AcDbBlockBegin
  2
*PAPER_SPACE
 70
     0
 10
0.0
 20
0.0
 30
0.0
  3
*PAPER_SPACE
  1

  0
ENDBLK
  5
19
330
17
100
AcDbEntity
 67
     1
  8
0
100
AcDbBlockEnd
  0
ENDSEC
  0
SECTION
  2
ENTITIES
  0
SPLINE
  5
20E9
330
1A
100
AcDbEntity
  8
1
100
AcDbSpline
210
0.0
220
0.0
230
1.0
 70
     8
 71
     3
 72
    10
 73
     6
 74
     4
 42
0.0000000001
 43
0.0000000001
 44
0.0000000001
 40
0.0
 40
0.0
 40
0.0
 40
0.0
 40
2.907724172405381
 40
9.870040789236091
 40
12.42388338715578
 40
12.42388338715578
 40
12.42388338715578
 40
12.42388338715578
 10
324.5461204529992
 20
444.4126001456861
 30
0.0
 10
323.775525276741
 20
443.6372534328638
 30
0.0
 10
321.1598006169442
 20
441.0054000562686
 30
0.0
 10
326.8057867041707
 20
437.167454772818
 30
0.0
 10
325.4698126243283
 20
434.0938271825489
 30
0.0
 10
325.1112785311279
 20
433.2689606693848
 30
0.0
 11
324.5461204529992
 21
444.4126001456861
 31
0.0
 11
322.8506400583164
 21
442.050354160604
 31
0.0
 11
325.7791965436517
 21
435.7339145317309
 31
0.0
 11
325.1112785311279
 21
433.2689606693848
 31
0.0
  0
SPLINE
  5
20EA
330
1A
100
AcDbEntity
  8
1
100
AcDbSpline
210
0.0
220
0.0
230
1.0
 70
     8
 71
     3
 72
    40
 73
    36
 74
     0
 42
0.0000000001
 43
0.0000000001
 40
0.0
 40
0.0
 40
0.0
 40
0.0
 40
0.6342353828621147
 40
0.6342353828621147
 40
1.538350975075824
 40
1.538350975075824
 40
2.296374645754778
 40
2.296374645754778
 40
2.691632508860088
 40
2.691632508860088
 40
3.117582735490028
 40
3.117582735490028
 40
3.543532962119967
 40
3.543532962119967
 40
4.412386087544092
 40
4.412386087544092
 40
5.281239212968217
 40
5.281239212968217
 40
6.150092338392342
 40
6.150092338392342
 40
7.415471129587845
 40
7.415471129587845
 40
8.680849920783348
 40
8.680849920783348
 40
9.302333741560952
 40
9.302333741560952
 40
9.713031012990565
 40
9.713031012990565
 40
10.06568563424762
 40
10.06568563424762
 40
10.41834025550468
 40
10.41834025550468
 40
11.46374497421801
 40
11.46374497421801
 40
12.42388338715578
 40
12.42388338715578
 40
12.42388338715578
 40
12.42388338715578
 10
323.1275669285805
 20
445.8224603864046
 30
0.0
 10
322.9594840233021
 20
445.6533410717447
 30
0.0
 10
322.7820031233996
 20
445.4749786209649
 30
0.0
 10
322.3432553053971
 20
445.0150438022364
 30
0.0
 10
322.0780084939597
 20
444.723025375979
 30
0.0
 10
321.6093699284738
 20
444.1075559392938
 30
0.0
 10
321.4013870776198
 20
443.796131784863
 30
0.0
 10
321.1311082357378
 20
443.2377121430508
 30
0.0
 10
321.047148813257
 20
443.0308759933632
 30
0.0
 10
320.9070617351617
 20
442.5650322558058
 30
0.0
 10
320.854972313723
 20
442.2976315179284
 30
0.0
 10
320.8121165147104
 20
441.7815342113708
 30
0.0
 10
320.8185072892329
 20
441.529760335472
 30
0.0
 10
320.8996335876654
 20
440.8035422023604
 30
0.0
 10
321.0346608878453
 20
440.37240012464
 30
0.0
 10
321.3574087465931
 20
439.604052558805
 30
0.0
 10
321.546829025664
 20
439.2630637512175
 30
0.0
 10
321.9387229835938
 20
438.6280990732366
 30
0.0
 10
322.14224549351
 20
438.3341687827805
 30
0.0
 10
322.629429556875
 20
437.6489717963186
 30
0.0
 10
322.9076344704208
 20
437.2735155935406
 30
0.0
 10
323.3675240683151
 20
436.5922107728692
 30
0.0
 10
323.5467022847897
 20
436.2862931258832
 30
0.0
 10
323.7025105917973
 20
435.9366099600029
 30
0.0
 10
323.7362447530067
 20
435.8394662537657
 30
0.0
 10
323.7690982861049
 20
435.7152514522058
 30
0.0
 10
323.7762479703042
 20
435.6756073716996
 30
0.0
 10
323.7831065239042
 20
435.618670386887
 30
0.0
 10
323.7840504064197
 20
435.6010797395465
 30
0.0
 10
323.7833030035408
 20
435.5451909642515
 30
0.0
 10
323.7810455030157
 20
435.5101199065366
 30
0.0
 10
323.7586820785536
 20
435.3391452072864
 30
0.0
 10
323.7081612795264
 20
435.1388599862821
 30
0.0
 10
323.5303521784808
 20
434.6522483472917
 30
0.0
 10
323.4118481363484
 20
434.3763347302711
 30
0.0
 10
323.2770542553507
 20
434.0662192887484
 30
0.0
  0
SPLINE
  5
20EB
330
1A
100
AcDbEntity
  8
1
100
AcDbSpline
210
0.0
220
0.0
230
1.0
 70
     8
 71
     3
 72
    40
 73
    36
 74
     0
 42
0.0000000001
 43
0.0000000001
 40
0.0
 40
0.0
 40
0.0
 40
0.0
 40
0.6342353828621147
 40
0.6342353828621147
 40
1.538350975075824
 40
1.538350975075824
 40
2.296374645754778
 40
2.296374645754778
 40
2.691632508860088
 40
2.691632508860088
 40
3.117582735490028
 40
3.117582735490028
 40
3.543532962119967
 40
3.543532962119967
 40
4.412386087544092
 40
4.412386087544092
 40
5.281239212968217
 40
5.281239212968217
 40
6.150092338392342
 40
6.150092338392342
 40
7.415471129587845
 40
7.415471129587845
 40
8.680849920783348
 40
8.680849920783348
 40
9.302333741560952
 40
9.302333741560952
 40
9.713031012990565
 40
9.713031012990565
 40
10.06568563424762
 40
10.06568563424762
 40
10.41834025550468
 40
10.41834025550468
 40
11.46374497421801
 40
11.46374497421801
 40
12.42388338715578
 40
12.42388338715578
 40
12.42388338715578
 40
12.42388338715578
 10
323.1275669285805
 20
231.842039418213
 30
0.0
 10
322.9594840233021
 20
231.6729201035532
 30
0.0
 10
322.7820031233996
 20
231.4945576527734
 30
0.0
 10
322.3432553053971
 20
231.0346228340449
 30
0.0
 10
322.0780084939597
 20
230.7426044077874
 30
0.0
 10
321.6093699284738
 20
230.1271349711023
 30
0.0
 10
321.4013870776198
 20
229.8157108166715
 30
0.0
 10
321.1311082357378
 20
229.2572911748593
 30
0.0
 10
321.047148813257
 20
229.0504550251716
 30
0.0
 10
320.9070617351617
 20
228.5846112876142
 30
0.0
 10
320.854972313723
 20
228.3172105497369
 30
0.0
 10
320.8121165147104
 20
227.8011132431793
 30
0.0
 10
320.8185072892329
 20
227.5493393672805
 30
0.0
 10
320.8996335876654
 20
226.8231212341688
 30
0.0
 10
321.0346608878453
 20
226.3919791564485
 30
0.0
 10
321.3574087465931
 20
225.6236315906135
 30
0.0
 10
321.546829025664
 20
225.2826427830259
 30
0.0
 10
321.9387229835938
 20
224.647678105045
 30
0.0
 10
322.14224549351
 20
224.353747814589
 30
0.0
 10
322.629429556875
 20
223.668550828127
 30
0.0
 10
322.9076344704208
 20
223.2930946253491
 30
0.0
 10
323.3675240683151
 20
222.6117898046777
 30
0.0
 10
323.5467022847897
 20
222.3058721576917
 30
0.0
 10
323.7025105917973
 20
221.9561889918113
 30
0.0
 10
323.7362447530067
 20
221.8590452855742
 30
0.0
 10
323.7690982861049
 20
221.7348304840143
 30
0.0
 10
323.7762479703042
 20
221.6951864035081
 30
0.0
 10
323.7831065239042
 20
221.6382494186955
 30
0.0
 10
323.7840504064197
 20
221.6206587713549
 30
0.0
 10
323.7833030035408
 20
221.56476999606
 30
0.0
 10
323.7810455030157
 20
221.529698938345
 30
0.0
 10
323.7586820785536
 20
221.3587242390949
 30
0.0
 10
323.7081612795264
 20
221.1584390180906
 30
0.0
 10
323.5303521784808
 20
220.6718273791002
 30
0.0
 10
323.4118481363484
 20
220.3959137620795
 30
0.0
 10
323.2770542553507
 20
220.0857983205569
 30
0.0
  0
SPLINE
  5
20EC
330
1A
100
AcDbEntity
  8
1
100
AcDbSpline
210
0.0
220
0.0
230
1.0
 70
     8
 71
     3
 72
    10
 73
     6
 74
     4
 42
0.0000000001
 43
0.0000000001
 44
0.0000000001
 40
0.0
 40
0.0
 40
0.0
 40
0.0
 40
2.907724172405381
 40
9.870040789236091
 40
12.42388338715578
 40
12.42388338715578
 40
12.42388338715578
 40
12.42388338715578
 10
324.5461204529992
 20
230.4321791774946
 30
0.0
 10
323.775525276741
 20
229.6568324646723
 30
0.0
 10
321.1598006169442
 20
227.024979088078
 30
0.0
 10
326.8057867041707
 20
223.1870338046265
 30
0.0
 10
325.4698126243283
 20
220.1134062143564
 30
0.0
 10
325.1112785311279
 20
219.2885397011932
 30
0.0
 11
324.5461204529992
 21
230.4321791774946
 31
0.0
 11
322.8506400583164
 21
228.0699331924124
 31
0.0
 11
325.7791965436517
 21
221.7534935635394
 31
0.0
 11
325.1112785311279
 21
219.2885397011932
 31
0.0
  0
ELLIPSE
  5
20ED
330
1A
100
AcDbEntity
  8
1
100
AcDbEllipse
 10
409.4152356701078
 20
234.0043963833977
 30
0.0
 11
-0.0000000000000003
 21
-5.267826876416847
 31
0.0
210
0.0
220
0.0
230
1.0
 40
0.1898315991508429
 41
0.0
 42
3.141592653589793
  0
ELLIPSE
  5
20EE
330
1A
100
AcDbEntity
  8
1
100
AcDbEllipse
 10
409.4152356701097
 20
234.0043963833977
 30
0.0
 11
-0.0000000000000003
 21
-5.267826876416847
 31
0.0
210
0.0
220
0.0
230
-1.0
 40
0.1898315991508429
 41
3.141592653589793
 42
6.283185307179586
  0
ELLIPSE
  5
20EF
330
1A
100
AcDbEntity
  8
1
100
AcDbEllipse
 10
416.8152356701075
 20
234.0043963833986
 30
0.0
 11
-0.0000000000000003
 21
-5.267826876431172
 31
0.0
210
0.0
220
0.0
230
1.0
 40
0.1898315991503267
 41
3.141592653589793
 42
6.283185307179586
  0
ELLIPSE
  5
20F0
330
1A
100
AcDbEntity
  8
1
100
AcDbEllipse
 10
424.8152356701075
 20
234.0043963833986
 30
0.0
 11
0.0000000000000003
 21
5.267826876431172
 31
0.0
210
0.0
220
0.0
230
1.0
 40
0.1898315991503267
 41
3.141592653589793
 42
6.283185307179586
  0
ELLIPSE
  5
20F1
330
1A
100
AcDbEntity
  8
1
100
AcDbEllipse
 10
369.8152356701075
 20
234.0043963833986
 30
0.0
 11
-0.0000000000000003
 21
-5.267826876416847
 31
0.0
210
0.0
220
0.0
230
1.0
 40
0.1898315991508429
 41
3.141592653589793
 42
6.283185307179586
  0
ELLIPSE
  5
20F2
330
1A
100
AcDbEntity
  8
1
100
AcDbEllipse
 10
369.8152356701075
 20
216.0043963833959
 30
0.0
 11
-0.0000000000000003
 21
-5.267826876418666
 31
0.0
210
0.0
220
0.0
230
1.0
 40
0.1898315991507774
 41
3.141592653589793
 42
6.283185307179586
  0
ELLIPSE
  5
20F3
330
1A
100
AcDbEntity
  8
1
100
AcDbEllipse
 10
409.4152356701078
 20
216.0043963833959
 30
0.0
 11
-0.0000000000000003
 21
-5.267826876418666
 31
0.0
210
0.0
220
0.0
230
1.0
 40
0.1898315991507774
 41
0.0
 42
3.141592653589793
  0
ELLIPSE
  5
20F4
330
1A
100
AcDbEntity
  8
1
100
AcDbEllipse
 10
409.4152356701097
 20
216.0043963833959
 30
0.0
 11
-0.0000000000000003
 21
-5.267826876418666
 31
0.0
210
0.0
220
0.0
230
-1.0
 40
0.1898315991507774
 41
3.141592653589793
 42
6.283185307179586
  0
ELLIPSE
  5
20F5
330
1A
100
AcDbEntity
  8
1
100
AcDbEllipse
 10
416.8152356701075
 20
216.0043963833986
 30
0.0
 11
-0.0000000000000003
 21
-5.267826876418894
 31
0.0
210
0.0
220
0.0
230
1.0
 40
0.1898315991507692
 41
3.141592653589793
 42
6.283185307179586
  0
ELLIPSE
  5
20F6
330
1A
100
AcDbEntity
  8
1
100
AcDbEllipse
 10
424.8152356701075
 20
216.0043963833986
 30
0.0
 11
0.0000000000000003
 21
5.267826876418894
 31
0.0
210
0.0
220
0.0
230
1.0
 40
0.1898315991509418
 41
3.141592653589793
 42
6.283185307179586
  0
ELLIPSE
  5
20F7
330
1A
100
AcDbEntity
  8
1
100
AcDbEllipse
 10
369.8152356701075
 20
447.9848173515902
 30
0.0
 11
-0.0000000000000003
 21
-5.267826876416847
 31
0.0
210
0.0
220
0.0
230
1.0
 40
0.1898315991508429
 41
3.141592653589793
 42
6.283185307179586
  0
ELLIPSE
  5
20F8
330
1A
100
AcDbEntity
  8
1
100
AcDbEllipse
 10
409.4152356701078
 20
447.9848173515892
 30
0.0
 11
-0.0000000000000003
 21
-5.267826876416847
 31
0.0
210
0.0
220
0.0
230
1.0
 40
0.1898315991508429
 41
0.0
 42
3.141592653589793
  0
ELLIPSE
  5
20F9
330
1A
100
AcDbEntity
  8
1
100
AcDbEllipse
 10
409.4152356701097
 20
447.9848173515892
 30
0.0
 11
-0.0000000000000003
 21
-5.267826876416847
 31
0.0
210
0.0
220
0.0
230
-1.0
 40
0.1898315991508429
 41
3.141592653589793
 42
6.283185307179586
  0
ELLIPSE
  5
20FA
330
1A
100
AcDbEntity
  8
1
100
AcDbEllipse
 10
369.8152356701075
 20
429.9848173515875
 30
0.0
 11
-0.0000000000000003
 21
-5.267826876418666
 31
0.0
210
0.0
220
0.0
230
1.0
 40
0.1898315991507774
 41
3.141592653589793
 42
6.283185307179586
  0
ELLIPSE
  5
20FB
330
1A
100
AcDbEntity
  8
1
100
AcDbEllipse
 10
409.4152356701078
 20
429.9848173515875
 30
0.0
 11
-0.0000000000000003
 21
-5.267826876418666
 31
0.0
210
0.0
220
0.0
230
1.0
 40
0.1898315991507774
 41
0.0
 42
3.141592653589793
  0
ELLIPSE
  5
20FC
330
1A
100
AcDbEntity
  8
1
100
AcDbEllipse
 10
409.4152356701097
 20
429.9848173515875
 30
0.0
 11
-0.0000000000000003
 21
-5.267826876418666
 31
0.0
210
0.0
220
0.0
230
-1.0
 40
0.1898315991507774
 41
3.141592653589793
 42
6.283185307179586
  0
ELLIPSE
  5
20FD
330
1A
100
AcDbEntity
  8
1
100
AcDbEllipse
 10
416.8152356701075
 20
447.9848173515902
 30
0.0
 11
-0.0000000000000003
 21
-5.267826876431172
 31
0.0
210
0.0
220
0.0
230
1.0
 40
0.1898315991503267
 41
3.141592653589793
 42
6.283185307179586
  0
ELLIPSE
  5
20FE
330
1A
100
AcDbEntity
  8
1
100
AcDbEllipse
 10
424.8152356701075
 20
447.9848173515902
 30
0.0
 11
0.0000000000000003
 21
5.267826876431172
 31
0.0
210
0.0
220
0.0
230
1.0
 40
0.1898315991503267
 41
3.141592653589793
 42
6.283185307179586
  0
ELLIPSE
  5
20FF
330
1A
100
AcDbEntity
  8
1
100
AcDbEllipse
 10
416.8152356701075
 20
429.9848173515901
 30
0.0
 11
-0.0000000000000003
 21
-5.267826876418894
 31
0.0
210
0.0
220
0.0
230
1.0
 40
0.1898315991507692
 41
3.141592653589793
 42
6.283185307179586
  0
ELLIPSE
  5
2100
330
1A
100
AcDbEntity
  8
1
100
AcDbEllipse
 10
424.8152356701075
 20
429.9848173515901
 30
0.0
 11
0.0000000000000003
 21
5.267826876418894
 31
0.0
210
0.0
220
0.0
230
1.0
 40
0.1898315991509418
 41
3.141592653589793
 42
6.283185307179586
  0
CIRCLE
  5
210C
330
1A
100
AcDbEntity
  8
1
100
AcDbCircle
 10
682.9332936562759
 20
453.9848173515874
 30
0.0
 40
10.0
  0
CIRCLE
  5
210D
330
1A
100
AcDbEntity
  8
1
100
AcDbCircle
 10
682.9332936562759
 20
423.9848173515874
 30
0.0
 40
10.0
  0
LINE
  5
210E
330
1A
100
AcDbEntity
  8
1
100
AcDbLine
 10
625.9332936562759
 20
273.3043963833961
 30
0.0
 11
700.9332936562769
 21
273.3043963833961
 31
0.0
  0
LINE
  5
210F
330
1A
100
AcDbEntity
  8
1
100
AcDbLine
 10
625.9332936562759
 20
251.3043963833961
 30
0.0
 11
700.9332936562769
 21
251.3043963833961
 31
0.0
  0
LINE
  5
2110
330
1A
100
AcDbEntity
  8
1
100
AcDbLine
 10
625.9332936562759
 20
513.9848173515875
 30
0.0
 11
700.9332936562759
 21
513.9848173515884
 31
0.0
  0
LINE
  5
2111
330
1A
100
AcDbEntity
  8
1
100
AcDbLine
 10
625.9332936562759
 20
363.9848173515874
 30
0.0
 11
700.9332936562759
 21
363.9848173515884
 31
0.0
  0
LINE
  5
2112
330
1A
100
AcDbEntity
  8
CENTER
 48
0.3
100
AcDbLine
 10
627.9332936562759
 20
376.9848173515875
 30
0.0
 11
694.9332936562759
 21
376.9848173515883
 31
0.0
  0
LINE
  5
2113
330
1A
100
AcDbEntity
  8
CENTER
 48
0.3
100
AcDbLine
 10
627.9332936562759
 20
500.9848173515884
 30
0.0
 11
694.9332936562759
 21
500.9848173515884
 31
0.0
  0
LINE
  5
2114
330
1A
100
AcDbEntity
  8
CENTER
 48
0.3
100
AcDbLine
 10
315.8354587691637
 20
438.9848173515884
 30
0.0
 11
710.3497922722499
 21
438.9848173515884
 31
0.0
  0
LINE
  5
2115
330
1A
100
AcDbEntity
  8
1
100
AcDbLine
 10
627.9332936562759
 20
167.0043963833977
 30
0.0
 11
694.9332936562759
 21
167.0043963833968
 31
0.0
  0
LINE
  5
2116
330
1A
100
AcDbEntity
  8
1
100
AcDbLine
 10
627.9332936562759
 20
249.0043963833977
 30
0.0
 11
694.9332936562759
 21
249.0043963833968
 31
0.0
  0
LINE
  5
2117
330
1A
100
AcDbEntity
  8
1
100
AcDbLine
 10
589.9332936562777
 20
491.4848173515874
 30
0.0
 11
589.9332936562777
 21
386.4848173515893
 31
0.0
  0
LINE
  5
2118
330
1A
100
AcDbEntity
  8
1
100
AcDbLine
 10
579.9332936562778
 20
491.4848173515874
 30
0.0
 11
579.9332936562778
 21
386.4848173515893
 31
0.0
  0
LINE
  5
2119
330
1A
100
AcDbEntity
  8
1
100
AcDbLine
 10
569.9332936562777
 20
491.4848173515874
 30
0.0
 11
569.9332936562759
 21
386.4848173515893
 31
0.0
  0
LINE
  5
211A
330
1A
100
AcDbEntity
  8
1
100
AcDbLine
 10
559.9332936562777
 20
491.4848173515874
 30
0.0
 11
559.9332936562777
 21
386.4848173515893
 31
0.0
  0
LINE
  5
211B
330
1A
100
AcDbEntity
  8
1
100
AcDbLine
 10
549.9332936562778
 20
491.4848173515874
 30
0.0
 11
549.9332936562778
 21
386.4848173515893
 31
0.0
  0
LINE
  5
211C
330
1A
100
AcDbEntity
  8
1
100
AcDbLine
 10
413.9332936562759
 20
422.4848173515892
 30
0.0
 11
413.9332936562759
 21
363.9848173515884
 31
0.0
  0
LINE
  5
211D
330
1A
100
AcDbEntity
  8
1
100
AcDbLine
 10
513.9332936562759
 20
389.4848173515865
 30
0.0
 11
513.9332936562759
 21
363.9848173515884
 31
0.0
  0
LINE
  5
211E
330
1A
100
AcDbEntity
  8
1
100
AcDbLine
 10
598.9332936562777
 20
492.7848173515858
 30
0.0
 11
598.9332936562751
 21
385.1848173515845
 31
0.0
  0
LINE
  5
211F
330
1A
100
AcDbEntity
  8
1
100
AcDbLine
 10
540.9332936562777
 20
492.7848173515867
 30
0.0
 11
540.9332936562777
 21
385.18481735159
 31
0.0
  0
LINE
  5
2120
330
1A
100
AcDbEntity
  8
1
100
AcDbLine
 10
625.9332936562759
 20
513.9848173515884
 30
0.0
 11
625.9332936562759
 21
363.9848173515884
 31
0.0
  0
LINE
  5
2121
330
1A
100
AcDbEntity
  8
CENTER
 48
0.3
100
AcDbLine
 10
437.9332936562759
 20
359.7371397181086
 30
0.0
 11
437.9332936562759
 21
518.0599678810777
 31
0.0
  0
LINE
  5
2122
330
1A
100
AcDbEntity
  8
CENTER
 48
0.3
100
AcDbLine
 10
477.9332936562759
 20
360.1395820990201
 30
0.0
 11
477.9332936562759
 21
517.5723127817855
 31
0.0
  0
LINE
  5
2123
330
1A
100
AcDbEntity
  8
CENTER
 48
0.3
100
AcDbLine
 10
642.9332936562759
 20
358.6550971176493
 30
0.0
 11
642.9332936562759
 21
511.2146876442293
 31
0.0
  0
LINE
  5
2124
330
1A
100
AcDbEntity
  8
CENTER
 48
0.3
100
AcDbLine
 10
682.9332936562759
 20
357.2320377903352
 30
0.0
 11
682.9332936562759
 21
510.7913767065865
 31
0.0
  0
LINE
  5
2126
330
1A
100
AcDbEntity
  8
1
100
AcDbLine
 10
158.3259781939123
 20
243.0043963833968
 30
0.0
 11
158.3259781939123
 21
173.0043963833968
 31
0.0
  0
LINE
  5
2127
330
1A
100
AcDbEntity
  8
1
100
AcDbLine
 10
228.5259781939148
 20
243.0043963833968
 30
0.0
 11
228.5259781939148
 21
173.0043963833968
 31
0.0
  0
LINE
  5
2128
330
1A
100
AcDbEntity
  8
1
100
AcDbLine
 10
235.5259781939148
 20
243.0043963833968
 30
0.0
 11
235.5259781939148
 21
173.0043963833968
 31
0.0
  0
LINE
  5
2129
330
1A
100
AcDbEntity
  8
1
100
AcDbLine
 10
151.3259781939123
 20
243.0043963833968
 30
0.0
 11
151.3259781939123
 21
173.0043963833968
 31
0.0
  0
LINE
  5
212A
330
1A
100
AcDbEntity
  8
1
100
AcDbLine
 10
244.4259781939144
 20
243.0043963833959
 30
0.0
 11
244.4259781939144
 21
173.0043963833977
 31
0.0
  0
LINE
  5
212B
330
1A
100
AcDbEntity
  8
1
100
AcDbLine
 10
142.4259781939126
 20
243.0043963833959
 30
0.0
 11
142.4259781939117
 21
173.0043963833968
 31
0.0
  0
LINE
  5
212C
330
1A
100
AcDbEntity
  8
1
100
AcDbLine
 10
134.4259781939126
 20
243.0043963833968
 30
0.0
 11
134.4259781939117
 21
173.0043963833959
 31
0.0
  0
LINE
  5
212D
330
1A
100
AcDbEntity
  8
1
100
AcDbLine
 10
252.4259781939144
 20
243.0043963833959
 30
0.0
 11
252.4259781939135
 21
173.0043963833968
 31
0.0
  0
LINE
  5
212E
330
1A
100
AcDbEntity
  8
1
100
AcDbLine
 10
143.9259781939126
 20
245.0043963833968
 30
0.0
 11
143.9259781939126
 21
171.0043963833968
 31
0.0
  0
LINE
  5
212F
330
1A
100
AcDbEntity
  8
1
100
AcDbLine
 10
242.9259781939145
 20
245.0043963833977
 30
0.0
 11
242.9259781939145
 21
171.0043963833968
 31
0.0
  0
LINE
  5
2130
330
1A
100
AcDbEntity
  8
1
100
AcDbLine
 10
158.4259781939135
 20
249.0043963833968
 30
0.0
 11
158.4259781939135
 21
167.0043963833968
 31
0.0
  0
LINE
  5
2131
330
1A
100
AcDbEntity
  8
1
100
AcDbLine
 10
228.4259781939135
 20
249.0043963833968
 30
0.0
 11
228.4259781939135
 21
167.0043963833968
 31
0.0
  0
LINE
  5
2132
330
1A
100
AcDbEntity
  8
1
100
AcDbLine
 10
240.5259781939148
 20
243.0043963833968
 30
0.0
 11
240.5259781939148
 21
173.0043963833968
 31
0.0
  0
LINE
  5
2133
330
1A
100
AcDbEntity
  8
1
100
AcDbLine
 10
146.3259781939123
 20
243.0043963833968
 30
0.0
 11
146.3259781939123
 21
173.0043963833968
 31
0.0
  0
LINE
  5
2134
330
1A
100
AcDbEntity
  8
CENTER
 48
0.3
100
AcDbLine
 10
193.4259781939135
 20
276.4251597914235
 30
0.0
 11
193.4259781939135
 21
132.0011732300681
 31
0.0
  0
LINE
  5
2138
330
1A
100
AcDbEntity
  8
1
100
AcDbLine
 10
118.4259781939135
 20
164.7043963833957
 30
0.0
 11
268.4259781939144
 21
164.7043963833948
 31
0.0
  0
LINE
  5
2139
330
1A
100
AcDbEntity
  8
1
100
AcDbLine
 10
118.4259781939135
 20
142.7043963833948
 30
0.0
 11
268.4259781939136
 21
142.7043963833948
 31
0.0
  0
LINE
  5
213A
330
1A
100
AcDbEntity
  8
CENTER
 48
0.3
100
AcDbLine
 10
178.8468512280969
 20
183.0043963833968
 30
0.0
 11
206.7926363996166
 21
183.0043963833968
 31
0.0
  0
LINE
  5
213B
330
1A
100
AcDbEntity
  8
1
100
AcDbLine
 10
158.4259781939135
 20
167.0043963833968
 30
0.0
 11
228.4259781939135
 21
167.0043963833968
 31
0.0
  0
LINE
  5
213D
330
1A
100
AcDbEntity
  8
1
100
AcDbLine
 10
196.4259781939135
 20
167.0043963833968
 30
0.0
 11
196.4259781939135
 21
164.7043963833984
 31
0.0
  0
LINE
  5
213E
330
1A
100
AcDbEntity
  8
1
100
AcDbLine
 10
166.4259781939135
 20
167.0043963833968
 30
0.0
 11
166.4259781939135
 21
164.7043963833984
 31
0.0
  0
LINE
  5
213F
330
1A
100
AcDbEntity
  8
1
100
AcDbLine
 10
190.4259781939135
 20
167.0043963833968
 30
0.0
 11
190.4259781939135
 21
164.7043963833984
 31
0.0
  0
LINE
  5
2140
330
1A
100
AcDbEntity
  8
1
 48
0.2
100
AcDbLine
 10
118.4259781939135
 20
164.7043963833957
 30
0.0
 11
118.4259781939126
 21
142.7043963833957
 31
0.0
  0
ARC
  5
2141
330
1A
100
AcDbEntity
  8
1
100
AcDbCircle
 10
156.4259781939135
 20
165.0043963833968
 30
0.0
 40
0.5
100
AcDbArc
 50
180.0
 51
216.8698976460003
  0
ARC
  5
2142
330
1A
100
AcDbEntity
  8
1
100
AcDbCircle
 10
155.4259781939135
 20
170.0043963833968
 30
0.0
 40
0.5
100
AcDbArc
 50
0.0
 51
90.0
  0
ARC
  5
2143
330
1A
100
AcDbEntity
  8
1
100
AcDbCircle
 10
144.4259781939126
 20
171.0043963833968
 30
0.0
 40
0.5
100
AcDbArc
 50
180.0
 51
270.0
  0
ARC
  5
2144
330
1A
100
AcDbEntity
  8
1
100
AcDbCircle
 10
152.4259781939117
 20
173.0043963833959
 30
0.0
 40
18.0
100
AcDbArc
 50
180.0
 51
207.4588287396185
  0
ARC
  5
2145
330
1A
100
AcDbEntity
  8
1
100
AcDbCircle
 10
152.4259781939117
 20
173.0043963833968
 30
0.0
 40
10.0
100
AcDbArc
 50
180.0
 51
236.0987380031457
  0
LINE
  5
2146
330
1A
100
AcDbEntity
  8
1
100
AcDbLine
 10
144.4259781939126
 20
170.5043963833968
 30
0.0
 11
155.4259781939135
 21
170.5043963833968
 31
0.0
  0
LINE
  5
2147
330
1A
100
AcDbEntity
  8
1
100
AcDbLine
 10
155.9259781939135
 20
170.0043963833968
 30
0.0
 11
155.9259781939135
 21
165.0043963833968
 31
0.0
  0
LINE
  5
2148
330
1A
100
AcDbEntity
  8
1
100
AcDbLine
 10
158.4259781939135
 20
173.0043963833968
 30
0.0
 11
146.3259781939123
 21
173.0043963833968
 31
0.0
  0
LINE
  5
2149
330
1A
100
AcDbEntity
  8
1
100
AcDbLine
 10
220.4259781939135
 20
167.0043963833968
 30
0.0
 11
220.4259781939135
 21
164.7043963833984
 31
0.0
  0
LINE
  5
214A
330
1A
100
AcDbEntity
  8
1
 48
0.2
100
AcDbLine
 10
268.4259781939144
 20
164.7043963833957
 30
0.0
 11
268.4259781939126
 21
142.7043963833957
 31
0.0
  0
ARC
  5
214B
330
1A
100
AcDbEntity
  8
1
100
AcDbCircle
 10
230.4259781939135
 20
165.0043963833968
 30
0.0
 40
0.5
100
AcDbArc
 50
323.1301023538849
 51
0.0
  0
ARC
  5
214C
330
1A
100
AcDbEntity
  8
1
100
AcDbCircle
 10
231.4259781939135
 20
170.0043963833968
 30
0.0
 40
0.5
100
AcDbArc
 50
90.0
 51
180.0
  0
ARC
  5
214D
330
1A
100
AcDbEntity
  8
1
100
AcDbCircle
 10
242.4259781939145
 20
171.0043963833968
 30
0.0
 40
0.5
100
AcDbArc
 50
270.0
 51
0.0
  0
ARC
  5
214E
330
1A
100
AcDbEntity
  8
1
100
AcDbCircle
 10
234.4259781939135
 20
173.0043963833968
 30
0.0
 40
18.0
100
AcDbArc
 50
332.5411712603111
 51
0.0
  0
ARC
  5
214F
330
1A
100
AcDbEntity
  8
1
100
AcDbCircle
 10
234.4259781939145
 20
173.0043963833977
 30
0.0
 40
10.0
100
AcDbArc
 50
303.9012619968542
 51
0.0
  0
LINE
  5
2150
330
1A
100
AcDbEntity
  8
1
100
AcDbLine
 10
230.9259781939136
 20
170.0043963833968
 30
0.0
 11
230.9259781939136
 21
165.0043963833968
 31
0.0
  0
LINE
  5
2151
330
1A
100
AcDbEntity
  8
1
100
AcDbLine
 10
242.4259781939145
 20
170.5043963833968
 30
0.0
 11
231.4259781939135
 21
170.5043963833968
 31
0.0
  0
LINE
  5
2152
330
1A
100
AcDbEntity
  8
1
100
AcDbLine
 10
228.4259781939135
 20
173.0043963833968
 30
0.0
 11
240.5259781939148
 21
173.0043963833968
 31
0.0
  0
ARC
  5
2154
330
1A
100
AcDbEntity
  8
1
100
AcDbCircle
 10
193.4259781939108
 20
225.0043963833995
 30
0.0
 40
19.0
100
AcDbArc
 50
48.67171806400524
 51
71.32828193596106
  0
CIRCLE
  5
2155
330
1A
100
AcDbEntity
  8
1
100
AcDbCircle
 10
193.4259781939126
 20
225.0043963833959
 30
0.0
 40
18.0
  0
CIRCLE
  5
2156
330
1A
100
AcDbEntity
  8
1
100
AcDbCircle
 10
193.4259781939126
 20
225.0043963833959
 30
0.0
 40
13.75
  0
ARC
  5
2157
330
1A
100
AcDbEntity
  8
1
100
AcDbCircle
 10
193.4259781939108
 20
225.0043963833995
 30
0.0
 40
19.0
100
AcDbArc
 50
288.6717180639895
 51
311.3282819360291
  0
CIRCLE
  5
2158
330
1A
100
AcDbEntity
  8
1
100
AcDbCircle
 10
193.4259781939135
 20
225.0043963833968
 30
0.0
 40
13.25
  0
CIRCLE
  5
2159
330
1A
100
AcDbEntity
  8
1
 62
     9
100
AcDbCircle
 10
193.4259781939135
 20
225.0043963833977
 30
0.0
 40
10.5
  0
LINE
  5
215A
330
1A
100
AcDbEntity
  8
1
100
AcDbLine
 10
118.4259781939126
 20
273.3043963833961
 30
0.0
 11
268.4259781939136
 21
273.3043963833961
 31
0.0
  0
LINE
  5
215B
330
1A
100
AcDbEntity
  8
1
100
AcDbLine
 10
152.4259781939126
 20
253.0043963833959
 30
0.0
 11
234.4259781939145
 21
253.0043963833959
 31
0.0
  0
LINE
  5
215C
330
1A
100
AcDbEntity
  8
1
100
AcDbLine
 10
152.4259781939126
 20
261.0043963833968
 30
0.0
 11
234.4259781939145
 21
261.0043963833959
 31
0.0
  0
LINE
  5
215D
330
1A
100
AcDbEntity
  8
1
100
AcDbLine
 10
156.4259781939135
 20
251.5043963833959
 30
0.0
 11
230.4259781939135
 21
251.5043963833968
 31
0.0
  0
LINE
  5
215E
330
1A
100
AcDbEntity
  8
CENTER
 48
0.3
100
AcDbLine
 10
170.5504530998887
 20
225.0043963833968
 30
0.0
 11
216.399002007919
 21
225.0043963833968
 31
0.0
  0
LINE
  5
215F
330
1A
100
AcDbEntity
  8
1
100
AcDbLine
 10
158.4259781939135
 20
249.0043963833968
 30
0.0
 11
228.4259781939135
 21
249.0043963833968
 31
0.0
  0
LINE
  5
2160
330
1A
100
AcDbEntity
  8
CENTER
 48
0.3
100
AcDbLine
 10
124.9843479625988
 20
208.0043963833968
 30
0.0
 11
268.8338984803221
 21
208.0043963833968
 31
0.0
  0
LINE
  5
2161
330
1A
100
AcDbEntity
  8
1
100
AcDbLine
 10
199.5087407242163
 20
243.0043963833959
 30
0.0
 11
187.343215663619
 21
243.0043963833959
 31
0.0
  0
ARC
  5
2162
330
1A
100
AcDbEntity
  8
1
100
AcDbCircle
 10
193.4259781939108
 20
225.0043963833995
 30
0.0
 40
19.0
100
AcDbArc
 50
183.6717180640591
 51
191.3282819359836
  0
LINE
  5
2163
330
1A
100
AcDbEntity
  8
1
100
AcDbLine
 10
180.8789021909451
 20
239.2722232598261
 30
0.0
 11
174.796139660646
 21
228.7365695069738
 31
0.0
  0
ARC
  5
2164
330
1A
100
AcDbEntity
  8
1
100
AcDbCircle
 10
193.4259781939108
 20
225.0043963833995
 30
0.0
 40
19.0
100
AcDbArc
 50
168.6717180640163
 51
191.3282819359836
  0
ARC
  5
2165
330
1A
100
AcDbEntity
  8
1
100
AcDbCircle
 10
193.4259781939108
 20
225.0043963833995
 30
0.0
 40
19.0
100
AcDbArc
 50
228.6717180640052
 51
251.3282819360104
  0
ARC
  5
2166
330
1A
100
AcDbEntity
  8
1
100
AcDbCircle
 10
193.4259781939108
 20
225.0043963833995
 30
0.0
 40
19.0
100
AcDbArc
 50
228.6717180640052
 51
236.3282819359809
  0
LINE
  5
2167
330
1A
100
AcDbEntity
  8
1
100
AcDbLine
 10
187.3432156636108
 20
207.0043963833968
 30
0.0
 11
199.5087407242081
 21
207.0043963833968
 31
0.0
  0
LINE
  5
2168
330
1A
100
AcDbEntity
  8
1
100
AcDbLine
 10
174.7961396606424
 20
221.2722232598271
 30
0.0
 11
180.8789021909406
 21
210.7365695069729
 31
0.0
  0
ARC
  5
2169
330
1A
100
AcDbEntity
  8
1
100
AcDbCircle
 10
193.4259781939108
 20
225.0043963833995
 30
0.0
 40
19.0
100
AcDbArc
 50
108.6717180640389
 51
131.3282819359556
  0
CIRCLE
  5
216A
330
1A
100
AcDbEntity
  8
1
100
AcDbCircle
 10
193.4259781939135
 20
225.0043963833968
 30
0.0
 40
6.5
  0
CIRCLE
  5
216B
330
1A
100
AcDbEntity
  8
1
100
AcDbCircle
 10
193.4259781939135
 20
225.0043963833977
 30
0.0
 40
9.3
  0
LINE
  5
216C
330
1A
100
AcDbEntity
  8
1
100
AcDbLine
 10
181.4259781939144
 20
230.6224476469578
 30
0.0
 11
181.4259781939135
 21
219.3863451198358
 31
0.0
  0
LINE
  5
216D
330
1A
100
AcDbEntity
  8
1
 48
0.2
100
AcDbLine
 10
118.4259781939126
 20
273.3043963833961
 30
0.0
 11
118.4259781939135
 21
251.3043963833961
 31
0.0
  0
ARC
  5
216E
330
1A
100
AcDbEntity
  8
1
100
AcDbCircle
 10
156.4259781939117
 20
251.0043963833968
 30
0.0
 40
0.5
100
AcDbArc
 50
143.1301023542602
 51
180.0
  0
LINE
  5
216F
330
1A
100
AcDbEntity
  8
1
100
AcDbLine
 10
118.4259781939135
 20
251.3043963833961
 30
0.0
 11
136.4538149089967
 21
251.3043963833961
 31
0.0
  0
ARC
  5
2170
330
1A
100
AcDbEntity
  8
1
100
AcDbCircle
 10
144.4259781939126
 20
245.0043963833968
 30
0.0
 40
0.5
100
AcDbArc
 50
90.0
 51
180.0
  0
ARC
  5
2171
330
1A
100
AcDbEntity
  8
1
100
AcDbCircle
 10
155.4259781939135
 20
246.0043963833977
 30
0.0
 40
0.5
100
AcDbArc
 50
270.0
 51
0.0
  0
ARC
  5
2172
330
1A
100
AcDbEntity
  8
1
100
AcDbCircle
 10
156.4259781939135
 20
251.0043963833959
 30
0.0
 40
0.5
100
AcDbArc
 50
90.0
 51
180.0
  0
ARC
  5
2173
330
1A
100
AcDbEntity
  8
1
100
AcDbCircle
 10
152.4259781939126
 20
243.0043963833968
 30
0.0
 40
18.0
100
AcDbArc
 50
90.0
 51
180.0
  0
ARC
  5
2174
330
1A
100
AcDbEntity
  8
1
100
AcDbCircle
 10
152.4259781939126
 20
243.0043963833959
 30
0.0
 40
10.0
100
AcDbArc
 50
90.0
 51
180.0
  0
LINE
  5
2175
330
1A
100
AcDbEntity
  8
1
100
AcDbLine
 10
155.9259781939135
 20
251.0043963833959
 30
0.0
 11
155.9259781939135
 21
246.0043963833977
 31
0.0
  0
LINE
  5
2176
330
1A
100
AcDbEntity
  8
1
100
AcDbLine
 10
155.4259781939135
 20
245.5043963833977
 30
0.0
 11
144.4259781939126
 21
245.5043963833968
 31
0.0
  0
CIRCLE
  5
2177
330
1A
100
AcDbEntity
  8
1
100
AcDbCircle
 10
193.4259781939135
 20
225.0043963833968
 30
0.0
 40
3.5
  0
LINE
  5
2178
330
1A
100
AcDbEntity
  8
1
100
AcDbLine
 10
158.4259781939135
 20
243.0043963833968
 30
0.0
 11
146.3259781939123
 21
243.0043963833968
 31
0.0
  0
ARC
  5
2179
330
1A
100
AcDbEntity
  8
1
100
AcDbCircle
 10
193.4259781939108
 20
225.0043963833995
 30
0.0
 40
19.0
100
AcDbArc
 50
48.67171806400524
 51
56.32828193598091
  0
ARC
  5
217A
330
1A
100
AcDbEntity
  8
1
100
AcDbCircle
 10
193.4259781939108
 20
225.0043963833995
 30
0.0
 40
19.0
100
AcDbArc
 50
3.671718063955103
 51
11.32828193598365
  0
LINE
  5
217B
330
1A
100
AcDbEntity
  8
1
100
AcDbLine
 10
205.973054196882
 20
210.7365695069656
 30
0.0
 11
212.0558167271811
 21
221.2722232598198
 31
0.0
  0
ARC
  5
217C
330
1A
100
AcDbEntity
  8
1
100
AcDbCircle
 10
193.4259781939108
 20
225.0043963833995
 30
0.0
 40
19.0
100
AcDbArc
 50
348.6717180639652
 51
11.32828193598365
  0
LINE
  5
217D
330
1A
100
AcDbEntity
  8
1
100
AcDbLine
 10
205.973054196882
 20
239.2722232598261
 30
0.0
 11
212.0558167271801
 21
228.7365695069729
 31
0.0
  0
LINE
  5
217E
330
1A
100
AcDbEntity
  8
1
100
AcDbLine
 10
212.0558167271847
 20
228.7365695069656
 30
0.0
 11
205.9730541968856
 21
239.2722232598198
 31
0.0
  0
LINE
  5
217F
330
1A
100
AcDbEntity
  8
1
100
AcDbLine
 10
205.4259781939145
 20
230.6224476469578
 30
0.0
 11
205.4259781939135
 21
219.3863451198358
 31
0.0
  0
LINE
  5
2180
330
1A
100
AcDbEntity
  8
1
100
AcDbLine
 10
250.3981414788295
 20
251.3043963833961
 30
0.0
 11
268.4259781939136
 21
251.3043963833961
 31
0.0
  0
LINE
  5
2181
330
1A
100
AcDbEntity
  8
1
 48
0.2
100
AcDbLine
 10
268.4259781939136
 20
273.3043963833961
 30
0.0
 11
268.4259781939136
 21
251.3043963833961
 31
0.0
  0
ARC
  5
2182
330
1A
100
AcDbEntity
  8
1
100
AcDbCircle
 10
230.4259781939153
 20
251.0043963833959
 30
0.0
 40
0.5
100
AcDbArc
 50
0.0
 51
36.86989764588571
  0
ARC
  5
2183
330
1A
100
AcDbEntity
  8
1
100
AcDbCircle
 10
242.4259781939145
 20
245.0043963833977
 30
0.0
 40
0.5
100
AcDbArc
 50
0.0
 51
90.0
  0
ARC
  5
2184
330
1A
100
AcDbEntity
  8
1
100
AcDbCircle
 10
231.4259781939135
 20
246.0043963833968
 30
0.0
 40
0.5
100
AcDbArc
 50
180.0
 51
270.0
  0
ARC
  5
2185
330
1A
100
AcDbEntity
  8
1
100
AcDbCircle
 10
230.4259781939135
 20
251.0043963833968
 30
0.0
 40
0.5
100
AcDbArc
 50
0.0
 51
90.0
  0
ARC
  5
2186
330
1A
100
AcDbEntity
  8
1
100
AcDbCircle
 10
234.4259781939145
 20
243.0043963833959
 30
0.0
 40
18.0
100
AcDbArc
 50
0.0
 51
90.0
  0
ARC
  5
2187
330
1A
100
AcDbEntity
  8
1
100
AcDbCircle
 10
234.4259781939145
 20
243.0043963833959
 30
0.0
 40
10.0
100
AcDbArc
 50
0.0
 51
90.0
  0
LINE
  5
2188
330
1A
100
AcDbEntity
  8
1
100
AcDbLine
 10
230.9259781939136
 20
251.0043963833968
 30
0.0
 11
230.9259781939136
 21
246.0043963833968
 31
0.0
  0
LINE
  5
2189
330
1A
100
AcDbEntity
  8
1
100
AcDbLine
 10
231.4259781939135
 20
245.5043963833968
 30
0.0
 11
242.4259781939145
 21
245.5043963833977
 31
0.0
  0
LINE
  5
218A
330
1A
100
AcDbEntity
  8
1
100
AcDbLine
 10
228.4259781939135
 20
243.0043963833968
 30
0.0
 11
240.5259781939148
 21
243.0043963833968
 31
0.0
  0
LINE
  5
218E
330
1A
100
AcDbEntity
  8
1
100
AcDbLine
 10
413.9332936562769
 20
142.7043963833957
 30
0.0
 11
513.933293656275
 21
142.7043963833957
 31
0.0
  0
LINE
  5
218F
330
1A
100
AcDbEntity
  8
1
100
AcDbLine
 10
413.9332936562769
 20
164.7043963833957
 30
0.0
 11
513.933293656275
 21
164.7043963833957
 31
0.0
  0
LINE
  5
2190
330
1A
100
AcDbEntity
  8
1
100
AcDbLine
 10
413.9332936562759
 20
363.9848173515884
 30
0.0
 11
513.9332936562759
 21
363.9848173515865
 31
0.0
  0
LINE
  5
2191
330
1A
100
AcDbEntity
  8
1
100
AcDbLine
 10
489.9332936562768
 20
173.0043963833977
 30
0.0
 11
511.9332936562768
 21
173.0043963833977
 31
0.0
  0
LINE
  5
2192
330
1A
100
AcDbEntity
  8
1
100
AcDbLine
 10
489.933293656276
 20
243.0043963833977
 30
0.0
 11
511.933293656275
 21
243.0043963833977
 31
0.0
  0
LINE
  5
2193
330
1A
100
AcDbEntity
  8
1
100
AcDbLine
 10
444.9332936562759
 20
167.0043963833968
 30
0.0
 11
511.9332936562759
 21
167.0043963833968
 31
0.0
  0
LINE
  5
2194
330
1A
100
AcDbEntity
  8
1
100
AcDbLine
 10
444.9332936562759
 20
249.0043963833968
 30
0.0
 11
511.933293656275
 21
249.0043963833959
 31
0.0
  0
LINE
  5
2195
330
1A
100
AcDbEntity
  8
1
100
AcDbLine
 10
494.9332936562759
 20
243.0043963833977
 30
0.0
 11
494.9332936562768
 21
173.0043963833977
 31
0.0
  0
LINE
  5
2196
330
1A
100
AcDbEntity
  8
1
100
AcDbLine
 10
489.933293656276
 20
243.0043963833977
 30
0.0
 11
489.9332936562768
 21
173.0043963833977
 31
0.0
  0
LINE
  5
2197
330
1A
100
AcDbEntity
  8
1
100
AcDbLine
 10
444.9332936562759
 20
249.0043963833968
 30
0.0
 11
444.9332936562759
 21
167.0043963833968
 31
0.0
  0
LINE
  5
2198
330
1A
100
AcDbEntity
  8
1
100
AcDbLine
 10
441.2332936562761
 20
186.5043963833968
 30
0.0
 11
440.9332936562759
 21
185.9847811411263
 31
0.0
  0
LINE
  5
2199
330
1A
100
AcDbEntity
  8
1
100
AcDbLine
 10
441.2332936562761
 20
186.5043963833968
 30
0.0
 11
444.9332936562759
 21
186.5043963833968
 31
0.0
  0
LINE
  5
219A
330
1A
100
AcDbEntity
  8
1
100
AcDbLine
 10
441.2332936562761
 20
179.5043963833968
 30
0.0
 11
440.9332936562759
 21
180.0240116256673
 31
0.0
  0
LINE
  5
219B
330
1A
100
AcDbEntity
  8
1
100
AcDbLine
 10
441.2332936562761
 20
179.5043963833968
 30
0.0
 11
444.9332936562759
 21
179.5043963833968
 31
0.0
  0
LINE
  5
219C
330
1A
100
AcDbEntity
  8
1
100
AcDbLine
 10
441.2332936562761
 20
186.5043963833968
 30
0.0
 11
441.2332936562761
 21
179.5043963833968
 31
0.0
  0
LINE
  5
219D
330
1A
100
AcDbEntity
  8
1
100
AcDbLine
 10
444.9332936562759
 20
186.5043963833968
 30
0.0
 11
444.9332936562759
 21
179.5043963833968
 31
0.0
  0
LINE
  5
219E
330
1A
100
AcDbEntity
  8
1
100
AcDbLine
 10
440.9332936562759
 20
185.9847811411263
 30
0.0
 11
440.9332936562759
 21
180.0240116256673
 31
0.0
  0
LINE
  5
219F
330
1A
100
AcDbEntity
  8
1
100
AcDbLine
 10
413.9332936562769
 20
164.7043963833957
 30
0.0
 11
413.9332936562769
 21
142.7043963833957
 31
0.0
  0
LINE
  5
21A0
330
1A
100
AcDbEntity
  8
1
100
AcDbLine
 10
484.9332936562769
 20
167.0043963833959
 30
0.0
 11
484.9332936562759
 21
164.7043963833939
 31
0.0
  0
LINE
  5
21A1
330
1A
100
AcDbEntity
  8
1
100
AcDbLine
 10
468.9332936562768
 20
167.0043963833977
 30
0.0
 11
468.933293656276
 21
164.7043963833957
 31
0.0
  0
LINE
  5
21A2
330
1A
100
AcDbEntity
  8
1
100
AcDbLine
 10
444.9332936562768
 20
167.0043963833977
 30
0.0
 11
444.9332936562759
 21
164.7043963833957
 31
0.0
  0
LINE
  5
21A3
330
1A
100
AcDbEntity
  8
1
100
AcDbLine
 10
369.8152356701075
 20
239.2722232598152
 30
0.0
 11
409.4152356701078
 21
239.2722232598152
 31
0.0
  0
LINE
  5
21A4
330
1A
100
AcDbEntity
  8
1
100
AcDbLine
 10
369.3925859392929
 20
243.0043963833959
 30
0.0
 11
409.8378854009233
 21
243.0043963833959
 31
0.0
  0
LINE
  5
21A5
330
1A
100
AcDbEntity
  8
1
100
AcDbLine
 10
369.8152356701075
 20
228.7365695069811
 30
0.0
 11
409.4152356701078
 21
228.7365695069811
 31
0.0
  0
LINE
  5
21A6
330
1A
100
AcDbEntity
  8
1
100
AcDbLine
 10
369.8152356701075
 20
239.2722232598152
 30
0.0
 11
409.4152356701078
 21
239.2722232598152
 31
0.0
  0
LINE
  5
21A7
330
1A
100
AcDbEntity
  8
1
100
AcDbLine
 10
369.8152356701075
 20
221.2722232598143
 30
0.0
 11
409.4152356701078
 21
221.2722232598143
 31
0.0
  0
LINE
  5
21A8
330
1A
100
AcDbEntity
  8
1
100
AcDbLine
 10
369.8152356701075
 20
210.7365695069775
 30
0.0
 11
409.4152356701078
 21
210.7365695069775
 31
0.0
  0
LINE
  5
21A9
330
1A
100
AcDbEntity
  8
1
100
AcDbLine
 10
409.8378854009196
 20
207.0043963833959
 30
0.0
 11
369.3925859392984
 21
207.0043963833959
 31
0.0
  0
LINE
  5
21AA
330
1A
100
AcDbEntity
  8
1
100
AcDbLine
 10
369.8152356701075
 20
210.7365695069775
 30
0.0
 11
409.4152356701078
 21
210.7365695069775
 31
0.0
  0
LINE
  5
21AB
330
1A
100
AcDbEntity
  8
CENTER
 48
0.3
100
AcDbLine
 10
315.9526118763869
 20
225.0043963833968
 30
0.0
 11
453.3776788541399
 21
225.0043963833968
 31
0.0
  0
LINE
  5
21AC
330
1A
100
AcDbEntity
  8
1
 62
     9
100
AcDbLine
 10
368.4152356701078
 20
230.6224476469578
 30
0.0
 11
358.9152356701079
 21
219.3863451198358
 31
0.0
  0
LINE
  5
21AD
330
1A
100
AcDbEntity
  8
1
 62
     9
100
AcDbLine
 10
358.9152356701079
 20
230.6224476469578
 30
0.0
 11
368.4152356701078
 21
219.3863451198358
 31
0.0
  0
LINE
  5
21AE
330
1A
100
AcDbEntity
  8
1
100
AcDbLine
 10
325.7819681472728
 20
221.5043963833968
 30
0.0
 11
358.9152356701079
 21
221.5043963833968
 31
0.0
  0
LINE
  5
21AF
330
1A
100
AcDbEntity
  8
1
100
AcDbLine
 10
322.99005924024
 20
228.5043963833968
 30
0.0
 11
358.9152356701079
 21
228.5043963833968
 31
0.0
  0
LINE
  5
21B0
330
1A
100
AcDbEntity
  8
1
100
AcDbLine
 10
369.8152356701075
 20
239.2722232598152
 30
0.0
 11
369.8152356701075
 21
243.0043963833959
 31
0.0
  0
LINE
  5
21B1
330
1A
100
AcDbEntity
  8
1
100
AcDbLine
 10
368.8152356701066
 20
242.0043963833959
 30
0.0
 11
369.3925859392957
 21
243.0043963833959
 31
0.0
  0
LINE
  5
21B2
330
1A
100
AcDbEntity
  8
1
100
AcDbLine
 10
369.8152356701075
 20
221.2722232598143
 30
0.0
 11
369.8152356701075
 21
228.736569506982
 31
0.0
  0
LINE
  5
21B3
330
1A
100
AcDbEntity
  8
1
100
AcDbLine
 10
358.9152356701079
 20
230.6224476469578
 30
0.0
 11
368.4152356701078
 21
230.6224476469578
 31
0.0
  0
LINE
  5
21B4
330
1A
100
AcDbEntity
  8
1
100
AcDbLine
 10
358.9152356701079
 20
238.2543963833968
 30
0.0
 11
368.8152356701066
 21
238.2543963833968
 31
0.0
  0
LINE
  5
21B5
330
1A
100
AcDbEntity
  8
1
100
AcDbLine
 10
369.8152356701075
 20
207.0043963833959
 30
0.0
 11
369.8152356701075
 21
210.7365695069775
 31
0.0
  0
LINE
  5
21B6
330
1A
100
AcDbEntity
  8
1
100
AcDbLine
 10
368.8152356701093
 20
208.004396383395
 30
0.0
 11
369.3925859392984
 21
207.0043963833959
 31
0.0
  0
LINE
  5
21B7
330
1A
100
AcDbEntity
  8
1
100
AcDbLine
 10
368.4152356701078
 20
219.3863451198358
 30
0.0
 11
358.9152356701079
 21
219.3863451198358
 31
0.0
  0
LINE
  5
21B8
330
1A
100
AcDbEntity
  8
1
100
AcDbLine
 10
358.9152356701079
 20
211.7543963833968
 30
0.0
 11
368.8152356701084
 21
211.7543963833968
 31
0.0
  0
LINE
  5
21B9
330
1A
100
AcDbEntity
  8
1
100
AcDbLine
 10
368.8152356701084
 20
208.0043963833959
 30
0.0
 11
368.8152356701066
 21
242.0043963833959
 31
0.0
  0
LINE
  5
21BA
330
1A
100
AcDbEntity
  8
1
100
AcDbLine
 10
358.9152356701079
 20
211.7543963833968
 30
0.0
 11
358.9152356701079
 21
238.2543963833959
 31
0.0
  0
LINE
  5
21BB
330
1A
100
AcDbEntity
  8
1
100
AcDbLine
 10
368.4152356701078
 20
230.6224476469578
 30
0.0
 11
368.4152356701078
 21
219.3863451198358
 31
0.0
  0
LINE
  5
21BC
330
1A
100
AcDbEntity
  8
1
100
AcDbLine
 10
428.9332936562759
 20
210.7365695069793
 30
0.0
 11
444.9332936562759
 21
210.7365695069784
 31
0.0
  0
LINE
  5
21BD
330
1A
100
AcDbEntity
  8
1
100
AcDbLine
 10
428.9332936562759
 20
221.2722232598161
 30
0.0
 11
444.933293656275
 21
221.272223259818
 31
0.0
  0
LINE
  5
21BE
330
1A
100
AcDbEntity
  8
1
100
AcDbLine
 10
428.9332936562759
 20
228.7365695069675
 30
0.0
 11
444.9332936562759
 21
228.7365695069666
 31
0.0
  0
LINE
  5
21BF
330
1A
100
AcDbEntity
  8
1
100
AcDbLine
 10
428.933293656275
 20
239.2722232598298
 30
0.0
 11
444.9332936562759
 21
239.2722232598307
 31
0.0
  0
LINE
  5
21C0
330
1A
100
AcDbEntity
  8
1
100
AcDbLine
 10
425.8152356701084
 20
243.0043963833977
 30
0.0
 11
428.9332936562759
 21
243.0043963833977
 31
0.0
  0
LINE
  5
21C1
330
1A
100
AcDbEntity
  8
1
100
AcDbLine
 10
409.4152356701078
 20
239.2722232598152
 30
0.0
 11
409.4152356701078
 21
243.0043963833959
 31
0.0
  0
LINE
  5
21C2
330
1A
100
AcDbEntity
  8
1
100
AcDbLine
 10
410.4152356701106
 20
242.0043963833959
 30
0.0
 11
409.8378854009215
 21
243.0043963833959
 31
0.0
  0
LINE
  5
21C3
330
1A
100
AcDbEntity
  8
1
100
AcDbLine
 10
409.4152356701097
 20
239.2722232598152
 30
0.0
 11
409.4152356701097
 21
243.0043963833959
 31
0.0
  0
LINE
  5
21C4
330
1A
100
AcDbEntity
  8
1
100
AcDbLine
 10
409.4152356701078
 20
221.2722232598143
 30
0.0
 11
409.4152356701078
 21
228.7365695069811
 31
0.0
  0
LINE
  5
21C5
330
1A
100
AcDbEntity
  8
1
100
AcDbLine
 10
409.4152356701097
 20
221.2722232598143
 30
0.0
 11
409.4152356701097
 21
228.736569506982
 31
0.0
  0
LINE
  5
21C6
330
1A
100
AcDbEntity
  8
1
100
AcDbLine
 10
444.9332936562759
 20
244.0043963833959
 30
0.0
 11
428.933293656275
 21
244.0043963833977
 31
0.0
  0
LINE
  5
21C7
330
1A
100
AcDbEntity
  8
1
100
AcDbLine
 10
416.8152356701075
 20
228.7365695069675
 30
0.0
 11
424.8152356701075
 21
228.7365695069675
 31
0.0
  0
LINE
  5
21C8
330
1A
100
AcDbEntity
  8
1
100
AcDbLine
 10
416.8152356701075
 20
239.2722232598307
 30
0.0
 11
424.8152356701075
 21
239.2722232598298
 31
0.0
  0
LINE
  5
21C9
330
1A
100
AcDbEntity
  8
1
100
AcDbLine
 10
416.8152356701075
 20
243.0043963833977
 30
0.0
 11
424.8152356701075
 21
243.0043963833977
 31
0.0
  0
LINE
  5
21CA
330
1A
100
AcDbEntity
  8
1
100
AcDbLine
 10
415.8152356701075
 20
241.5043963833968
 30
0.0
 11
416.8152356701075
 21
243.0043963833977
 31
0.0
  0
LINE
  5
21CB
330
1A
100
AcDbEntity
  8
1
100
AcDbLine
 10
425.8152356701084
 20
241.5043963833968
 30
0.0
 11
424.8152356701075
 21
243.0043963833977
 31
0.0
  0
LINE
  5
21CC
330
1A
100
AcDbEntity
  8
1
100
AcDbLine
 10
424.8152356701075
 20
243.0043963833977
 30
0.0
 11
424.8152356701075
 21
239.2722232598298
 31
0.0
  0
LINE
  5
21CD
330
1A
100
AcDbEntity
  8
1
100
AcDbLine
 10
416.8152356701075
 20
239.2722232598307
 30
0.0
 11
416.8152356701075
 21
243.0043963833977
 31
0.0
  0
LINE
  5
21CE
330
1A
100
AcDbEntity
  8
1
100
AcDbLine
 10
410.4152356701079
 20
241.5043963833968
 30
0.0
 11
415.8152356701075
 21
241.5043963833968
 31
0.0
  0
LINE
  5
21CF
330
1A
100
AcDbEntity
  8
1
100
AcDbLine
 10
416.8152356701075
 20
221.2722232598171
 30
0.0
 11
424.8152356701075
 21
221.2722232598171
 31
0.0
  0
LINE
  5
21D0
330
1A
100
AcDbEntity
  8
1
100
AcDbLine
 10
424.8152356701075
 20
228.7365695069675
 30
0.0
 11
424.8152356701066
 21
221.2722232598171
 31
0.0
  0
LINE
  5
21D1
330
1A
100
AcDbEntity
  8
1
100
AcDbLine
 10
416.8152356701075
 20
221.2722232598171
 30
0.0
 11
416.8152356701075
 21
228.7365695069684
 31
0.0
  0
LINE
  5
21D2
330
1A
100
AcDbEntity
  8
1
100
AcDbLine
 10
425.8152356701084
 20
207.0043963833977
 30
0.0
 11
428.9332936562759
 21
207.0043963833977
 31
0.0
  0
LINE
  5
21D3
330
1A
100
AcDbEntity
  8
1
100
AcDbLine
 10
409.4152356701078
 20
207.0043963833959
 30
0.0
 11
409.4152356701078
 21
210.7365695069775
 31
0.0
  0
LINE
  5
21D4
330
1A
100
AcDbEntity
  8
1
100
AcDbLine
 10
410.4152356701079
 20
208.004396383395
 30
0.0
 11
409.8378854009188
 21
207.0043963833959
 31
0.0
  0
LINE
  5
21D5
330
1A
100
AcDbEntity
  8
1
100
AcDbLine
 10
409.4152356701097
 20
207.0043963833959
 30
0.0
 11
409.4152356701097
 21
210.7365695069775
 31
0.0
  0
LINE
  5
21D6
330
1A
100
AcDbEntity
  8
1
100
AcDbLine
 10
444.9332936562759
 20
206.0043963833959
 30
0.0
 11
428.9332936562759
 21
206.0043963833968
 31
0.0
  0
LINE
  5
21D7
330
1A
100
AcDbEntity
  8
1
100
AcDbLine
 10
416.8152356701075
 20
210.7365695069793
 30
0.0
 11
424.8152356701075
 21
210.7365695069802
 31
0.0
  0
LINE
  5
21D8
330
1A
100
AcDbEntity
  8
1
100
AcDbLine
 10
416.8152356701075
 20
207.0043963833977
 30
0.0
 11
424.8152356701075
 21
207.0043963833977
 31
0.0
  0
LINE
  5
21D9
330
1A
100
AcDbEntity
  8
1
100
AcDbLine
 10
415.8152356701075
 20
208.5043963833968
 30
0.0
 11
416.8152356701075
 21
207.0043963833977
 31
0.0
  0
LINE
  5
21DA
330
1A
100
AcDbEntity
  8
1
100
AcDbLine
 10
416.8152356701075
 20
207.0043963833977
 30
0.0
 11
416.8152356701075
 21
210.7365695069793
 31
0.0
  0
LINE
  5
21DB
330
1A
100
AcDbEntity
  8
1
100
AcDbLine
 10
424.8152356701075
 20
207.0043963833977
 30
0.0
 11
425.8152356701075
 21
208.5043963833968
 31
0.0
  0
LINE
  5
21DC
330
1A
100
AcDbEntity
  8
1
100
AcDbLine
 10
424.8152356701066
 20
210.7365695069802
 30
0.0
 11
424.8152356701075
 21
207.0043963833977
 31
0.0
  0
LINE
  5
21DD
330
1A
100
AcDbEntity
  8
1
100
AcDbLine
 10
410.4152356701079
 20
208.5043963833968
 30
0.0
 11
415.8152356701075
 21
208.5043963833968
 31
0.0
  0
LINE
  5
21DE
330
1A
100
AcDbEntity
  8
1
100
AcDbLine
 10
425.8152356701084
 20
243.0043963833977
 30
0.0
 11
425.8152356701084
 21
207.0043963833977
 31
0.0
  0
LINE
  5
21DF
330
1A
100
AcDbEntity
  8
1
100
AcDbLine
 10
410.4152356701079
 20
242.0043963833959
 30
0.0
 11
410.4152356701079
 21
208.0043963833959
 31
0.0
  0
LINE
  5
21E0
330
1A
100
AcDbEntity
  8
1
100
AcDbLine
 10
410.4152356701088
 20
208.0043963833959
 30
0.0
 11
410.4152356701106
 21
242.0043963833959
 31
0.0
  0
LINE
  5
21E1
330
1A
100
AcDbEntity
  8
1
100
AcDbLine
 10
444.9332936562759
 20
206.004396383395
 30
0.0
 11
444.9332936562759
 21
244.0043963833959
 31
0.0
  0
LINE
  5
21E2
330
1A
100
AcDbEntity
  8
1
100
AcDbLine
 10
428.9332936562759
 20
206.0043963833977
 30
0.0
 11
428.9332936562759
 21
244.0043963833968
 31
0.0
  0
LINE
  5
21E3
330
1A
100
AcDbEntity
  8
1
100
AcDbLine
 10
410.4152356701079
 20
210.0043963833968
 30
0.0
 11
410.4152356701079
 21
240.0043963833968
 31
0.0
  0
LINE
  5
21E4
330
1A
100
AcDbEntity
  8
1
100
AcDbLine
 10
415.8152356701075
 20
208.5043963833968
 30
0.0
 11
415.8152356701075
 21
241.5043963833968
 31
0.0
  0
LINE
  5
21E5
330
1A
100
AcDbEntity
  8
1
100
AcDbLine
 10
425.8152356701075
 20
208.5043963833968
 30
0.0
 11
425.8152356701084
 21
241.5043963833968
 31
0.0
  0
CIRCLE
  5
21E6
330
1A
100
AcDbEntity
  8
1
100
AcDbCircle
 10
477.9332936562759
 20
376.9848173515865
 30
0.0
 40
6.5
  0
CIRCLE
  5
21E7
330
1A
100
AcDbEntity
  8
1
100
AcDbCircle
 10
437.9332936562759
 20
376.9848173515883
 30
0.0
 40
6.5
  0
LINE
  5
21E8
330
1A
100
AcDbEntity
  8
CENTER
 48
0.3
100
AcDbLine
 10
421.8645318112922
 20
376.9848173515883
 30
0.0
 11
492.933293656275
 21
376.9848173515865
 31
0.0
  0
LINE
  5
21E9
330
1A
100
AcDbEntity
  8
1
100
AcDbLine
 10
589.933293656276
 20
254.504396383395
 30
0.0
 11
589.933293656275
 21
161.5043963833986
 31
0.0
  0
LINE
  5
21EA
330
1A
100
AcDbEntity
  8
1
100
AcDbLine
 10
579.9332936562759
 20
254.504396383395
 30
0.0
 11
579.933293656275
 21
161.5043963833995
 31
0.0
  0
LINE
  5
21EB
330
1A
100
AcDbEntity
  8
1
100
AcDbLine
 10
569.9332936562759
 20
254.504396383395
 30
0.0
 11
569.9332936562768
 21
161.5043963833995
 31
0.0
  0
LINE
  5
21EC
330
1A
100
AcDbEntity
  8
1
100
AcDbLine
 10
559.9332936562759
 20
254.504396383395
 30
0.0
 11
559.933293656275
 21
161.5043963833995
 31
0.0
  0
LINE
  5
21ED
330
1A
100
AcDbEntity
  8
1
100
AcDbLine
 10
549.9332936562759
 20
254.504396383395
 30
0.0
 11
549.933293656275
 21
161.5043963833995
 31
0.0
  0
LINE
  5
21EE
330
1A
100
AcDbEntity
  8
1
100
AcDbLine
 10
644.9332936562759
 20
243.0043963833977
 30
0.0
 11
644.933293656275
 21
173.0043963833977
 31
0.0
  0
LINE
  5
21EF
330
1A
100
AcDbEntity
  8
1
100
AcDbLine
 10
598.9332936562759
 20
255.8043963833942
 30
0.0
 11
598.9332936562768
 21
160.2043963834021
 31
0.0
  0
LINE
  5
21F0
330
1A
100
AcDbEntity
  8
1
100
AcDbLine
 10
627.9332936562759
 20
243.0043963833977
 30
0.0
 11
627.9332936562759
 21
173.0043963833977
 31
0.0
  0
LINE
  5
21F1
330
1A
100
AcDbEntity
  8
1
100
AcDbLine
 10
649.9332936562759
 20
243.0043963833977
 30
0.0
 11
649.933293656275
 21
173.0043963833977
 31
0.0
  0
LINE
  5
21F2
330
1A
100
AcDbEntity
  8
1
100
AcDbLine
 10
540.9332936562759
 20
255.8043963833942
 30
0.0
 11
540.933293656275
 21
160.2043963834003
 31
0.0
  0
LINE
  5
21F3
330
1A
100
AcDbEntity
  8
1
100
AcDbLine
 10
511.9332936562759
 20
243.0043963833977
 30
0.0
 11
511.9332936562759
 21
173.0043963833977
 31
0.0
  0
LINE
  5
21F4
330
1A
100
AcDbEntity
  8
1
100
AcDbLine
 10
627.9332936562759
 20
249.0043963833977
 30
0.0
 11
627.9332936562759
 21
167.0043963833977
 31
0.0
  0
LINE
  5
21F5
330
1A
100
AcDbEntity
  8
1
100
AcDbLine
 10
511.9332936562759
 20
249.0043963833959
 30
0.0
 11
511.9332936562777
 21
167.0043963833977
 31
0.0
  0
ARC
  5
21F6
330
1A
100
AcDbEntity
  8
1
100
AcDbCircle
 10
594.933293656275
 20
157.0043963833986
 30
0.0
 40
2.0
100
AcDbArc
 50
208.3586597168879
 51
331.6413402831121
  0
LINE
  5
21F7
330
1A
100
AcDbEntity
  8
1
100
AcDbLine
 10
511.933293656275
 20
164.7043963833957
 30
0.0
 11
511.933293656275
 21
169.5043963833986
 31
0.0
  0
LINE
  5
21F8
330
1A
100
AcDbEntity
  8
1
100
AcDbLine
 10
513.9332936562759
 20
164.5043963833977
 30
0.0
 11
538.9332936562732
 21
164.5043963833959
 31
0.0
  0
ARC
  5
21F9
330
1A
100
AcDbEntity
  8
1
100
AcDbCircle
 10
538.9332936562732
 20
162.5043963833968
 30
0.0
 40
2.0
100
AcDbArc
 50
0.0
 51
90.0
  0
LINE
  5
21FA
330
1A
100
AcDbEntity
  8
1
100
AcDbLine
 10
543.1733106199289
 20
156.0544175879667
 30
0.0
 11
540.933293656275
 21
160.2043963834003
 31
0.0
  0
LINE
  5
21FB
330
1A
100
AcDbEntity
  8
1
100
AcDbLine
 10
586.693276692621
 20
156.0544175879658
 30
0.0
 11
589.4932978971882
 21
161.2418910822571
 31
0.0
  0
ARC
  5
21FC
330
1A
100
AcDbEntity
  8
1
100
AcDbCircle
 10
589.933293656275
 20
161.0043963833986
 30
0.0
 40
0.5
100
AcDbArc
 50
28.35865971688788
 51
151.6413402831121
  0
ARC
  5
21FD
330
1A
100
AcDbEntity
  8
1
100
AcDbCircle
 10
584.933293656275
 20
157.0043963833986
 30
0.0
 40
2.0
100
AcDbArc
 50
208.3586597168879
 51
331.6413402831121
  0
ARC
  5
21FE
330
1A
100
AcDbEntity
  8
1
100
AcDbCircle
 10
564.933293656275
 20
157.0043963833995
 30
0.0
 40
2.0
100
AcDbArc
 50
208.3586597168879
 51
331.6413402831121
  0
ARC
  5
21FF
330
1A
100
AcDbEntity
  8
1
100
AcDbCircle
 10
569.933293656275
 20
161.0043963833995
 30
0.0
 40
0.5
100
AcDbArc
 50
28.35865971688788
 51
151.6413402831121
  0
LINE
  5
2200
330
1A
100
AcDbEntity
  8
1
100
AcDbLine
 10
573.173310619929
 20
156.0544175879667
 30
0.0
 11
570.3732894153618
 21
161.241891082258
 31
0.0
  0
LINE
  5
2201
330
1A
100
AcDbEntity
  8
1
100
AcDbLine
 10
566.6932766926211
 20
156.0544175879667
 30
0.0
 11
569.4932978971883
 21
161.241891082258
 31
0.0
  0
LINE
  5
2202
330
1A
100
AcDbEntity
  8
1
100
AcDbLine
 10
576.6932766926211
 20
156.0544175879667
 30
0.0
 11
579.4932978971883
 21
161.241891082258
 31
0.0
  0
LINE
  5
2203
330
1A
100
AcDbEntity
  8
1
100
AcDbLine
 10
583.173310619929
 20
156.0544175879667
 30
0.0
 11
580.3732894153617
 21
161.241891082258
 31
0.0
  0
ARC
  5
2204
330
1A
100
AcDbEntity
  8
1
100
AcDbCircle
 10
579.933293656275
 20
161.0043963833995
 30
0.0
 40
0.5
100
AcDbArc
 50
28.35865971688788
 51
151.6413402831121
  0
ARC
  5
2205
330
1A
100
AcDbEntity
  8
1
100
AcDbCircle
 10
574.933293656275
 20
157.0043963833995
 30
0.0
 40
2.0
100
AcDbArc
 50
208.3586597168879
 51
331.6413402831121
  0
ARC
  5
2206
330
1A
100
AcDbEntity
  8
1
100
AcDbCircle
 10
554.933293656275
 20
157.0043963833995
 30
0.0
 40
2.0
100
AcDbArc
 50
208.3586597168879
 51
331.6413402831121
  0
ARC
  5
2207
330
1A
100
AcDbEntity
  8
1
100
AcDbCircle
 10
559.933293656275
 20
161.0043963833995
 30
0.0
 40
0.5
100
AcDbArc
 50
28.35865971688788
 51
151.6413402831121
  0
LINE
  5
2208
330
1A
100
AcDbEntity
  8
1
100
AcDbLine
 10
563.1733106199289
 20
156.0544175879667
 30
0.0
 11
560.3732894153617
 21
161.241891082258
 31
0.0
  0
LINE
  5
2209
330
1A
100
AcDbEntity
  8
1
100
AcDbLine
 10
556.693276692621
 20
156.0544175879667
 30
0.0
 11
559.4932978971883
 21
161.241891082258
 31
0.0
  0
LINE
  5
220A
330
1A
100
AcDbEntity
  8
1
100
AcDbLine
 10
546.6932766926211
 20
156.0544175879667
 30
0.0
 11
549.4932978971883
 21
161.241891082258
 31
0.0
  0
LINE
  5
220B
330
1A
100
AcDbEntity
  8
1
100
AcDbLine
 10
553.173310619929
 20
156.0544175879667
 30
0.0
 11
550.3732894153618
 21
161.241891082258
 31
0.0
  0
ARC
  5
220C
330
1A
100
AcDbEntity
  8
1
100
AcDbCircle
 10
549.933293656275
 20
161.0043963833995
 30
0.0
 40
0.5
100
AcDbArc
 50
28.35865971688788
 51
151.6413402831121
  0
ARC
  5
220D
330
1A
100
AcDbEntity
  8
1
100
AcDbCircle
 10
544.933293656275
 20
157.0043963833995
 30
0.0
 40
2.0
100
AcDbArc
 50
208.3586597168879
 51
331.6413402831121
  0
LINE
  5
220E
330
1A
100
AcDbEntity
  8
1
100
AcDbLine
 10
593.1733106199289
 20
156.0544175879658
 30
0.0
 11
590.3732894153618
 21
161.2418910822571
 31
0.0
  0
LINE
  5
220F
330
1A
100
AcDbEntity
  8
1
100
AcDbLine
 10
508.9332936562768
 20
167.0043963833959
 30
0.0
 11
508.9332936562759
 21
164.7043963833939
 31
0.0
  0
LINE
  5
2210
330
1A
100
AcDbEntity
  8
1
100
AcDbLine
 10
513.9332936562759
 20
164.7043963833957
 30
0.0
 11
513.9332936562759
 21
142.7043963833957
 31
0.0
  0
ARC
  5
2211
330
1A
100
AcDbEntity
  8
1
100
AcDbCircle
 10
600.9332936562786
 20
162.5043963833968
 30
0.0
 40
2.0
100
AcDbArc
 50
90.0
 51
180.0
  0
LINE
  5
2212
330
1A
100
AcDbEntity
  8
1
100
AcDbLine
 10
627.9332936562768
 20
164.5043963833977
 30
0.0
 11
600.9332936562786
 21
164.5043963833959
 31
0.0
  0
LINE
  5
2213
330
1A
100
AcDbEntity
  8
1
100
AcDbLine
 10
627.9332936562768
 20
164.5043963833977
 30
0.0
 11
627.9332936562768
 21
169.5043963833986
 31
0.0
  0
LINE
  5
2214
330
1A
100
AcDbEntity
  8
1
100
AcDbLine
 10
649.933293656275
 20
173.0043963833977
 30
0.0
 11
627.9332936562751
 21
173.0043963833977
 31
0.0
  0
LINE
  5
2215
330
1A
100
AcDbEntity
  8
1
100
AcDbLine
 10
596.6932766926211
 20
156.0544175879658
 30
0.0
 11
598.9332936562768
 21
160.2043963834021
 31
0.0
  0
ARC
  5
2216
330
1A
100
AcDbEntity
  8
1
100
AcDbCircle
 10
594.9332936562777
 20
381.9848173515893
 30
0.0
 40
2.0
100
AcDbArc
 50
208.3586597168879
 51
331.6413402831121
  0
ARC
  5
2217
330
1A
100
AcDbEntity
  8
1
100
AcDbCircle
 10
594.9332936562759
 20
259.004396383395
 30
0.0
 40
2.0
100
AcDbArc
 50
28.35865971688788
 51
151.6413402831121
  0
ARC
  5
2218
330
1A
100
AcDbEntity
  8
1
100
AcDbCircle
 10
544.9332936562777
 20
381.9848173515893
 30
0.0
 40
2.0
100
AcDbArc
 50
208.3586597168879
 51
331.6413402831121
  0
ARC
  5
2219
330
1A
100
AcDbEntity
  8
1
100
AcDbCircle
 10
549.9332936562778
 20
385.9848173515893
 30
0.0
 40
0.5
100
AcDbArc
 50
28.35865971688788
 51
151.6413402831121
  0
LINE
  5
221A
330
1A
100
AcDbEntity
  8
1
100
AcDbLine
 10
553.1733106199317
 20
381.0348385561565
 30
0.0
 11
550.3732894153645
 21
386.2223120504477
 31
0.0
  0
LINE
  5
221B
330
1A
100
AcDbEntity
  8
1
100
AcDbLine
 10
546.6932766926238
 20
381.0348385561565
 30
0.0
 11
549.493297897191
 21
386.2223120504477
 31
0.0
  0
LINE
  5
221C
330
1A
100
AcDbEntity
  8
1
100
AcDbLine
 10
556.6932766926238
 20
381.0348385561565
 30
0.0
 11
559.493297897191
 21
386.2223120504477
 31
0.0
  0
LINE
  5
221D
330
1A
100
AcDbEntity
  8
1
100
AcDbLine
 10
563.1733106199317
 20
381.0348385561565
 30
0.0
 11
560.3732894153645
 21
386.2223120504477
 31
0.0
  0
ARC
  5
221E
330
1A
100
AcDbEntity
  8
1
100
AcDbCircle
 10
559.9332936562777
 20
385.9848173515893
 30
0.0
 40
0.5
100
AcDbArc
 50
28.35865971688788
 51
151.6413402831121
  0
ARC
  5
221F
330
1A
100
AcDbEntity
  8
1
100
AcDbCircle
 10
554.9332936562778
 20
381.9848173515893
 30
0.0
 40
2.0
100
AcDbArc
 50
208.3586597168879
 51
331.6413402831121
  0
ARC
  5
2220
330
1A
100
AcDbEntity
  8
1
100
AcDbCircle
 10
574.9332936562778
 20
381.9848173515893
 30
0.0
 40
2.0
100
AcDbArc
 50
208.3586597168879
 51
331.6413402831121
  0
ARC
  5
2221
330
1A
100
AcDbEntity
  8
1
100
AcDbCircle
 10
579.9332936562778
 20
385.9848173515893
 30
0.0
 40
0.5
100
AcDbArc
 50
28.35865971688788
 51
151.6413402831121
  0
LINE
  5
2222
330
1A
100
AcDbEntity
  8
1
100
AcDbLine
 10
583.1733106199317
 20
381.0348385561565
 30
0.0
 11
580.3732894153645
 21
386.2223120504477
 31
0.0
  0
LINE
  5
2223
330
1A
100
AcDbEntity
  8
1
100
AcDbLine
 10
576.6932766926238
 20
381.0348385561565
 30
0.0
 11
579.493297897191
 21
386.2223120504477
 31
0.0
  0
LINE
  5
2224
330
1A
100
AcDbEntity
  8
1
100
AcDbLine
 10
566.6932766926238
 20
381.0348385561565
 30
0.0
 11
569.493297897191
 21
386.2223120504477
 31
0.0
  0
LINE
  5
2225
330
1A
100
AcDbEntity
  8
1
100
AcDbLine
 10
573.1733106199317
 20
381.0348385561565
 30
0.0
 11
570.3732894153644
 21
386.2223120504477
 31
0.0
  0
ARC
  5
2226
330
1A
100
AcDbEntity
  8
1
100
AcDbCircle
 10
569.9332936562777
 20
385.9848173515893
 30
0.0
 40
0.5
100
AcDbArc
 50
28.35865971688788
 51
151.6413402831121
  0
ARC
  5
2227
330
1A
100
AcDbEntity
  8
1
100
AcDbCircle
 10
564.9332936562777
 20
381.9848173515893
 30
0.0
 40
2.0
100
AcDbArc
 50
208.3586597168879
 51
331.6413402831121
  0
ARC
  5
2228
330
1A
100
AcDbEntity
  8
1
100
AcDbCircle
 10
584.9332936562777
 20
381.9848173515893
 30
0.0
 40
2.0
100
AcDbArc
 50
208.3586597168879
 51
331.6413402831121
  0
ARC
  5
2229
330
1A
100
AcDbEntity
  8
1
100
AcDbCircle
 10
589.9332936562777
 20
385.9848173515893
 30
0.0
 40
0.5
100
AcDbArc
 50
28.35865971688788
 51
151.6413402831121
  0
LINE
  5
222A
330
1A
100
AcDbEntity
  8
1
100
AcDbLine
 10
586.6932766926238
 20
381.0348385561565
 30
0.0
 11
589.493297897191
 21
386.2223120504477
 31
0.0
  0
LINE
  5
222B
330
1A
100
AcDbEntity
  8
1
100
AcDbLine
 10
543.1733106199317
 20
381.0348385561565
 30
0.0
 11
540.9332936562777
 21
385.18481735159
 31
0.0
  0
LINE
  5
222C
330
1A
100
AcDbEntity
  8
1
100
AcDbLine
 10
593.1733106199317
 20
381.0348385561565
 30
0.0
 11
590.3732894153645
 21
386.2223120504477
 31
0.0
  0
ARC
  5
222D
330
1A
100
AcDbEntity
  8
1
100
AcDbCircle
 10
538.9332936562741
 20
253.5043963833977
 30
0.0
 40
2.0
100
AcDbArc
 50
270.0
 51
0.0
  0
LINE
  5
222E
330
1A
100
AcDbEntity
  8
1
100
AcDbLine
 10
586.693276692622
 20
259.9543751788278
 30
0.0
 11
589.4932978971892
 21
254.7669016845365
 31
0.0
  0
LINE
  5
222F
330
1A
100
AcDbEntity
  8
1
100
AcDbLine
 10
593.1733106199299
 20
259.9543751788278
 30
0.0
 11
590.3732894153627
 21
254.7669016845365
 31
0.0
  0
ARC
  5
2230
330
1A
100
AcDbEntity
  8
1
100
AcDbCircle
 10
589.933293656276
 20
255.004396383395
 30
0.0
 40
0.5
100
AcDbArc
 50
208.3586597168879
 51
331.6413402831121
  0
ARC
  5
2231
330
1A
100
AcDbEntity
  8
1
100
AcDbCircle
 10
584.9332936562759
 20
259.004396383395
 30
0.0
 40
2.0
100
AcDbArc
 50
28.35865971688788
 51
151.6413402831121
  0
ARC
  5
2232
330
1A
100
AcDbEntity
  8
1
100
AcDbCircle
 10
564.933293656276
 20
259.004396383395
 30
0.0
 40
2.0
100
AcDbArc
 50
28.35865971688788
 51
151.6413402831121
  0
ARC
  5
2233
330
1A
100
AcDbEntity
  8
1
100
AcDbCircle
 10
569.9332936562759
 20
255.004396383395
 30
0.0
 40
0.5
100
AcDbArc
 50
208.3586597168879
 51
331.6413402831121
  0
LINE
  5
2234
330
1A
100
AcDbEntity
  8
1
100
AcDbLine
 10
573.1733106199299
 20
259.9543751788278
 30
0.0
 11
570.3732894153627
 21
254.7669016845365
 31
0.0
  0
LINE
  5
2235
330
1A
100
AcDbEntity
  8
1
100
AcDbLine
 10
566.693276692622
 20
259.9543751788278
 30
0.0
 11
569.4932978971892
 21
254.7669016845365
 31
0.0
  0
LINE
  5
2236
330
1A
100
AcDbEntity
  8
1
100
AcDbLine
 10
576.693276692622
 20
259.9543751788278
 30
0.0
 11
579.4932978971892
 21
254.7669016845365
 31
0.0
  0
LINE
  5
2237
330
1A
100
AcDbEntity
  8
1
100
AcDbLine
 10
583.1733106199298
 20
259.9543751788278
 30
0.0
 11
580.3732894153626
 21
254.7669016845365
 31
0.0
  0
ARC
  5
2238
330
1A
100
AcDbEntity
  8
1
100
AcDbCircle
 10
579.9332936562759
 20
255.004396383395
 30
0.0
 40
0.5
100
AcDbArc
 50
208.3586597168879
 51
331.6413402831121
  0
ARC
  5
2239
330
1A
100
AcDbEntity
  8
1
100
AcDbCircle
 10
574.9332936562759
 20
259.004396383395
 30
0.0
 40
2.0
100
AcDbArc
 50
28.35865971688788
 51
151.6413402831121
  0
ARC
  5
223A
330
1A
100
AcDbEntity
  8
1
100
AcDbCircle
 10
554.9332936562759
 20
259.004396383395
 30
0.0
 40
2.0
100
AcDbArc
 50
28.35865971688788
 51
151.6413402831121
  0
ARC
  5
223B
330
1A
100
AcDbEntity
  8
1
100
AcDbCircle
 10
559.9332936562759
 20
255.004396383395
 30
0.0
 40
0.5
100
AcDbArc
 50
208.3586597168879
 51
331.6413402831121
  0
LINE
  5
223C
330
1A
100
AcDbEntity
  8
1
100
AcDbLine
 10
563.1733106199298
 20
259.9543751788278
 30
0.0
 11
560.3732894153627
 21
254.7669016845365
 31
0.0
  0
LINE
  5
223D
330
1A
100
AcDbEntity
  8
1
100
AcDbLine
 10
556.693276692622
 20
259.9543751788278
 30
0.0
 11
559.4932978971892
 21
254.7669016845365
 31
0.0
  0
LINE
  5
223E
330
1A
100
AcDbEntity
  8
1
100
AcDbLine
 10
553.1733106199299
 20
259.9543751788278
 30
0.0
 11
550.3732894153626
 21
254.7669016845365
 31
0.0
  0
LINE
  5
223F
330
1A
100
AcDbEntity
  8
1
100
AcDbLine
 10
546.693276692622
 20
259.9543751788278
 30
0.0
 11
549.4932978971892
 21
254.7669016845365
 31
0.0
  0
LINE
  5
2240
330
1A
100
AcDbEntity
  8
1
100
AcDbLine
 10
543.1733106199299
 20
259.9543751788278
 30
0.0
 11
540.9332936562759
 21
255.8043963833942
 31
0.0
  0
ARC
  5
2241
330
1A
100
AcDbEntity
  8
1
100
AcDbCircle
 10
549.9332936562759
 20
255.004396383395
 30
0.0
 40
0.5
100
AcDbArc
 50
208.3586597168879
 51
331.6413402831121
  0
ARC
  5
2242
330
1A
100
AcDbEntity
  8
1
100
AcDbCircle
 10
544.9332936562759
 20
259.004396383395
 30
0.0
 40
2.0
100
AcDbArc
 50
28.35865971688788
 51
151.6413402831121
  0
LINE
  5
2243
330
1A
100
AcDbEntity
  8
1
100
AcDbLine
 10
511.9332936562759
 20
251.5043963833977
 30
0.0
 11
511.9332936562759
 21
246.5043963833968
 31
0.0
  0
LINE
  5
2244
330
1A
100
AcDbEntity
  8
1
100
AcDbLine
 10
511.9332936562759
 20
251.5043963833977
 30
0.0
 11
538.9332936562741
 21
251.5043963833977
 31
0.0
  0
LINE
  5
2245
330
1A
100
AcDbEntity
  8
1
100
AcDbLine
 10
627.9332936562759
 20
251.3043963833961
 30
0.0
 11
627.9332936562759
 21
246.5043963833968
 31
0.0
  0
LINE
  5
2246
330
1A
100
AcDbEntity
  8
1
100
AcDbLine
 10
625.9332936562759
 20
251.5043963833977
 30
0.0
 11
600.9332936562778
 21
251.5043963833977
 31
0.0
  0
ARC
  5
2247
330
1A
100
AcDbEntity
  8
1
100
AcDbCircle
 10
600.9332936562778
 20
253.5043963833977
 30
0.0
 40
2.0
100
AcDbArc
 50
180.0
 51
270.0
  0
LINE
  5
2248
330
1A
100
AcDbEntity
  8
1
100
AcDbLine
 10
649.9332936562759
 20
243.0043963833977
 30
0.0
 11
627.9332936562768
 21
243.0043963833977
 31
0.0
  0
LINE
  5
2249
330
1A
100
AcDbEntity
  8
1
100
AcDbLine
 10
596.6932766926238
 20
381.0348385561565
 30
0.0
 11
598.9332936562751
 21
385.1848173515845
 31
0.0
  0
LINE
  5
224A
330
1A
100
AcDbEntity
  8
1
100
AcDbLine
 10
596.693276692622
 20
259.9543751788278
 30
0.0
 11
598.9332936562759
 21
255.8043963833942
 31
0.0
  0
LINE
  5
224B
330
1A
100
AcDbEntity
  8
1
100
AcDbLine
 10
670.9332936562759
 20
251.3043963833961
 30
0.0
 11
670.9332936562759
 21
249.0043963833977
 31
0.0
  0
LINE
  5
224C
330
1A
100
AcDbEntity
  8
1
100
AcDbLine
 10
654.9332936562759
 20
251.3043963833961
 30
0.0
 11
654.9332936562759
 21
249.0043963833977
 31
0.0
  0
LINE
  5
224D
330
1A
100
AcDbEntity
  8
1
100
AcDbLine
 10
630.933293656276
 20
251.3043963833961
 30
0.0
 11
630.933293656276
 21
249.0043963833977
 31
0.0
  0
LINE
  5
224E
330
1A
100
AcDbEntity
  8
1
100
AcDbLine
 10
625.9332936562759
 20
273.3043963833961
 30
0.0
 11
625.9332936562759
 21
251.3043963833961
 31
0.0
  0
CIRCLE
  5
224F
330
1A
100
AcDbEntity
  8
1
100
AcDbCircle
 10
682.9332936562759
 20
376.9848173515883
 30
0.0
 40
5.049999999999999
  0
CIRCLE
  5
2250
330
1A
100
AcDbEntity
  8
1
100
AcDbCircle
 10
642.9332936562759
 20
376.9848173515875
 30
0.0
 40
5.049999999999999
  0
CIRCLE
  5
2251
330
1A
100
AcDbEntity
  8
1
 62
     9
100
AcDbCircle
 10
682.9332936562759
 20
376.9848173515883
 30
0.0
 40
6.0
  0
CIRCLE
  5
2252
330
1A
100
AcDbEntity
  8
1
 62
     9
100
AcDbCircle
 10
642.9332936562759
 20
376.9848173515875
 30
0.0
 40
6.0
  0
LINE
  5
2257
330
1A
100
AcDbEntity
  8
1
100
AcDbLine
 10
494.9332936562723
 20
486.0848173515924
 30
0.0
 11
511.9332936562759
 21
486.0848173515915
 31
0.0
  0
LINE
  5
2258
330
1A
100
AcDbEntity
  8
1
100
AcDbLine
 10
489.933293656276
 20
473.9848173515883
 30
0.0
 11
511.9332936562759
 21
473.9848173515883
 31
0.0
  0
LINE
  5
2259
330
1A
100
AcDbEntity
  8
1
100
AcDbLine
 10
489.933293656275
 20
474.0848173515906
 30
0.0
 11
511.9332936562759
 21
474.0848173515906
 31
0.0
  0
LINE
  5
225A
330
1A
100
AcDbEntity
  8
1
100
AcDbLine
 10
489.933293656276
 20
403.9848173515883
 30
0.0
 11
511.9332936562759
 21
403.9848173515883
 31
0.0
  0
LINE
  5
225B
330
1A
100
AcDbEntity
  8
1
100
AcDbLine
 10
494.9332936562741
 20
391.8848173515834
 30
0.0
 11
511.9332936562759
 21
391.8848173515852
 31
0.0
  0
LINE
  5
225C
330
1A
100
AcDbEntity
  8
1
100
AcDbLine
 10
489.933293656275
 20
403.8848173515871
 30
0.0
 11
511.9332936562759
 21
403.8848173515861
 31
0.0
  0
LINE
  5
225D
330
1A
100
AcDbEntity
  8
1
100
AcDbLine
 10
413.9332936562759
 20
513.9848173515875
 30
0.0
 11
513.9332936562759
 21
513.9848173515884
 31
0.0
  0
LINE
  5
225E
330
1A
100
AcDbEntity
  8
1
100
AcDbLine
 10
444.9332936562759
 20
473.9848173515883
 30
0.0
 11
511.9332936562759
 21
473.9848173515883
 31
0.0
  0
LINE
  5
225F
330
1A
100
AcDbEntity
  8
1
100
AcDbLine
 10
444.9332936562759
 20
403.9848173515883
 30
0.0
 11
511.9332936562759
 21
403.9848173515865
 31
0.0
  0
LINE
  5
2261
330
1A
100
AcDbEntity
  8
1
100
AcDbLine
 10
369.8152356701075
 20
453.2526442280068
 30
0.0
 11
409.4152356701078
 21
453.2526442280068
 31
0.0
  0
LINE
  5
2262
330
1A
100
AcDbEntity
  8
1
100
AcDbLine
 10
369.3925859392929
 20
456.9848173515874
 30
0.0
 11
409.8378854009233
 21
456.9848173515874
 31
0.0
  0
LINE
  5
2263
330
1A
100
AcDbEntity
  8
1
100
AcDbLine
 10
369.8152356701075
 20
442.7169904751727
 30
0.0
 11
409.4152356701078
 21
442.7169904751727
 31
0.0
  0
LINE
  5
2264
330
1A
100
AcDbEntity
  8
1
100
AcDbLine
 10
369.8152356701075
 20
453.2526442280068
 30
0.0
 11
409.4152356701078
 21
453.2526442280068
 31
0.0
  0
LINE
  5
2265
330
1A
100
AcDbEntity
  8
1
100
AcDbLine
 10
369.8152356701075
 20
424.716990475169
 30
0.0
 11
409.4152356701078
 21
424.716990475169
 31
0.0
  0
LINE
  5
2266
330
1A
100
AcDbEntity
  8
1
100
AcDbLine
 10
409.8378854009196
 20
420.9848173515874
 30
0.0
 11
369.3925859392984
 21
420.9848173515874
 31
0.0
  0
LINE
  5
2267
330
1A
100
AcDbEntity
  8
1
100
AcDbLine
 10
369.8152356701075
 20
424.716990475169
 30
0.0
 11
409.4152356701078
 21
424.716990475169
 31
0.0
  0
LINE
  5
2268
330
1A
100
AcDbEntity
  8
1
100
AcDbLine
 10
369.8152356701075
 20
435.2526442280058
 30
0.0
 11
409.4152356701078
 21
435.2526442280058
 31
0.0
  0
LINE
  5
226A
330
1A
100
AcDbEntity
  8
1
100
AcDbLine
 10
368.4152356701078
 20
426.9848173515875
 30
0.0
 11
368.4152356701088
 21
425.7348173515892
 31
0.0
  0
LINE
  5
226B
330
1A
100
AcDbEntity
  8
1
100
AcDbLine
 10
358.9152356701079
 20
450.9848173515884
 30
0.0
 11
368.4152356701078
 21
450.9848173515884
 31
0.0
  0
LINE
  5
226C
330
1A
100
AcDbEntity
  8
1
100
AcDbLine
 10
358.9152356701079
 20
426.9848173515883
 30
0.0
 11
368.4152356701078
 21
426.9848173515883
 31
0.0
  0
LINE
  5
226D
330
1A
100
AcDbEntity
  8
1
100
AcDbLine
 10
325.781968147272
 20
435.4848173515883
 30
0.0
 11
358.9152356701079
 21
435.4848173515883
 31
0.0
  0
LINE
  5
226E
330
1A
100
AcDbEntity
  8
1
100
AcDbLine
 10
322.99005924024
 20
442.4848173515884
 30
0.0
 11
358.9152356701079
 21
442.4848173515884
 31
0.0
  0
LINE
  5
226F
330
1A
100
AcDbEntity
  8
1
100
AcDbLine
 10
369.8152356701075
 20
453.2526442280068
 30
0.0
 11
369.8152356701075
 21
456.9848173515874
 31
0.0
  0
LINE
  5
2270
330
1A
100
AcDbEntity
  8
1
100
AcDbLine
 10
368.8152356701066
 20
455.9848173515875
 30
0.0
 11
369.3925859392957
 21
456.9848173515874
 31
0.0
  0
LINE
  5
2271
330
1A
100
AcDbEntity
  8
1
100
AcDbLine
 10
369.8152356701075
 20
420.9848173515874
 30
0.0
 11
369.8152356701075
 21
424.716990475169
 31
0.0
  0
LINE
  5
2272
330
1A
100
AcDbEntity
  8
1
100
AcDbLine
 10
368.8152356701093
 20
421.9848173515865
 30
0.0
 11
369.3925859392984
 21
420.9848173515874
 31
0.0
  0
LINE
  5
2273
330
1A
100
AcDbEntity
  8
1
100
AcDbLine
 10
368.8152356701084
 20
421.9848173515875
 30
0.0
 11
368.8152356701066
 21
455.9848173515875
 31
0.0
  0
LINE
  5
2274
330
1A
100
AcDbEntity
  8
1
100
AcDbLine
 10
369.8152356701075
 20
435.2526442280058
 30
0.0
 11
369.8152356701075
 21
442.7169904751735
 31
0.0
  0
LINE
  5
2275
330
1A
100
AcDbEntity
  8
1
100
AcDbLine
 10
358.9152356701079
 20
426.9848173515883
 30
0.0
 11
358.9152356701079
 21
450.9848173515884
 31
0.0
  0
LINE
  5
2276
330
1A
100
AcDbEntity
  8
1
100
AcDbLine
 10
368.4152356701078
 20
452.2348173515884
 30
0.0
 11
368.4152356701088
 21
450.9848173515875
 31
0.0
  0
LINE
  5
2277
330
1A
100
AcDbEntity
  8
1
100
AcDbLine
 10
368.4152356701078
 20
452.2348173515884
 30
0.0
 11
368.8152356701066
 21
452.2348173515884
 31
0.0
  0
LINE
  5
2278
330
1A
100
AcDbEntity
  8
1
100
AcDbLine
 10
368.4152356701088
 20
425.7348173515883
 30
0.0
 11
368.8152356701084
 21
425.7348173515883
 31
0.0
  0
LINE
  5
227B
330
1A
100
AcDbEntity
  8
1
100
AcDbLine
 10
428.933293656275
 20
424.7169904751708
 30
0.0
 11
444.9332936562759
 21
424.7169904751717
 31
0.0
  0
LINE
  5
227C
330
1A
100
AcDbEntity
  8
1
100
AcDbLine
 10
428.9332936562759
 20
435.2526442280095
 30
0.0
 11
444.9332936562759
 21
435.2526442280086
 31
0.0
  0
LINE
  5
227D
330
1A
100
AcDbEntity
  8
1
100
AcDbLine
 10
428.933293656275
 20
442.7169904751599
 30
0.0
 11
444.9332936562759
 21
442.716990475159
 31
0.0
  0
LINE
  5
227E
330
1A
100
AcDbEntity
  8
1
100
AcDbLine
 10
428.933293656275
 20
453.2526442280214
 30
0.0
 11
444.9332936562759
 21
453.2526442280214
 31
0.0
  0
LINE
  5
227F
330
1A
100
AcDbEntity
  8
1
100
AcDbLine
 10
425.8152356701084
 20
456.9848173515892
 30
0.0
 11
425.8152356701084
 21
420.9848173515893
 31
0.0
  0
LINE
  5
2280
330
1A
100
AcDbEntity
  8
1
100
AcDbLine
 10
425.8152356701084
 20
420.9848173515893
 30
0.0
 11
428.9332936562759
 21
420.9848173515893
 31
0.0
  0
LINE
  5
2281
330
1A
100
AcDbEntity
  8
1
100
AcDbLine
 10
425.8152356701084
 20
456.9848173515892
 30
0.0
 11
428.9332936562759
 21
456.9848173515892
 31
0.0
  0
LINE
  5
2282
330
1A
100
AcDbEntity
  8
1
100
AcDbLine
 10
409.4152356701078
 20
453.2526442280068
 30
0.0
 11
409.4152356701078
 21
456.9848173515874
 31
0.0
  0
LINE
  5
2283
330
1A
100
AcDbEntity
  8
1
100
AcDbLine
 10
410.4152356701106
 20
455.9848173515875
 30
0.0
 11
409.8378854009215
 21
456.9848173515874
 31
0.0
  0
LINE
  5
2284
330
1A
100
AcDbEntity
  8
1
100
AcDbLine
 10
409.4152356701097
 20
453.2526442280068
 30
0.0
 11
409.4152356701097
 21
456.9848173515874
 31
0.0
  0
LINE
  5
2285
330
1A
100
AcDbEntity
  8
1
100
AcDbLine
 10
409.4152356701078
 20
420.9848173515874
 30
0.0
 11
409.4152356701078
 21
424.716990475169
 31
0.0
  0
LINE
  5
2286
330
1A
100
AcDbEntity
  8
1
100
AcDbLine
 10
410.4152356701079
 20
421.9848173515865
 30
0.0
 11
409.8378854009188
 21
420.9848173515874
 31
0.0
  0
LINE
  5
2287
330
1A
100
AcDbEntity
  8
1
100
AcDbLine
 10
409.4152356701097
 20
420.9848173515874
 30
0.0
 11
409.4152356701097
 21
424.716990475169
 31
0.0
  0
LINE
  5
2288
330
1A
100
AcDbEntity
  8
1
100
AcDbLine
 10
410.4152356701079
 20
455.9848173515875
 30
0.0
 11
410.4152356701079
 21
421.9848173515875
 31
0.0
  0
LINE
  5
2289
330
1A
100
AcDbEntity
  8
1
100
AcDbLine
 10
409.4152356701078
 20
435.2526442280058
 30
0.0
 11
409.4152356701078
 21
442.7169904751727
 31
0.0
  0
LINE
  5
228A
330
1A
100
AcDbEntity
  8
1
100
AcDbLine
 10
410.4152356701088
 20
421.9848173515875
 30
0.0
 11
410.4152356701106
 21
455.9848173515875
 31
0.0
  0
LINE
  5
228B
330
1A
100
AcDbEntity
  8
1
100
AcDbLine
 10
409.4152356701097
 20
435.2526442280058
 30
0.0
 11
409.4152356701097
 21
442.7169904751735
 31
0.0
  0
LINE
  5
228C
330
1A
100
AcDbEntity
  8
1
100
AcDbLine
 10
444.9332936562759
 20
419.9848173515874
 30
0.0
 11
428.9332936562759
 21
419.9848173515883
 31
0.0
  0
LINE
  5
228D
330
1A
100
AcDbEntity
  8
1
100
AcDbLine
 10
444.9332936562759
 20
457.9848173515874
 30
0.0
 11
428.933293656275
 21
457.9848173515893
 31
0.0
  0
LINE
  5
228E
330
1A
100
AcDbEntity
  8
1
100
AcDbLine
 10
444.9332936562759
 20
419.9848173515865
 30
0.0
 11
444.9332936562759
 21
457.9848173515874
 31
0.0
  0
LINE
  5
228F
330
1A
100
AcDbEntity
  8
1
100
AcDbLine
 10
428.9332936562759
 20
419.9848173515893
 30
0.0
 11
428.9332936562759
 21
457.9848173515883
 31
0.0
  0
LINE
  5
2290
330
1A
100
AcDbEntity
  8
1
100
AcDbLine
 10
489.9332936562741
 20
396.8848173515834
 30
0.0
 11
494.9332936562741
 21
391.8848173515834
 31
0.0
  0
LINE
  5
2291
330
1A
100
AcDbEntity
  8
1
100
AcDbLine
 10
489.9332936562732
 20
481.0848173515924
 30
0.0
 11
494.9332936562723
 21
486.0848173515924
 31
0.0
  0
LINE
  5
2292
330
1A
100
AcDbEntity
  8
1
100
AcDbLine
 10
489.933293656276
 20
403.8848173515871
 30
0.0
 11
489.933293656276
 21
403.9848173515883
 31
0.0
  0
LINE
  5
2293
330
1A
100
AcDbEntity
  8
1
100
AcDbLine
 10
489.933293656276
 20
474.1148173515902
 30
0.0
 11
489.933293656276
 21
473.9848173515883
 31
0.0
  0
LINE
  5
2294
330
1A
100
AcDbEntity
  8
1
100
AcDbLine
 10
489.9332936562732
 20
481.0848173515924
 30
0.0
 11
489.933293656276
 21
474.1148173515902
 31
0.0
  0
LINE
  5
2295
330
1A
100
AcDbEntity
  8
1
100
AcDbLine
 10
489.9332936562741
 20
396.8848173515834
 30
0.0
 11
489.933293656276
 21
403.8848173515871
 31
0.0
  0
LINE
  5
2296
330
1A
100
AcDbEntity
  8
1
100
AcDbLine
 10
416.8152356701075
 20
442.716990475159
 30
0.0
 11
424.8152356701075
 21
442.716990475159
 31
0.0
  0
LINE
  5
2297
330
1A
100
AcDbEntity
  8
1
100
AcDbLine
 10
416.8152356701075
 20
453.2526442280222
 30
0.0
 11
424.8152356701075
 21
453.2526442280214
 31
0.0
  0
LINE
  5
2298
330
1A
100
AcDbEntity
  8
1
100
AcDbLine
 10
416.8152356701075
 20
456.9848173515892
 30
0.0
 11
424.8152356701075
 21
456.9848173515892
 31
0.0
  0
LINE
  5
2299
330
1A
100
AcDbEntity
  8
1
100
AcDbLine
 10
415.8152356701075
 20
455.4848173515884
 30
0.0
 11
416.8152356701075
 21
456.9848173515892
 31
0.0
  0
LINE
  5
229A
330
1A
100
AcDbEntity
  8
1
100
AcDbLine
 10
425.8152356701084
 20
455.4848173515884
 30
0.0
 11
424.8152356701075
 21
456.9848173515892
 31
0.0
  0
LINE
  5
229B
330
1A
100
AcDbEntity
  8
1
100
AcDbLine
 10
424.8152356701075
 20
456.9848173515892
 30
0.0
 11
424.8152356701075
 21
453.2526442280214
 31
0.0
  0
LINE
  5
229C
330
1A
100
AcDbEntity
  8
1
100
AcDbLine
 10
416.8152356701075
 20
453.2526442280222
 30
0.0
 11
416.8152356701075
 21
456.9848173515892
 31
0.0
  0
LINE
  5
229D
330
1A
100
AcDbEntity
  8
1
100
AcDbLine
 10
410.4152356701079
 20
455.4848173515884
 30
0.0
 11
415.8152356701075
 21
455.4848173515884
 31
0.0
  0
LINE
  5
229E
330
1A
100
AcDbEntity
  8
1
100
AcDbLine
 10
416.8152356701075
 20
424.7169904751708
 30
0.0
 11
424.8152356701075
 21
424.7169904751717
 31
0.0
  0
LINE
  5
229F
330
1A
100
AcDbEntity
  8
1
100
AcDbLine
 10
416.8152356701075
 20
435.2526442280086
 30
0.0
 11
424.8152356701075
 21
435.2526442280086
 31
0.0
  0
LINE
  5
22A0
330
1A
100
AcDbEntity
  8
1
100
AcDbLine
 10
416.8152356701075
 20
420.9848173515893
 30
0.0
 11
424.8152356701075
 21
420.9848173515893
 31
0.0
  0
LINE
  5
22A1
330
1A
100
AcDbEntity
  8
1
100
AcDbLine
 10
415.8152356701075
 20
422.4848173515884
 30
0.0
 11
416.8152356701075
 21
420.9848173515893
 31
0.0
  0
LINE
  5
22A2
330
1A
100
AcDbEntity
  8
1
100
AcDbLine
 10
416.8152356701075
 20
420.9848173515893
 30
0.0
 11
416.8152356701075
 21
424.7169904751708
 31
0.0
  0
LINE
  5
22A3
330
1A
100
AcDbEntity
  8
1
100
AcDbLine
 10
424.8152356701075
 20
420.9848173515893
 30
0.0
 11
425.8152356701075
 21
422.4848173515884
 31
0.0
  0
LINE
  5
22A4
330
1A
100
AcDbEntity
  8
1
100
AcDbLine
 10
424.8152356701066
 20
424.7169904751717
 30
0.0
 11
424.8152356701075
 21
420.9848173515893
 31
0.0
  0
LINE
  5
22A5
330
1A
100
AcDbEntity
  8
1
100
AcDbLine
 10
410.4152356701079
 20
422.4848173515884
 30
0.0
 11
415.8152356701075
 21
422.4848173515884
 31
0.0
  0
LINE
  5
22A6
330
1A
100
AcDbEntity
  8
1
100
AcDbLine
 10
410.4152356701079
 20
423.9848173515883
 30
0.0
 11
410.4152356701079
 21
453.9848173515884
 31
0.0
  0
LINE
  5
22A7
330
1A
100
AcDbEntity
  8
1
100
AcDbLine
 10
415.8152356701075
 20
422.4848173515884
 30
0.0
 11
415.8152356701075
 21
455.4848173515884
 31
0.0
  0
LINE
  5
22A8
330
1A
100
AcDbEntity
  8
1
100
AcDbLine
 10
425.8152356701075
 20
422.4848173515884
 30
0.0
 11
425.8152356701084
 21
455.4848173515884
 31
0.0
  0
LINE
  5
22A9
330
1A
100
AcDbEntity
  8
1
100
AcDbLine
 10
424.8152356701075
 20
442.716990475159
 30
0.0
 11
424.8152356701066
 21
435.2526442280086
 31
0.0
  0
LINE
  5
22AA
330
1A
100
AcDbEntity
  8
1
100
AcDbLine
 10
416.8152356701075
 20
435.2526442280086
 30
0.0
 11
416.8152356701075
 21
442.7169904751599
 31
0.0
  0
CIRCLE
  5
22AB
330
1A
100
AcDbEntity
  8
1
100
AcDbCircle
 10
477.9332936562759
 20
500.9848173515884
 30
0.0
 40
6.5
  0
CIRCLE
  5
22AC
330
1A
100
AcDbEntity
  8
1
100
AcDbCircle
 10
437.9332936562759
 20
500.9848173515884
 30
0.0
 40
6.5
  0
LINE
  5
22AD
330
1A
100
AcDbEntity
  8
1
100
AcDbLine
 10
413.9332936562759
 20
513.9848173515884
 30
0.0
 11
413.9332936562759
 21
455.4848173515875
 31
0.0
  0
LINE
  5
22AE
330
1A
100
AcDbEntity
  8
CENTER
 48
0.3
100
AcDbLine
 10
421.8695652319265
 20
500.9848173515884
 30
0.0
 11
492.9332936562759
 21
500.9848173515884
 31
0.0
  0
CIRCLE
  5
22AF
330
1A
100
AcDbEntity
  8
1
100
AcDbCircle
 10
450.9332936562759
 20
438.9848173515884
 30
0.0
 40
1.75
  0
CIRCLE
  5
22B0
330
1A
100
AcDbEntity
  8
1
 62
     9
100
AcDbCircle
 10
450.9332936562759
 20
438.9848173515884
 30
0.0
 40
2.0
  0
LINE
  5
22B1
330
1A
100
AcDbEntity
  8
1
100
AcDbLine
 10
444.9332936562759
 20
403.9848173515883
 30
0.0
 11
444.9332936562759
 21
473.9848173515883
 31
0.0
  0
ARC
  5
22B2
330
1A
100
AcDbEntity
  8
1
100
AcDbCircle
 10
594.9332936562777
 20
495.9848173515874
 30
0.0
 40
2.0
100
AcDbArc
 50
28.35865971688788
 51
151.6413402831121
  0
LINE
  5
22B3
330
1A
100
AcDbEntity
  8
1
100
AcDbLine
 10
511.9332936562759
 20
486.1148173515912
 30
0.0
 11
511.9332936562759
 21
474.1148173515902
 31
0.0
  0
LINE
  5
22B4
330
1A
100
AcDbEntity
  8
1
100
AcDbLine
 10
538.9332936562778
 20
389.4848173515847
 30
0.0
 11
511.9332936562759
 21
389.4848173515856
 31
0.0
  0
ARC
  5
22B5
330
1A
100
AcDbEntity
  8
1
100
AcDbCircle
 10
538.9332936562778
 20
387.4848173515847
 30
0.0
 40
2.0
100
AcDbArc
 50
0.0
 51
90.0
  0
LINE
  5
22B6
330
1A
100
AcDbEntity
  8
1
100
AcDbLine
 10
511.9332936562759
 20
391.8848173515852
 30
0.0
 11
511.9332936562759
 21
403.8848173515861
 31
0.0
  0
ARC
  5
22B7
330
1A
100
AcDbEntity
  8
1
100
AcDbCircle
 10
538.9332936562778
 20
490.484817351592
 30
0.0
 40
2.0
100
AcDbArc
 50
270.0
 51
0.0
  0
ARC
  5
22B8
330
1A
100
AcDbEntity
  8
1
100
AcDbCircle
 10
544.9332936562777
 20
495.9848173515874
 30
0.0
 40
2.0
100
AcDbArc
 50
28.35865971688788
 51
151.6413402831121
  0
ARC
  5
22B9
330
1A
100
AcDbEntity
  8
1
100
AcDbCircle
 10
549.9332936562778
 20
491.9848173515874
 30
0.0
 40
0.5
100
AcDbArc
 50
208.3586597168879
 51
331.6413402831121
  0
LINE
  5
22BA
330
1A
100
AcDbEntity
  8
1
100
AcDbLine
 10
553.1733106199317
 20
496.9347961470202
 30
0.0
 11
550.3732894153645
 21
491.747322652729
 31
0.0
  0
LINE
  5
22BB
330
1A
100
AcDbEntity
  8
1
100
AcDbLine
 10
546.6932766926238
 20
496.9347961470202
 30
0.0
 11
549.493297897191
 21
491.747322652729
 31
0.0
  0
LINE
  5
22BC
330
1A
100
AcDbEntity
  8
1
100
AcDbLine
 10
556.6932766926238
 20
496.9347961470202
 30
0.0
 11
559.493297897191
 21
491.747322652729
 31
0.0
  0
LINE
  5
22BD
330
1A
100
AcDbEntity
  8
1
100
AcDbLine
 10
563.1733106199317
 20
496.9347961470202
 30
0.0
 11
560.3732894153645
 21
491.747322652729
 31
0.0
  0
ARC
  5
22BE
330
1A
100
AcDbEntity
  8
1
100
AcDbCircle
 10
559.9332936562777
 20
491.9848173515874
 30
0.0
 40
0.5
100
AcDbArc
 50
208.3586597168879
 51
331.6413402831121
  0
ARC
  5
22BF
330
1A
100
AcDbEntity
  8
1
100
AcDbCircle
 10
554.9332936562778
 20
495.9848173515874
 30
0.0
 40
2.0
100
AcDbArc
 50
28.35865971688788
 51
151.6413402831121
  0
ARC
  5
22C0
330
1A
100
AcDbEntity
  8
1
100
AcDbCircle
 10
574.9332936562778
 20
495.9848173515874
 30
0.0
 40
2.0
100
AcDbArc
 50
28.35865971688788
 51
151.6413402831121
  0
ARC
  5
22C1
330
1A
100
AcDbEntity
  8
1
100
AcDbCircle
 10
579.9332936562778
 20
491.9848173515874
 30
0.0
 40
0.5
100
AcDbArc
 50
208.3586597168879
 51
331.6413402831121
  0
LINE
  5
22C2
330
1A
100
AcDbEntity
  8
1
100
AcDbLine
 10
583.1733106199317
 20
496.9347961470202
 30
0.0
 11
580.3732894153645
 21
491.747322652729
 31
0.0
  0
LINE
  5
22C3
330
1A
100
AcDbEntity
  8
1
100
AcDbLine
 10
576.6932766926238
 20
496.9347961470202
 30
0.0
 11
579.493297897191
 21
491.747322652729
 31
0.0
  0
LINE
  5
22C4
330
1A
100
AcDbEntity
  8
1
100
AcDbLine
 10
566.6932766926238
 20
496.9347961470202
 30
0.0
 11
569.493297897191
 21
491.747322652729
 31
0.0
  0
LINE
  5
22C5
330
1A
100
AcDbEntity
  8
1
100
AcDbLine
 10
573.1733106199317
 20
496.9347961470202
 30
0.0
 11
570.3732894153644
 21
491.747322652729
 31
0.0
  0
ARC
  5
22C6
330
1A
100
AcDbEntity
  8
1
100
AcDbCircle
 10
569.9332936562777
 20
491.9848173515874
 30
0.0
 40
0.5
100
AcDbArc
 50
208.3586597168879
 51
331.6413402831121
  0
ARC
  5
22C7
330
1A
100
AcDbEntity
  8
1
100
AcDbCircle
 10
564.9332936562777
 20
495.9848173515874
 30
0.0
 40
2.0
100
AcDbArc
 50
28.35865971688788
 51
151.6413402831121
  0
ARC
  5
22C8
330
1A
100
AcDbEntity
  8
1
100
AcDbCircle
 10
584.9332936562777
 20
495.9848173515874
 30
0.0
 40
2.0
100
AcDbArc
 50
28.35865971688788
 51
151.6413402831121
  0
ARC
  5
22C9
330
1A
100
AcDbEntity
  8
1
100
AcDbCircle
 10
589.9332936562777
 20
491.9848173515874
 30
0.0
 40
0.5
100
AcDbArc
 50
208.3586597168879
 51
331.6413402831121
  0
LINE
  5
22CA
330
1A
100
AcDbEntity
  8
1
100
AcDbLine
 10
586.6932766926238
 20
496.9347961470202
 30
0.0
 11
589.493297897191
 21
491.747322652729
 31
0.0
  0
LINE
  5
22CB
330
1A
100
AcDbEntity
  8
1
100
AcDbLine
 10
543.1733106199317
 20
496.9347961470202
 30
0.0
 11
540.9332936562777
 21
492.7848173515867
 31
0.0
  0
LINE
  5
22CC
330
1A
100
AcDbEntity
  8
1
100
AcDbLine
 10
593.1733106199317
 20
496.9347961470202
 30
0.0
 11
590.3732894153645
 21
491.747322652729
 31
0.0
  0
LINE
  5
22CD
330
1A
100
AcDbEntity
  8
1
100
AcDbLine
 10
513.9332936562759
 20
513.9848173515884
 30
0.0
 11
513.9332936562759
 21
488.4848173515911
 31
0.0
  0
LINE
  5
22CE
330
1A
100
AcDbEntity
  8
1
100
AcDbLine
 10
538.9332936562778
 20
488.484817351592
 30
0.0
 11
511.9332936562759
 21
488.4848173515911
 31
0.0
  0
LINE
  5
22CF
330
1A
100
AcDbEntity
  8
1
100
AcDbLine
 10
511.9332936562759
 20
488.4848173515911
 30
0.0
 11
511.9332936562759
 21
389.4848173515856
 31
0.0
  0
LINE
  5
22D0
330
1A
100
AcDbEntity
  8
1
100
AcDbLine
 10
511.9332936562759
 20
403.9848173515883
 30
0.0
 11
511.9332936562759
 21
473.9848173515883
 31
0.0
  0
ARC
  5
22D4
330
1A
100
AcDbEntity
  8
1
100
AcDbCircle
 10
600.933293656275
 20
387.4848173515838
 30
0.0
 40
2.0
100
AcDbArc
 50
90.0
 51
180.0
  0
LINE
  5
22D5
330
1A
100
AcDbEntity
  8
1
100
AcDbLine
 10
600.933293656275
 20
389.4848173515838
 30
0.0
 11
625.9332936562759
 21
389.4848173515838
 31
0.0
  0
LINE
  5
22D6
330
1A
100
AcDbEntity
  8
1
100
AcDbLine
 10
600.9332936562778
 20
488.4848173515911
 30
0.0
 11
625.9332936562759
 21
488.4848173515893
 31
0.0
  0
ARC
  5
22D7
330
1A
100
AcDbEntity
  8
1
100
AcDbCircle
 10
600.9332936562778
 20
490.4848173515911
 30
0.0
 40
2.0
100
AcDbArc
 50
180.0
 51
270.0
  0
LINE
  5
22D8
330
1A
100
AcDbEntity
  8
1
100
AcDbLine
 10
596.6932766926238
 20
496.9347961470202
 30
0.0
 11
598.9332936562777
 21
492.7848173515867
 31
0.0
  0
CIRCLE
  5
22D9
330
1A
100
AcDbEntity
  8
1
100
AcDbCircle
 10
642.9332936562759
 20
453.9848173515874
 30
0.0
 40
10.0
  0
CIRCLE
  5
22DA
330
1A
100
AcDbEntity
  8
1
100
AcDbCircle
 10
642.9332936562759
 20
423.9848173515883
 30
0.0
 40
10.0
  0
CIRCLE
  5
22DB
330
1A
100
AcDbEntity
  8
1
100
AcDbCircle
 10
682.9332936562759
 20
500.9848173515884
 30
0.0
 40
5.049999999999999
  0
CIRCLE
  5
22DC
330
1A
100
AcDbEntity
  8
1
100
AcDbCircle
 10
642.9332936562759
 20
500.9848173515884
 30
0.0
 40
5.049999999999999
  0
CIRCLE
  5
22DD
330
1A
100
AcDbEntity
  8
1
 62
     9
100
AcDbCircle
 10
682.9332936562759
 20
500.9848173515884
 30
0.0
 40
6.0
  0
CIRCLE
  5
22DE
330
1A
100
AcDbEntity
  8
1
 62
     9
100
AcDbCircle
 10
642.9332936562759
 20
500.9848173515884
 30
0.0
 40
6.0
  0
LINE
  5
22E0
330
1A
100
AcDbEntity
  8
1
100
AcDbLine
 10
700.9332936562759
 20
513.9848173515884
 30
0.0
 11
700.9332936562759
 21
363.9848173515884
 31
0.0
  0
LINE
  5
22E1
330
1A
100
AcDbEntity
  8
1
100
AcDbLine
 10
878.8298154799376
 20
164.7043963833966
 30
0.0
 11
896.8576521950236
 21
164.7043963833957
 31
0.0
  0
LINE
  5
22E2
330
1A
100
AcDbEntity
  8
1
100
AcDbLine
 10
746.8576521950226
 20
142.7043963833948
 30
0.0
 11
896.8576521950225
 21
142.7043963833948
 31
0.0
  0
LINE
  5
22E3
330
1A
100
AcDbEntity
  8
1
100
AcDbLine
 10
746.8576521950217
 20
273.3043963833961
 30
0.0
 11
896.8576521950225
 21
273.3043963833961
 31
0.0
  0
LINE
  5
22E4
330
1A
100
AcDbEntity
  8
1
100
AcDbLine
 10
746.8576521950226
 20
251.3043963833961
 30
0.0
 11
896.8576521950225
 21
251.3043963833961
 31
0.0
  0
LINE
  5
22E5
330
1A
100
AcDbEntity
  8
CENTER
 48
0.3
100
AcDbLine
 10
753.4160219637079
 20
208.0043963833968
 30
0.0
 11
891.9246770005047
 21
208.0043963833968
 31
0.0
  0
LINE
  5
22E6
330
1A
100
AcDbEntity
  8
1
100
AcDbLine
 10
863.9576521950239
 20
243.0043963833968
 30
0.0
 11
863.9576521950239
 21
173.0043963833968
 31
0.0
  0
LINE
  5
22E7
330
1A
100
AcDbEntity
  8
1
100
AcDbLine
 10
779.7576521950214
 20
243.0043963833968
 30
0.0
 11
779.7576521950214
 21
173.0043963833968
 31
0.0
  0
LINE
  5
22E8
330
1A
100
AcDbEntity
  8
1
100
AcDbLine
 10
871.3576521950235
 20
245.0043963833977
 30
0.0
 11
871.3576521950235
 21
171.0043963833968
 31
0.0
  0
LINE
  5
22E9
330
1A
100
AcDbEntity
  8
1
100
AcDbLine
 10
772.3576521950217
 20
245.0043963833968
 30
0.0
 11
772.3576521950217
 21
171.0043963833968
 31
0.0
  0
LINE
  5
22EA
330
1A
100
AcDbEntity
  8
1
100
AcDbLine
 10
769.3576521950217
 20
243.0043963833968
 30
0.0
 11
769.3576521950208
 21
173.0043963833959
 31
0.0
  0
LINE
  5
22EB
330
1A
100
AcDbEntity
  8
1
100
AcDbLine
 10
874.3576521950235
 20
243.0043963833959
 30
0.0
 11
874.3576521950226
 21
173.0043963833968
 31
0.0
  0
LINE
  5
22EC
330
1A
100
AcDbEntity
  8
1
100
AcDbLine
 10
762.8576521950217
 20
243.0043963833968
 30
0.0
 11
762.8576521950208
 21
173.0043963833959
 31
0.0
  0
LINE
  5
22ED
330
1A
100
AcDbEntity
  8
1
100
AcDbLine
 10
880.8576521950236
 20
243.0043963833959
 30
0.0
 11
880.8576521950227
 21
173.0043963833968
 31
0.0
  0
LINE
  5
22EE
330
1A
100
AcDbEntity
  8
1
100
AcDbLine
 10
774.7576521950214
 20
243.0043963833968
 30
0.0
 11
774.7576521950214
 21
173.0043963833968
 31
0.0
  0
LINE
  5
22EF
330
1A
100
AcDbEntity
  8
1
100
AcDbLine
 10
786.7576521950213
 20
243.0043963833968
 30
0.0
 11
786.7576521950213
 21
173.0043963833968
 31
0.0
  0
LINE
  5
22F0
330
1A
100
AcDbEntity
  8
1
100
AcDbLine
 10
856.9576521950239
 20
243.0043963833968
 30
0.0
 11
856.9576521950239
 21
173.0043963833968
 31
0.0
  0
LINE
  5
22F1
330
1A
100
AcDbEntity
  8
1
100
AcDbLine
 10
868.957652195024
 20
243.0043963833968
 30
0.0
 11
868.957652195024
 21
173.0043963833968
 31
0.0
  0
LINE
  5
22F2
330
1A
100
AcDbEntity
  8
1
100
AcDbLine
 10
856.8576521950227
 20
249.0043963833968
 30
0.0
 11
856.8576521950227
 21
167.0043963833968
 31
0.0
  0
LINE
  5
22F3
330
1A
100
AcDbEntity
  8
1
100
AcDbLine
 10
786.8576521950226
 20
249.0043963833968
 30
0.0
 11
786.8576521950226
 21
167.0043963833968
 31
0.0
  0
LINE
  5
22F4
330
1A
100
AcDbEntity
  8
CENTER
 48
0.3
100
AcDbLine
 10
821.8576521950225
 20
284.6547989884738
 30
0.0
 11
821.8576521950225
 21
129.0011732300681
 31
0.0
  0
LINE
  5
22F5
330
1A
100
AcDbEntity
  8
1
100
AcDbLine
 10
694.9332936562759
 20
249.0043963833968
 30
0.0
 11
694.9332936562768
 21
167.0043963833968
 31
0.0
  0
LINE
  5
22F6
330
1A
100
AcDbEntity
  8
1
100
AcDbLine
 10
784.8576521950207
 20
164.504396383395
 30
0.0
 11
858.8576521950235
 21
164.5043963833977
 31
0.0
  0
LINE
  5
22F7
330
1A
100
AcDbEntity
  8
1
100
AcDbLine
 10
780.8576521950208
 20
161.5043963833959
 30
0.0
 11
862.8576521950225
 21
161.5043963833968
 31
0.0
  0
LINE
  5
22F8
330
1A
100
AcDbEntity
  8
1
100
AcDbLine
 10
780.8576521950208
 20
155.0043963833959
 30
0.0
 11
862.8576521950225
 21
155.0043963833968
 31
0.0
  0
LINE
  5
22F9
330
1A
100
AcDbEntity
  8
1
100
AcDbLine
 10
786.8576521950226
 20
167.0043963833968
 30
0.0
 11
856.8576521950227
 21
167.0043963833968
 31
0.0
  0
LINE
  5
22FA
330
1A
100
AcDbEntity
  8
1
100
AcDbLine
 10
784.3576521950226
 20
170.0043963833968
 30
0.0
 11
784.3576521950226
 21
165.0043963833968
 31
0.0
  0
ARC
  5
22FB
330
1A
100
AcDbEntity
  8
1
100
AcDbCircle
 10
783.8576521950226
 20
170.0043963833968
 30
0.0
 40
0.5
100
AcDbArc
 50
0.0
 51
90.0
  0
LINE
  5
22FC
330
1A
100
AcDbEntity
  8
1
100
AcDbLine
 10
772.8576521950217
 20
170.5043963833968
 30
0.0
 11
783.8576521950226
 21
170.5043963833968
 31
0.0
  0
ARC
  5
22FD
330
1A
100
AcDbEntity
  8
1
100
AcDbCircle
 10
772.8576521950217
 20
171.0043963833968
 30
0.0
 40
0.5
100
AcDbArc
 50
180.0
 51
270.0
  0
LINE
  5
22FE
330
1A
100
AcDbEntity
  8
1
100
AcDbLine
 10
786.8576521950226
 20
173.0043963833968
 30
0.0
 11
774.7576521950214
 21
173.0043963833968
 31
0.0
  0
ARC
  5
22FF
330
1A
100
AcDbEntity
  8
1
100
AcDbCircle
 10
784.8576521950207
 20
165.004396383395
 30
0.0
 40
0.5
100
AcDbArc
 50
180.0
 51
270.0
  0
ARC
  5
2300
330
1A
100
AcDbEntity
  8
1
100
AcDbCircle
 10
780.8576521950208
 20
173.0043963833959
 30
0.0
 40
11.5
100
AcDbArc
 50
180.0
 51
270.0
  0
ARC
  5
2301
330
1A
100
AcDbEntity
  8
1
100
AcDbCircle
 10
780.8576521950208
 20
173.0043963833959
 30
0.0
 40
18.0
100
AcDbArc
 50
180.0
 51
270.0
  0
LINE
  5
2302
330
1A
100
AcDbEntity
  8
1
 48
0.2
100
AcDbLine
 10
746.8576521950226
 20
164.7043963833957
 30
0.0
 11
746.8576521950217
 21
142.7043963833957
 31
0.0
  0
LINE
  5
2303
330
1A
100
AcDbEntity
  8
1
100
AcDbLine
 10
746.8576521950226
 20
164.7043963833957
 30
0.0
 11
764.8854889101057
 21
164.7043963833957
 31
0.0
  0
LINE
  5
2304
330
1A
100
AcDbEntity
  8
1
100
AcDbLine
 10
859.3576521950225
 20
170.0043963833968
 30
0.0
 11
859.3576521950225
 21
165.0043963833968
 31
0.0
  0
ARC
  5
2305
330
1A
100
AcDbEntity
  8
1
100
AcDbCircle
 10
859.8576521950226
 20
170.0043963833968
 30
0.0
 40
0.5
100
AcDbArc
 50
90.0
 51
180.0
  0
LINE
  5
2306
330
1A
100
AcDbEntity
  8
1
100
AcDbLine
 10
870.8576521950234
 20
170.5043963833968
 30
0.0
 11
859.8576521950226
 21
170.5043963833968
 31
0.0
  0
ARC
  5
2307
330
1A
100
AcDbEntity
  8
1
100
AcDbCircle
 10
870.8576521950234
 20
171.0043963833968
 30
0.0
 40
0.5
100
AcDbArc
 50
270.0
 51
0.0
  0
LINE
  5
2308
330
1A
100
AcDbEntity
  8
1
100
AcDbLine
 10
856.8576521950227
 20
173.0043963833968
 30
0.0
 11
868.957652195024
 21
173.0043963833968
 31
0.0
  0
ARC
  5
2309
330
1A
100
AcDbEntity
  8
1
100
AcDbCircle
 10
858.8576521950235
 20
165.0043963833977
 30
0.0
 40
0.5
100
AcDbArc
 50
270.0
 51
0.0
  0
ARC
  5
230A
330
1A
100
AcDbEntity
  8
1
100
AcDbCircle
 10
862.8576521950225
 20
173.0043963833968
 30
0.0
 40
11.5
100
AcDbArc
 50
270.0
 51
0.0
  0
ARC
  5
230B
330
1A
100
AcDbEntity
  8
1
100
AcDbCircle
 10
862.8576521950225
 20
173.0043963833968
 30
0.0
 40
18.0
100
AcDbArc
 50
270.0
 51
0.0
  0
LINE
  5
230D
330
1A
100
AcDbEntity
  8
1
100
AcDbLine
 10
786.8576521950226
 20
249.0043963833968
 30
0.0
 11
856.8576521950227
 21
249.0043963833968
 31
0.0
  0
ARC
  5
230E
330
1A
100
AcDbEntity
  8
1
100
AcDbCircle
 10
772.8576521950217
 20
245.0043963833968
 30
0.0
 40
0.5
100
AcDbArc
 50
90.0
 51
180.0
  0
LINE
  5
230F
330
1A
100
AcDbEntity
  8
1
100
AcDbLine
 10
783.8576521950226
 20
245.5043963833977
 30
0.0
 11
772.8576521950217
 21
245.5043963833968
 31
0.0
  0
LINE
  5
2310
330
1A
100
AcDbEntity
  8
1
100
AcDbLine
 10
784.3576521950226
 20
251.0043963833959
 30
0.0
 11
784.3576521950226
 21
246.0043963833977
 31
0.0
  0
ARC
  5
2311
330
1A
100
AcDbEntity
  8
1
100
AcDbCircle
 10
783.8576521950226
 20
246.0043963833977
 30
0.0
 40
0.5
100
AcDbArc
 50
270.0
 51
0.0
  0
ARC
  5
2312
330
1A
100
AcDbEntity
  8
1
100
AcDbCircle
 10
784.8576521950207
 20
251.0043963833968
 30
0.0
 40
0.5
100
AcDbArc
 50
143.1301023542602
 51
180.0
  0
ARC
  5
2313
330
1A
100
AcDbEntity
  8
1
100
AcDbCircle
 10
780.8576521950217
 20
243.0043963833968
 30
0.0
 40
11.5
100
AcDbArc
 50
133.8017464419393
 51
180.0
  0
ARC
  5
2314
330
1A
100
AcDbEntity
  8
1
100
AcDbCircle
 10
780.8576521950217
 20
243.0043963833968
 30
0.0
 40
18.0
100
AcDbArc
 50
152.5411712603814
 51
180.0
  0
LINE
  5
2315
330
1A
100
AcDbEntity
  8
1
 48
0.2
100
AcDbLine
 10
746.8576521950217
 20
273.3043963833961
 30
0.0
 11
746.8576521950226
 21
251.3043963833961
 31
0.0
  0
LINE
  5
2316
330
1A
100
AcDbEntity
  8
1
100
AcDbLine
 10
694.9332936562759
 20
251.3043963833961
 30
0.0
 11
694.9332936562759
 21
249.0043963833977
 31
0.0
  0
LINE
  5
2317
330
1A
100
AcDbEntity
  8
1
100
AcDbLine
 10
700.9332936562759
 20
273.3043963833961
 30
0.0
 11
700.9332936562759
 21
251.3043963833961
 31
0.0
  0
LINE
  5
2318
330
1A
100
AcDbEntity
  8
1
100
AcDbLine
 10
786.8576521950226
 20
243.0043963833968
 30
0.0
 11
774.7576521950214
 21
243.0043963833968
 31
0.0
  0
ARC
  5
2319
330
1A
100
AcDbEntity
  8
1
100
AcDbCircle
 10
870.8576521950234
 20
245.0043963833977
 30
0.0
 40
0.5
100
AcDbArc
 50
0.0
 51
90.0
  0
LINE
  5
231A
330
1A
100
AcDbEntity
  8
1
100
AcDbLine
 10
859.8576521950226
 20
245.5043963833968
 30
0.0
 11
870.8576521950234
 21
245.5043963833977
 31
0.0
  0
ARC
  5
231B
330
1A
100
AcDbEntity
  8
1
100
AcDbCircle
 10
859.8576521950226
 20
246.0043963833968
 30
0.0
 40
0.5
100
AcDbArc
 50
180.0
 51
270.0
  0
LINE
  5
231C
330
1A
100
AcDbEntity
  8
1
100
AcDbLine
 10
859.3576521950225
 20
251.0043963833968
 30
0.0
 11
859.3576521950225
 21
246.0043963833968
 31
0.0
  0
ARC
  5
231D
330
1A
100
AcDbEntity
  8
1
100
AcDbCircle
 10
858.8576521950244
 20
251.0043963833959
 30
0.0
 40
0.5
100
AcDbArc
 50
0.0
 51
36.86989764588571
  0
ARC
  5
231E
330
1A
100
AcDbEntity
  8
1
100
AcDbCircle
 10
862.8576521950234
 20
243.0043963833959
 30
0.0
 40
11.5
100
AcDbArc
 50
0.0
 51
46.19825355806066
  0
ARC
  5
231F
330
1A
100
AcDbEntity
  8
1
100
AcDbCircle
 10
862.8576521950234
 20
243.0043963833959
 30
0.0
 40
18.0
100
AcDbArc
 50
0.0
 51
27.45882873961857
  0
LINE
  5
2320
330
1A
100
AcDbEntity
  8
1
100
AcDbLine
 10
818.8576521950226
 20
251.3043963833961
 30
0.0
 11
818.8576521950226
 21
249.0043963833977
 31
0.0
  0
LINE
  5
2321
330
1A
100
AcDbEntity
  8
1
100
AcDbLine
 10
794.8576521950226
 20
251.3043963833961
 30
0.0
 11
794.8576521950226
 21
249.0043963833977
 31
0.0
  0
LINE
  5
2322
330
1A
100
AcDbEntity
  8
1
100
AcDbLine
 10
848.8576521950227
 20
251.3043963833961
 30
0.0
 11
848.8576521950227
 21
249.0043963833977
 31
0.0
  0
LINE
  5
2323
330
1A
100
AcDbEntity
  8
1
100
AcDbLine
 10
824.8576521950226
 20
251.3043963833961
 30
0.0
 11
824.8576521950226
 21
249.0043963833977
 31
0.0
  0
LINE
  5
2324
330
1A
100
AcDbEntity
  8
1
100
AcDbLine
 10
856.8576521950227
 20
243.0043963833968
 30
0.0
 11
868.957652195024
 21
243.0043963833968
 31
0.0
  0
LINE
  5
2327
330
1A
100
AcDbEntity
  8
1
 48
0.2
100
AcDbLine
 10
896.8576521950236
 20
164.7043963833957
 30
0.0
 11
896.8576521950216
 21
142.7043963833957
 31
0.0
  0
LINE
  5
2329
330
1A
100
AcDbEntity
  8
1
 48
0.2
100
AcDbLine
 10
896.8576521950225
 20
273.3043963833961
 30
0.0
 11
896.8576521950225
 21
251.3043963833961
 31
0.0
  0
CIRCLE
  5
2A0E
330
1A
100
AcDbEntity
  8
1
  6
CONTINUOUS
100
AcDbCircle
 10
193.4259969814948
 20
183.0043998316726
 30
0.0
 40
2.980384515458561
  0
CIRCLE
  5
2A0F
330
1A
100
AcDbEntity
  8
1
  6
CONTINUOUS
100
AcDbCircle
 10
193.4259969814948
 20
183.0043998316726
 30
0.0
 40
3.5
  0
LINE
  5
2A10
330
1A
100
AcDbEntity
  8
1
  6
CONTINUOUS
100
AcDbLine
 10
192.5599719814949
 20
181.5044005310478
 30
0.0
 11
194.2920219814949
 21
181.5044005310478
 31
0.0
  0
LINE
  5
2A11
330
1A
100
AcDbEntity
  8
1
  6
CONTINUOUS
100
AcDbLine
 10
194.2920219814949
 20
184.5043991322975
 30
0.0
 11
192.5599719814949
 21
184.5043991322975
 31
0.0
  0
LINE
  5
2A12
330
1A
100
AcDbEntity
  8
1
  6
CONTINUOUS
100
AcDbLine
 10
192.5599719814949
 20
184.5043991322975
 30
0.0
 11
191.6939469814949
 21
183.0043998316726
 31
0.0
  0
LINE
  5
2A13
330
1A
100
AcDbEntity
  8
1
  6
CONTINUOUS
100
AcDbLine
 10
191.6939469814949
 20
183.0043998316726
 30
0.0
 11
192.5599719814949
 21
181.5044005310478
 31
0.0
  0
LINE
  5
2A14
330
1A
100
AcDbEntity
  8
1
  6
CONTINUOUS
100
AcDbLine
 10
195.1580469814949
 20
183.0043998316726
 30
0.0
 11
194.2920219814949
 21
184.5043991322975
 31
0.0
  0
LINE
  5
2A15
330
1A
100
AcDbEntity
  8
1
  6
CONTINUOUS
100
AcDbLine
 10
194.2920219814949
 20
181.5044005310478
 30
0.0
 11
195.1580469814949
 21
183.0043998316726
 31
0.0
  0
CIRCLE
  5
2A16
330
1A
100
AcDbEntity
  8
1
100
AcDbCircle
 10
682.9332936562759
 20
423.9848173515874
 30
0.0
 40
9.0
  0
CIRCLE
  5
2A17
330
1A
100
AcDbEntity
  8
1
100
AcDbCircle
 10
682.9332936562759
 20
423.9848173515874
 30
0.0
 40
7.787564434701784
  0
LINE
  5
2A18
330
1A
100
AcDbEntity
  8
1
100
AcDbLine
 10
677.9332936562759
 20
421.0980660056393
 30
0.0
 11
682.9332936562759
 21
418.2113146596911
 31
0.0
  0
LINE
  5
2A19
330
1A
100
AcDbEntity
  8
1
100
AcDbLine
 10
682.9332936562759
 20
418.2113146596911
 30
0.0
 11
687.9332936562759
 21
421.0980660056393
 31
0.0
  0
LINE
  5
2A1A
330
1A
100
AcDbEntity
  8
1
100
AcDbLine
 10
687.9332936562759
 20
426.8715686975355
 30
0.0
 11
682.9332936562759
 21
429.7583200434837
 31
0.0
  0
LINE
  5
2A1B
330
1A
100
AcDbEntity
  8
1
100
AcDbLine
 10
682.9332936562759
 20
429.7583200434837
 30
0.0
 11
677.9332936562759
 21
426.8715686975355
 31
0.0
  0
LINE
  5
2A1C
330
1A
100
AcDbEntity
  8
1
100
AcDbLine
 10
677.9332936562759
 20
426.8715686975355
 30
0.0
 11
677.9332936562759
 21
421.0980660056393
 31
0.0
  0
LINE
  5
2A1D
330
1A
100
AcDbEntity
  8
1
100
AcDbLine
 10
687.9332936562759
 20
421.0980660056393
 30
0.0
 11
687.9332936562759
 21
426.8715686975355
 31
0.0
  0
CIRCLE
  5
2A1E
330
1A
100
AcDbEntity
  8
1
100
AcDbCircle
 10
682.9332936562759
 20
453.9848173515874
 30
0.0
 40
9.0
  0
CIRCLE
  5
2A1F
330
1A
100
AcDbEntity
  8
1
100
AcDbCircle
 10
682.9332936562759
 20
453.9848173515874
 30
0.0
 40
7.787564434701784
  0
LINE
  5
2A20
330
1A
100
AcDbEntity
  8
1
100
AcDbLine
 10
677.9332936562759
 20
451.0980660056393
 30
0.0
 11
682.9332936562759
 21
448.2113146596912
 31
0.0
  0
LINE
  5
2A21
330
1A
100
AcDbEntity
  8
1
100
AcDbLine
 10
682.9332936562759
 20
448.2113146596912
 30
0.0
 11
687.9332936562759
 21
451.0980660056393
 31
0.0
  0
LINE
  5
2A22
330
1A
100
AcDbEntity
  8
1
100
AcDbLine
 10
687.9332936562759
 20
456.8715686975356
 30
0.0
 11
682.9332936562759
 21
459.7583200434837
 31
0.0
  0
LINE
  5
2A23
330
1A
100
AcDbEntity
  8
1
100
AcDbLine
 10
682.9332936562759
 20
459.7583200434837
 30
0.0
 11
677.9332936562759
 21
456.8715686975356
 31
0.0
  0
LINE
  5
2A24
330
1A
100
AcDbEntity
  8
1
100
AcDbLine
 10
677.9332936562759
 20
456.8715686975356
 30
0.0
 11
677.9332936562759
 21
451.0980660056393
 31
0.0
  0
LINE
  5
2A25
330
1A
100
AcDbEntity
  8
1
100
AcDbLine
 10
687.9332936562759
 20
451.0980660056393
 30
0.0
 11
687.9332936562759
 21
456.8715686975356
 31
0.0
  0
CIRCLE
  5
2A26
330
1A
100
AcDbEntity
  8
1
100
AcDbCircle
 10
642.9332936562759
 20
423.9848173515883
 30
0.0
 40
9.0
  0
CIRCLE
  5
2A27
330
1A
100
AcDbEntity
  8
1
100
AcDbCircle
 10
642.9332936562759
 20
423.9848173515883
 30
0.0
 40
7.787564434701784
  0
LINE
  5
2A28
330
1A
100
AcDbEntity
  8
1
100
AcDbLine
 10
637.9332936562759
 20
421.0980660056402
 30
0.0
 11
642.9332936562759
 21
418.2113146596921
 31
0.0
  0
LINE
  5
2A29
330
1A
100
AcDbEntity
  8
1
100
AcDbLine
 10
642.9332936562759
 20
418.2113146596921
 30
0.0
 11
647.933293656276
 21
421.0980660056402
 31
0.0
  0
LINE
  5
2A2A
330
1A
100
AcDbEntity
  8
1
100
AcDbLine
 10
647.933293656276
 20
426.8715686975365
 30
0.0
 11
642.9332936562759
 21
429.7583200434846
 31
0.0
  0
LINE
  5
2A2B
330
1A
100
AcDbEntity
  8
1
100
AcDbLine
 10
642.9332936562759
 20
429.7583200434846
 30
0.0
 11
637.9332936562759
 21
426.8715686975365
 31
0.0
  0
LINE
  5
2A2C
330
1A
100
AcDbEntity
  8
1
100
AcDbLine
 10
637.9332936562759
 20
426.8715686975365
 30
0.0
 11
637.9332936562759
 21
421.0980660056402
 31
0.0
  0
LINE
  5
2A2D
330
1A
100
AcDbEntity
  8
1
100
AcDbLine
 10
647.933293656276
 20
421.0980660056402
 30
0.0
 11
647.933293656276
 21
426.8715686975365
 31
0.0
  0
CIRCLE
  5
2A2E
330
1A
100
AcDbEntity
  8
1
100
AcDbCircle
 10
642.9332936562759
 20
453.9848173515874
 30
0.0
 40
9.0
  0
CIRCLE
  5
2A2F
330
1A
100
AcDbEntity
  8
1
100
AcDbCircle
 10
642.9332936562759
 20
453.9848173515874
 30
0.0
 40
7.787564434701784
  0
LINE
  5
2A30
330
1A
100
AcDbEntity
  8
1
100
AcDbLine
 10
637.9332936562759
 20
451.0980660056393
 30
0.0
 11
642.9332936562759
 21
448.2113146596912
 31
0.0
  0
LINE
  5
2A31
330
1A
100
AcDbEntity
  8
1
100
AcDbLine
 10
642.9332936562759
 20
448.2113146596912
 30
0.0
 11
647.933293656276
 21
451.0980660056393
 31
0.0
  0
LINE
  5
2A32
330
1A
100
AcDbEntity
  8
1
100
AcDbLine
 10
647.933293656276
 20
456.8715686975356
 30
0.0
 11
642.9332936562759
 21
459.7583200434837
 31
0.0
  0
LINE
  5
2A33
330
1A
100
AcDbEntity
  8
1
100
AcDbLine
 10
642.9332936562759
 20
459.7583200434837
 30
0.0
 11
637.9332936562759
 21
456.8715686975356
 31
0.0
  0
LINE
  5
2A34
330
1A
100
AcDbEntity
  8
1
100
AcDbLine
 10
637.9332936562759
 20
456.8715686975356
 30
0.0
 11
637.9332936562759
 21
451.0980660056393
 31
0.0
  0
LINE
  5
2A35
330
1A
100
AcDbEntity
  8
1
100
AcDbLine
 10
647.933293656276
 20
451.0980660056393
 30
0.0
 11
647.933293656276
 21
456.8715686975356
 31
0.0
  0
VIEWPORT
  5
22
330
17
100
AcDbEntity
 67
     1
  8
0
100
AcDbViewport
 10
213.9674757534216
 20
150.9065026067153
 30
0.0
 40
539.8052468222655
 41
336.9401256544823
 68
     1
 69
     1
1001
ACAD
1000
MVIEW
1002
{
1070
    16
1010
0.0
1020
0.0
1030
0.0
1010
0.0
1020
0.0
1030
1.0
1040
0.0
1040
336.9401256544823
1040
213.9674757534216
1040
150.9065026067153
1040
50.0
1040
0.0
1040
0.0
1070
     0
1070
   100
1070
     1
1070
     0
1070
     0
1070
     0
1070
     0
1070
     0
1040
0.0
1040
0.0
1040
0.0
1040
1.0
1040
1.0
1040
10.0
1040
10.0
1070
     0
1002
{
1002
}
1002
}
  0
VIEWPORT
  5
2CF
330
17
100
AcDbEntity
 67
     1
  8
DEFPOINTS
100
AcDbViewport
 10
212.4999999999999
 20
149.4999999999999
 30
0.0
 40
384.9999999999998
 41
265.0
 68
     2
 69
     2
1001
ACAD
1000
MVIEW
1002
{
1070
    16
1010
0.0
1020
0.0
1030
0.0
1010
0.0
1020
0.0
1030
1.0
1040
0.0
1040
717.5447370761274
1040
516.1518818614315
1040
366.207622448931
1040
50.0
1040
0.0
1040
0.0
1070
     0
1070
   100
1070
     1
1070
     0
1070
     0
1070
     0
1070
     0
1070
     1
1040
0.0
1040
0.0
1040
0.0
1040
168.0
1040
168.0
1040
0.0
1040
0.0
1070
     0
1002
{
1002
}
1002
}
  0
MTEXT
  5
1D2D
330
17
100
AcDbEntity
 67
     1
  8
NOTE
100
AcDbMText
 10
240.9999999999998
 20
22.99999999999994
 30
0.0
 40
1.5
 41
9.0
 71
     5
 72
     5
  1

  7
AD-STANDARD
1001
ACAD
1000
MTEXTBEGIN
1070
    73
1070
     1
1070
    44
1040
1.0
1070
    74
1070
     0
1000
MTEXTEND
1000
MTEXTBEGIN
1070
    73
1070
     1
1070
    44
1040
1.0
1070
    74
1070
     0
1000
MTEXTEND
1000
MTEXTBEGIN
1070
    73
1070
     1
1070
    44
1040
1.0
1070
    74
1070
     0
1000
MTEXTEND
1000
MTEXTBEGIN
1070
    73
1070
     1
1070
    44
1040
1.0
1070
    74
1070
     0
1000
MTEXTEND
1000
MTEXTBEGIN
1070
    73
1070
     1
1070
    44
1040
1.0
1070
    74
1070
     0
1000
MTEXTEND
  0
MTEXT
  5
1D2E
330
17
100
AcDbEntity
 67
     1
  8
NOTE
100
AcDbMText
 10
249.4999999999998
 20
22.99999999999994
 30
0.0
 40
2.5
 41
8.0
 71
     5
 72
     5
  1

  7
AD-STANDARD
1001
ACAD
1000
MTEXTBEGIN
1070
    73
1070
     1
1070
    44
1040
1.0
1070
    74
1070
     0
1000
MTEXTEND
1000
MTEXTBEGIN
1070
    73
1070
     1
1070
    44
1040
1.0
1070
    74
1070
     0
1000
MTEXTEND
1000
MTEXTBEGIN
1070
    73
1070
     1
1070
    44
1040
1.0
1070
    74
1070
     0
1000
MTEXTEND
1000
MTEXTBEGIN
1070
    73
1070
     1
1070
    44
1040
1.0
1070
    74
1070
     0
1000
MTEXTEND
1000
MTEXTBEGIN
1070
    73
1070
     1
1070
    44
1040
1.0
1070
    74
1070
     0
1000
MTEXTEND
  0
MTEXT
  5
1D31
330
17
100
AcDbEntity
 67
     1
  8
NOTE
100
AcDbMText
 10
232.7499999999998
 20
22.99999999999994
 30
0.0
 40
2.5
 41
7.5
 71
     5
 72
     5
  1

  7
AD-STANDARD
1001
ACAD
1000
MTEXTBEGIN
1070
    73
1070
     1
1070
    44
1040
1.0
1070
    74
1070
     0
1000
MTEXTEND
1000
MTEXTBEGIN
1070
    73
1070
     1
1070
    44
1040
1.0
1070
    74
1070
     0
1000
MTEXTEND
1000
MTEXTBEGIN
1070
    73
1070
     1
1070
    44
1040
1.0
1070
    74
1070
     0
1000
MTEXTEND
1000
MTEXTBEGIN
1070
    73
1070
     1
1070
    44
1040
1.0
1070
    74
1070
     0
1000
MTEXTEND
1000
MTEXTBEGIN
1070
    73
1070
     1
1070
    44
1040
1.0
1070
    74
1070
     0
1000
MTEXTEND
  0
MTEXT
  5
1D32
330
17
100
AcDbEntity
 67
     1
  8
NOTE
100
AcDbMText
 10
253.4999999999998
 20
22.99999999999995
 30
0.0
 40
2.5
 41
23.5
 71
     4
 72
     5
  1
  
  7
AD-STANDARD
1001
ACAD
1000
MTEXTBEGIN
1070
    73
1070
     1
1070
    44
1040
1.0
1070
    74
1070
     0
1000
MTEXTEND
1000
MTEXTBEGIN
1070
    73
1070
     1
1070
    44
1040
1.0
1070
    74
1070
     0
1000
MTEXTEND
1000
MTEXTBEGIN
1070
    73
1070
     1
1070
    44
1040
1.0
1070
    74
1070
     0
1000
MTEXTEND
1000
MTEXTBEGIN
1070
    73
1070
     1
1070
    44
1040
1.0
1070
    74
1070
     0
1000
MTEXTEND
1000
MTEXTBEGIN
1070
    73
1070
     1
1070
    44
1040
1.0
1070
    74
1070
     0
1000
MTEXTEND
  0
MTEXT
  5
2608
330
17
100
AcDbEntity
 67
     1
  8
NOTE
100
AcDbMText
 10
231.8160531899702
 20
23.05808839786973
 30
0.0
 40
4.0
 41
0.0
 71
     1
 72
     5
  1

  7
AD-STANDARD
1001
ACAD
1000
MTEXTBEGIN
1070
    73
1070
     1
1070
    44
1040
1.0
1070
    74
1070
     0
1000
MTEXTEND
1000
MTEXTBEGIN
1070
    73
1070
     1
1070
    44
1040
1.0
1070
    74
1070
     0
1000
MTEXTEND
1000
MTEXTBEGIN
1070
    73
1070
     1
1070
    44
1040
1.0
1070
    74
1070
     0
1000
MTEXTEND
  0
ENDSEC
  0
SECTION
  2
OBJECTS
  0
DICTIONARY
  5
C
330
0
100
AcDbDictionary
  3
ACAD_GROUP
350
D
  3
ACAD_LAYOUT
350
1D18
  3
ACAD_MLINESTYLE
350
E
  3
ACAD_PLOTSETTINGS
350
1D19
  3
ACAD_PLOTSTYLENAME
350
1D16
  3
CONTENTDICTIONARY
350
234
  3
ACDBHEADERROUNDTRIPXREC
350
2A98
  0
DICTIONARY
  5
1D68
330
1A
100
AcDbDictionary
280
     1
  3
ACAD_LAYOUTSELFREF
360
2AB9
  0
DICTIONARY
  5
1D66
330
17
100
AcDbDictionary
280
     1
  3
ACAD_LAYOUTSELFREF
360
2AB8
  0
DICTIONARY
  5
D
102
{ACAD_REACTORS
330
C
102
}
330
C
100
AcDbDictionary
  3
*A1
350
36C
  3
*A2
350
377
  3
*A3
350
419
  3
*A4
350
41A
  3
*A5
350
621
  3
*A6
350
630
  3
*A7
350
682
  3
*A8
350
84A
  0
DICTIONARY
  5
1D18
102
{ACAD_REACTORS
330
C
102
}
330
C
100
AcDbDictionary
  0
DICTIONARY
  5
E
102
{ACAD_REACTORS
330
C
102
}
330
C
100
AcDbDictionary
  3
STANDARD
350
13
  0
DICTIONARY
  5
1D19
102
{ACAD_REACTORS
330
C
102
}
330
C
100
AcDbDictionary
  3
A3FORM
350
1D33
  0
ACDBDICTIONARYWDFLT
  5
1D16
102
{ACAD_REACTORS
330
C
102
}
330
C
100
AcDbDictionary
281
     1
  3
Normal
350
1D17
100
AcDbDictionaryWithDefault
340
1D17
  0
DICTIONARY
  5
234
102
{ACAD_REACTORS
330
C
102
}
330
C
100
AcDbDictionary
  0
DICTIONARY
  5
2A98
102
{ACAD_REACTORS
330
C
102
}
330
C
100
AcDbDictionary
  3
TSTACKALIGN
350
2A99
  3
TSTACKSIZE
350
2A9A
  3
HYPERLINKBASE
350
2A9B
  3
STYLESHEET
350
2A9C
  3
LAYOUTDICT
350
2A9D
  3
PLOTSETDICT
350
2A9E
  3
PLOTSTYLNAMDICT
350
2A9F
  3
LWETCUNION
350
2AA0
  3
INSUNITS
350
2AA1
  3
CEPSNTYPE
350
2AA2
  3
FINGERPRINTGUID
350
2AA3
  3
VERSIONGUID
350
2AA4
  3
PSVPSCALE
350
2AA5
  3
PUCSORTHOREF
350
2AA6
  3
PUCSORTHOVIEW
350
2AA7
  3
PUCSBASE
350
2AA8
  3
PUCSORGTOP
350
2AA9
  3
PUCSORGBOTTOM
350
2AAA
  3
PUCSORGLEFT
350
2AAB
  3
PUCSORGRIGHT
350
2AAC
  3
PUCSORGFRONT
350
2AAD
  3
PUCSORGBACK
350
2AAE
  3
UCSORTHOREF
350
2AAF
  3
UCSORTHOVIEW
350
2AB0
  3
UCSBASE
350
2AB1
  3
UCSORGTOP
350
2AB2
  3
UCSORGBOTTOM
350
2AB3
  3
UCSORGLEFT
350
2AB4
  3
UCSORGRIGHT
350
2AB5
  3
UCSORGFRONT
350
2AB6
  3
UCSORGBACK
350
2AB7
  0
XRECORD
  5
2AB9
102
{ACAD_REACTORS
330
1D68
102
}
330
1D68
100
AcDbXrecord
340
1A
  0
XRECORD
  5
2AB8
102
{ACAD_REACTORS
330
1D66
102
}
330
1D66
100
AcDbXrecord
340
17
  0
GROUP
  5
36C
102
{ACAD_REACTORS
330
D
102
}
330
D
100
AcDbGroup
300

 70
     1
 71
     1
  0
GROUP
  5
377
102
{ACAD_REACTORS
330
D
102
}
330
D
100
AcDbGroup
300

 70
     1
 71
     1
  0
GROUP
  5
419
102
{ACAD_REACTORS
330
D
102
}
330
D
100
AcDbGroup
300

 70
     1
 71
     1
  0
GROUP
  5
41A
102
{ACAD_REACTORS
330
D
102
}
330
D
100
AcDbGroup
300

 70
     1
 71
     1
  0
GROUP
  5
621
102
{ACAD_REACTORS
330
D
102
}
330
D
100
AcDbGroup
300

 70
     1
 71
     1
  0
GROUP
  5
630
102
{ACAD_REACTORS
330
D
102
}
330
D
100
AcDbGroup
300

 70
     1
 71
     1
  0
GROUP
  5
682
102
{ACAD_REACTORS
330
D
102
}
330
D
100
AcDbGroup
300

 70
     1
 71
     1
  0
GROUP
  5
84A
102
{ACAD_REACTORS
330
D
102
}
330
D
100
AcDbGroup
300

 70
     1
 71
     1
  0
MLINESTYLE
  5
13
102
{ACAD_REACTORS
330
E
102
}
330
E
100
AcDbMlineStyle
  2
STANDARD
 70
     0
  3

 62
     0
 51
90.0
 52
90.0
 71
     2
 49
0.5
 62
   256
  6
BYLAYER
 49
-0.5
 62
   256
  6
BYLAYER
  0
PLOTSETTINGS
  5
1D33
102
{ACAD_REACTORS
330
1D19
102
}
330
1D19
100
AcDbPlotSettings
  1
A3form
  2
Laser Wind 2080W
  4
A3
  6

 40
4.773083209991455
 41
4.773059368133544
 42
4.7730712890625
 43
4.7730712890625
 44
297.0106506347656
 45
419.9889831542968
 46
0.0
 47
0.0
 48
0.0
 49
0.0
140
0.0
141
0.0
142
1.0
143
1.000041778052157
 70
   688
 72
     1
 73
     1
 74
     2
  7
monochrome.ctb
 75
     0
147
0.9999582236931756
148
0.0
149
0.0
  0
ACDBPLACEHOLDER
  5
1D17
102
{ACAD_REACTORS
330
1D16
102
}
330
1D16
100
AcDbPlaceHolder
280
     0
  0
XRECORD
  5
2A99
102
{ACAD_REACTORS
330
2A98
102
}
330
2A98
100
AcDbXrecord
 90
        1
  0
XRECORD
  5
2A9A
102
{ACAD_REACTORS
330
2A98
102
}
330
2A98
100
AcDbXrecord
 90
       70
  0
XRECORD
  5
2A9B
102
{ACAD_REACTORS
330
2A98
102
}
330
2A98
100
AcDbXrecord
  1

  0
XRECORD
  5
2A9C
102
{ACAD_REACTORS
330
2A98
102
}
330
2A98
100
AcDbXrecord
  1

  0
XRECORD
  5
2A9D
102
{ACAD_REACTORS
330
2A98
102
}
330
2A98
100
AcDbXrecord
340
1D18
  0
XRECORD
  5
2A9E
102
{ACAD_REACTORS
330
2A98
102
}
330
2A98
100
AcDbXrecord
340
1D19
  0
XRECORD
  5
2A9F
102
{ACAD_REACTORS
330
2A98
102
}
330
2A98
100
AcDbXrecord
340
1D16
  0
XRECORD
  5
2AA0
102
{ACAD_REACTORS
330
2A98
102
}
330
2A98
100
AcDbXrecord
 90
    14877
  0
XRECORD
  5
2AA1
102
{ACAD_REACTORS
330
2A98
102
}
330
2A98
100
AcDbXrecord
 90
        0
  0
XRECORD
  5
2AA2
102
{ACAD_REACTORS
330
2A98
102
}
330
2A98
100
AcDbXrecord
 90
        0
  0
XRECORD
  5
2AA3
102
{ACAD_REACTORS
330
2A98
102
}
330
2A98
100
AcDbXrecord
  1
{22453520-0AE0-11D4-A8E9-00402655F364}
  0
XRECORD
  5
2AA4
102
{ACAD_REACTORS
330
2A98
102
}
330
2A98
100
AcDbXrecord
  1
{74172E62-B74D-4525-BE6C-53ED798958EA}
  0
XRECORD
  5
2AA5
102
{ACAD_REACTORS
330
2A98
102
}
330
2A98
100
AcDbXrecord
 40
0.0
  0
XRECORD
  5
2AA6
102
{ACAD_REACTORS
330
2A98
102
}
330
2A98
100
AcDbXrecord
340
0
  0
XRECORD
  5
2AA7
102
{ACAD_REACTORS
330
2A98
102
}
330
2A98
100
AcDbXrecord
 70
     0
  0
XRECORD
  5
2AA8
102
{ACAD_REACTORS
330
2A98
102
}
330
2A98
100
AcDbXrecord
340
0
  0
XRECORD
  5
2AA9
102
{ACAD_REACTORS
330
2A98
102
}
330
2A98
100
AcDbXrecord
 10
0.0
 20
0.0
 30
0.0
  0
XRECORD
  5
2AAA
102
{ACAD_REACTORS
330
2A98
102
}
330
2A98
100
AcDbXrecord
 10
0.0
 20
0.0
 30
0.0
  0
XRECORD
  5
2AAB
102
{ACAD_REACTORS
330
2A98
102
}
330
2A98
100
AcDbXrecord
 10
0.0
 20
0.0
 30
0.0
  0
XRECORD
  5
2AAC
102
{ACAD_REACTORS
330
2A98
102
}
330
2A98
100
AcDbXrecord
 10
0.0
 20
0.0
 30
0.0
  0
XRECORD
  5
2AAD
102
{ACAD_REACTORS
330
2A98
102
}
330
2A98
100
AcDbXrecord
 10
0.0
 20
0.0
 30
0.0
  0
XRECORD
  5
2AAE
102
{ACAD_REACTORS
330
2A98
102
}
330
2A98
100
AcDbXrecord
 10
0.0
 20
0.0
 30
0.0
  0
XRECORD
  5
2AAF
102
{ACAD_REACTORS
330
2A98
102
}
330
2A98
100
AcDbXrecord
340
0
  0
XRECORD
  5
2AB0
102
{ACAD_REACTORS
330
2A98
102
}
330
2A98
100
AcDbXrecord
 70
     0
  0
XRECORD
  5
2AB1
102
{ACAD_REACTORS
330
2A98
102
}
330
2A98
100
AcDbXrecord
340
0
  0
XRECORD
  5
2AB2
102
{ACAD_REACTORS
330
2A98
102
}
330
2A98
100
AcDbXrecord
 10
0.0
 20
0.0
 30
0.0
  0
XRECORD
  5
2AB3
102
{ACAD_REACTORS
330
2A98
102
}
330
2A98
100
AcDbXrecord
 10
0.0
 20
0.0
 30
0.0
  0
XRECORD
  5
2AB4
102
{ACAD_REACTORS
330
2A98
102
}
330
2A98
100
AcDbXrecord
 10
0.0
 20
0.0
 30
0.0
  0
XRECORD
  5
2AB5
102
{ACAD_REACTORS
330
2A98
102
}
330
2A98
100
AcDbXrecord
 10
0.0
 20
0.0
 30
0.0
  0
XRECORD
  5
2AB6
102
{ACAD_REACTORS
330
2A98
102
}
330
2A98
100
AcDbXrecord
 10
0.0
 20
0.0
 30
0.0
  0
XRECORD
  5
2AB7
102
{ACAD_REACTORS
330
2A98
102
}
330
2A98
100
AcDbXrecord
 10
0.0
 20
0.0
 30
0.0
  0
ENDSEC
  0
EOF
